  0
SECTION
  2
HEADER
  9
$ACADVER
  1
AC1009
  9
$LUNITS
  70
2
  9
$LIMMIN
  10
174193.766
  20
4507718.104
  9
$LIMMAX
  10
203120.499
  20
4527408.784
  9
$EXTMIN
  10
174193.766
  20
4507718.104
  9
$EXTMAX
  10
203120.499
  20
4527408.784
  999
Created by Global Mapper
  999
Projection: UTM
  999
Datum: ETRS89
  999
Ground Units: meters
  999
ZONE: 30
  0
ENDSEC
  0
SECTION
  2
TABLES
  0
ENDSEC
  0
SECTION
  2
BLOCKS
  0
BLOCK
  8
FeatureAttribs
  70
0
  2
FEATURE
  3
FEATURE
  10
0.00000000
  20
0.00000000
  0
ATTDEF
  8
FeatureAttribs
  70
0
  1
 
  2
NAME
  3
NAME
  10
0.00000000
  20
0.00000000
  40
1.00000000
  0
ENDBLK
  0
ENDSEC
  0
SECTION
  2
ENTITIES
  0
INSERT
  8
FeatureAttribs
  2
FEATURE
  41
1
  42
1
  43
1
  50
0
  10
198959.083
  20
4525746.500
 66
1
  0
ATTRIB
  8
FeatureAttribs
 70
0
  1
PNOA-H_AMS_1956-57_33k_ES_PAN_21mic_H50_0475_fot_58A-40172_W.tif
  2
NAME
  10
198959.083
  20
4525746.500
 40
34.99255
  0
SEQEND
  0
POLYLINE
  8
LC_OH_2021_05_O7
  70
1
  66
1
  0
VERTEX
  8
LC_OH_2021_05_O7
  10
199849.342
  20
4526356.474
  0
VERTEX
  8
LC_OH_2021_05_O7
  10
200070.499
  20
4525116.500
  0
VERTEX
  8
LC_OH_2021_05_O7
  10
199081.499
  20
4524873.000
  0
VERTEX
  8
LC_OH_2021_05_O7
  10
199076.999
  20
4524874.000
  0
VERTEX
  8
LC_OH_2021_05_O7
  10
197924.499
  20
4525395.500
  0
VERTEX
  8
LC_OH_2021_05_O7
  10
197920.499
  20
4525397.500
  0
VERTEX
  8
LC_OH_2021_05_O7
  10
197920.499
  20
4525402.000
  0
VERTEX
  8
LC_OH_2021_05_O7
  10
198038.483
  20
4526430.507
  0
VERTEX
  8
LC_OH_2021_05_O7
  10
199606.475
  20
4526366.303
  0
SEQEND
  8
LC_OH_2021_05_O7
  0
INSERT
  8
FeatureAttribs
  2
FEATURE
  41
1
  42
1
  43
1
  50
0
  10
193725.395
  20
4526060.500
 66
1
  0
ATTRIB
  8
FeatureAttribs
 70
0
  1
PNOA-H_AMS_1956-57_33k_ES_PAN_21mic_H50_0475_fot_58A-40174_W.tif
  2
NAME
  10
193725.395
  20
4526060.500
 40
34.99255
  0
SEQEND
  0
POLYLINE
  8
LC_OH_2021_05_O7
  70
1
  66
1
  0
VERTEX
  8
LC_OH_2021_05_O7
  10
195155.189
  20
4526549.017
  0
VERTEX
  8
LC_OH_2021_05_O7
  10
195103.999
  20
4525454.000
  0
VERTEX
  8
LC_OH_2021_05_O7
  10
192864.999
  20
4525211.000
  0
VERTEX
  8
LC_OH_2021_05_O7
  10
192858.999
  20
4525212.000
  0
VERTEX
  8
LC_OH_2021_05_O7
  10
192295.999
  20
4525549.500
  0
VERTEX
  8
LC_OH_2021_05_O7
  10
192345.006
  20
4526665.538
  0
VERTEX
  8
LC_OH_2021_05_O7
  10
192578.356
  20
4526655.760
  0
SEQEND
  8
LC_OH_2021_05_O7
  0
INSERT
  8
FeatureAttribs
  2
FEATURE
  41
1
  42
1
  43
1
  50
0
  10
201777.586
  20
4525652.000
 66
1
  0
ATTRIB
  8
FeatureAttribs
 70
0
  1
PNOA-H_AMS_1956-57_33k_ES_PAN_21mic_H50_0475_fot_58A-40171_W.tif
  2
NAME
  10
201777.586
  20
4525652.000
 40
34.99255
  0
SEQEND
  0
POLYLINE
  8
LC_OH_2021_05_O7
  70
1
  66
1
  0
VERTEX
  8
LC_OH_2021_05_O7
  10
202606.094
  20
4526244.910
  0
VERTEX
  8
LC_OH_2021_05_O7
  10
202702.999
  20
4524844.000
  0
VERTEX
  8
LC_OH_2021_05_O7
  10
202702.999
  20
4524841.500
  0
VERTEX
  8
LC_OH_2021_05_O7
  10
202697.499
  20
4524839.500
  0
VERTEX
  8
LC_OH_2021_05_O7
  10
202365.999
  20
4524734.500
  0
VERTEX
  8
LC_OH_2021_05_O7
  10
202364.499
  20
4524734.500
  0
VERTEX
  8
LC_OH_2021_05_O7
  10
202204.499
  20
4524684.000
  0
VERTEX
  8
LC_OH_2021_05_O7
  10
200862.999
  20
4525219.000
  0
VERTEX
  8
LC_OH_2021_05_O7
  10
200976.604
  20
4526310.855
  0
SEQEND
  8
LC_OH_2021_05_O7
  0
INSERT
  8
FeatureAttribs
  2
FEATURE
  41
1
  42
1
  43
1
  50
0
  10
191127.153
  20
4526161.999
 66
1
  0
ATTRIB
  8
FeatureAttribs
 70
0
  1
PNOA-H_AMS_1956-57_33k_ES_PAN_21mic_H50_0475_fot_58A-40175_W.tif
  2
NAME
  10
191127.153
  20
4526161.999
 40
34.99255
  0
SEQEND
  0
POLYLINE
  8
LC_OH_2021_05_O7
  70
1
  66
1
  0
VERTEX
  8
LC_OH_2021_05_O7
  10
192344.876
  20
4526665.543
  0
VERTEX
  8
LC_OH_2021_05_O7
  10
192295.999
  20
4525549.500
  0
VERTEX
  8
LC_OH_2021_05_O7
  10
189682.999
  20
4525414.000
  0
VERTEX
  8
LC_OH_2021_05_O7
  10
189679.999
  20
4525414.500
  0
VERTEX
  8
LC_OH_2021_05_O7
  10
189670.999
  20
4525420.500
  0
VERTEX
  8
LC_OH_2021_05_O7
  10
189534.499
  20
4525514.000
  0
VERTEX
  8
LC_OH_2021_05_O7
  10
190292.620
  20
4526751.536
  0
SEQEND
  8
LC_OH_2021_05_O7
  0
INSERT
  8
FeatureAttribs
  2
FEATURE
  41
1
  42
1
  43
1
  50
0
  10
185130.805
  20
4526351.499
 66
1
  0
ATTRIB
  8
FeatureAttribs
 70
0
  1
PNOA-H_AMS_1956-57_33k_ES_PAN_21mic_H50_0475_fot_58A-40177_W.tif
  2
NAME
  10
185130.805
  20
4526351.499
 40
34.99255
  0
SEQEND
  0
POLYLINE
  8
LC_OH_2021_05_O7
  70
1
  66
1
  0
VERTEX
  8
LC_OH_2021_05_O7
  10
186567.770
  20
4526908.806
  0
VERTEX
  8
LC_OH_2021_05_O7
  10
186646.998
  20
4525600.000
  0
VERTEX
  8
LC_OH_2021_05_O7
  10
186478.998
  20
4525493.000
  0
VERTEX
  8
LC_OH_2021_05_O7
  10
186473.998
  20
4525493.000
  0
VERTEX
  8
LC_OH_2021_05_O7
  10
183650.498
  20
4525794.000
  0
VERTEX
  8
LC_OH_2021_05_O7
  10
183647.498
  20
4526337.500
  0
VERTEX
  8
LC_OH_2021_05_O7
  10
184250.244
  20
4527007.641
  0
VERTEX
  8
LC_OH_2021_05_O7
  10
185550.143
  20
4526951.932
  0
SEQEND
  8
LC_OH_2021_05_O7
  0
INSERT
  8
FeatureAttribs
  2
FEATURE
  41
1
  42
1
  43
1
  50
0
  10
196282.256
  20
4525968.000
 66
1
  0
ATTRIB
  8
FeatureAttribs
 70
0
  1
PNOA-H_AMS_1956-57_33k_ES_PAN_21mic_H50_0475_fot_58A-40173_W.tif
  2
NAME
  10
196282.256
  20
4525968.000
 40
34.99255
  0
SEQEND
  0
POLYLINE
  8
LC_OH_2021_05_O7
  70
1
  66
1
  0
VERTEX
  8
LC_OH_2021_05_O7
  10
197219.047
  20
4526464.061
  0
VERTEX
  8
LC_OH_2021_05_O7
  10
197697.999
  20
4525371.500
  0
VERTEX
  8
LC_OH_2021_05_O7
  10
197697.999
  20
4525370.500
  0
VERTEX
  8
LC_OH_2021_05_O7
  10
197667.499
  20
4525364.500
  0
VERTEX
  8
LC_OH_2021_05_O7
  10
195925.999
  20
4525026.000
  0
VERTEX
  8
LC_OH_2021_05_O7
  10
195103.999
  20
4525454.000
  0
VERTEX
  8
LC_OH_2021_05_O7
  10
195155.108
  20
4526549.020
  0
VERTEX
  8
LC_OH_2021_05_O7
  10
196092.427
  20
4526510.192
  0
SEQEND
  8
LC_OH_2021_05_O7
  0
INSERT
  8
FeatureAttribs
  2
FEATURE
  41
1
  42
1
  43
1
  50
0
  10
188478.292
  20
4526371.999
 66
1
  0
ATTRIB
  8
FeatureAttribs
 70
0
  1
PNOA-H_AMS_1956-57_33k_ES_PAN_21mic_H50_0475_fot_58A-40176_W.tif
  2
NAME
  10
188478.292
  20
4526371.999
 40
34.99255
  0
SEQEND
  0
POLYLINE
  8
LC_OH_2021_05_O7
  70
1
  66
1
  0
VERTEX
  8
LC_OH_2021_05_O7
  10
189505.799
  20
4526784.505
  0
VERTEX
  8
LC_OH_2021_05_O7
  10
189503.999
  20
4525534.000
  0
VERTEX
  8
LC_OH_2021_05_O7
  10
187179.998
  20
4525620.500
  0
VERTEX
  8
LC_OH_2021_05_O7
  10
187502.999
  20
4526515.000
  0
VERTEX
  8
LC_OH_2021_05_O7
  10
187502.999
  20
4526516.500
  0
VERTEX
  8
LC_OH_2021_05_O7
  10
187628.271
  20
4526863.863
  0
VERTEX
  8
LC_OH_2021_05_O7
  10
189064.261
  20
4526803.006
  0
SEQEND
  8
LC_OH_2021_05_O7
  0
INSERT
  8
FeatureAttribs
  2
FEATURE
  41
1
  42
1
  43
1
  50
0
  10
179071.614
  20
4526507.251
 66
1
  0
ATTRIB
  8
FeatureAttribs
 70
0
  1
PNOA-H_AMS_1956-57_33k_ES_PAN_21mic_H50_0475_fot_58A-40179_W.tif
  2
NAME
  10
179071.614
  20
4526507.251
 40
34.99255
  0
SEQEND
  0
POLYLINE
  8
LC_OH_2021_05_O7
  70
1
  66
1
  0
VERTEX
  8
LC_OH_2021_05_O7
  10
180579.604
  20
4527165.648
  0
VERTEX
  8
LC_OH_2021_05_O7
  10
180561.498
  20
4525828.000
  0
VERTEX
  8
LC_OH_2021_05_O7
  10
180036.998
  20
4525504.500
  0
VERTEX
  8
LC_OH_2021_05_O7
  10
177550.998
  20
4526051.500
  0
VERTEX
  8
LC_OH_2021_05_O7
  10
177609.752
  20
4527294.780
  0
VERTEX
  8
LC_OH_2021_05_O7
  10
178521.833
  20
4527254.820
  0
SEQEND
  8
LC_OH_2021_05_O7
  0
INSERT
  8
FeatureAttribs
  2
FEATURE
  41
1
  42
1
  43
1
  50
0
  10
182099.399
  20
4526531.000
 66
1
  0
ATTRIB
  8
FeatureAttribs
 70
0
  1
PNOA-H_AMS_1956-57_33k_ES_PAN_21mic_H50_0475_fot_58A-40178_W.tif
  2
NAME
  10
182099.399
  20
4526531.000
 40
34.99255
  0
SEQEND
  0
POLYLINE
  8
LC_OH_2021_05_O7
  70
1
  66
1
  0
VERTEX
  8
LC_OH_2021_05_O7
  10
183575.897
  20
4527036.542
  0
VERTEX
  8
LC_OH_2021_05_O7
  10
183647.498
  20
4526339.000
  0
VERTEX
  8
LC_OH_2021_05_O7
  10
183650.498
  20
4525794.000
  0
VERTEX
  8
LC_OH_2021_05_O7
  10
183270.998
  20
4525552.000
  0
VERTEX
  8
LC_OH_2021_05_O7
  10
180561.498
  20
4525828.500
  0
VERTEX
  8
LC_OH_2021_05_O7
  10
180579.599
  20
4527165.649
  0
VERTEX
  8
LC_OH_2021_05_O7
  10
182036.000
  20
4527102.537
  0
SEQEND
  8
LC_OH_2021_05_O7
  0
INSERT
  8
FeatureAttribs
  2
FEATURE
  41
1
  42
1
  43
1
  50
0
  10
197428.950
  20
4522824.250
 66
1
  0
ATTRIB
  8
FeatureAttribs
 70
0
  1
PNOA-H_AMS_1956-57_33k_ES_PAN_21mic_H50_0500_fot_59A-35475_W.tif
  2
NAME
  10
197428.950
  20
4522824.250
 40
34.99255
  0
SEQEND
  0
POLYLINE
  8
LC_OH_2021_05_O7
  70
1
  66
1
  0
VERTEX
  8
LC_OH_2021_05_O7
  10
195925.999
  20
4525026.000
  0
VERTEX
  8
LC_OH_2021_05_O7
  10
197684.999
  20
4525368.500
  0
VERTEX
  8
LC_OH_2021_05_O7
  10
197734.999
  20
4525375.500
  0
VERTEX
  8
LC_OH_2021_05_O7
  10
197738.999
  20
4525376.000
  0
VERTEX
  8
LC_OH_2021_05_O7
  10
197921.499
  20
4525397.500
  0
VERTEX
  8
LC_OH_2021_05_O7
  10
199079.999
  20
4524873.000
  0
VERTEX
  8
LC_OH_2021_05_O7
  10
198861.999
  20
4520346.000
  0
VERTEX
  8
LC_OH_2021_05_O7
  10
196294.999
  20
4520251.000
  0
VERTEX
  8
LC_OH_2021_05_O7
  10
195824.499
  20
4520505.000
  0
VERTEX
  8
LC_OH_2021_05_O7
  10
195925.999
  20
4525026.000
  0
SEQEND
  8
LC_OH_2021_05_O7
  0
INSERT
  8
FeatureAttribs
  2
FEATURE
  41
1
  42
1
  43
1
  50
0
  10
181565.040
  20
4523479.251
 66
1
  0
ATTRIB
  8
FeatureAttribs
 70
0
  1
PNOA-H_AMS_1956-57_33k_ES_PAN_21mic_H50_0500_fot_59A-35480_W.tif
  2
NAME
  10
181565.040
  20
4523479.251
 40
34.99255
  0
SEQEND
  0
POLYLINE
  8
LC_OH_2021_05_O7
  70
1
  66
1
  0
VERTEX
  8
LC_OH_2021_05_O7
  10
180036.998
  20
4525505.000
  0
VERTEX
  8
LC_OH_2021_05_O7
  10
180561.498
  20
4525828.500
  0
VERTEX
  8
LC_OH_2021_05_O7
  10
181355.498
  20
4525747.000
  0
VERTEX
  8
LC_OH_2021_05_O7
  10
181359.498
  20
4525747.000
  0
VERTEX
  8
LC_OH_2021_05_O7
  10
183269.998
  20
4525551.500
  0
VERTEX
  8
LC_OH_2021_05_O7
  10
183124.998
  20
4521197.500
  0
VERTEX
  8
LC_OH_2021_05_O7
  10
180509.998
  20
4521130.000
  0
VERTEX
  8
LC_OH_2021_05_O7
  10
180500.498
  20
4521130.500
  0
VERTEX
  8
LC_OH_2021_05_O7
  10
179826.998
  20
4521562.000
  0
VERTEX
  8
LC_OH_2021_05_O7
  10
180036.998
  20
4525505.000
  0
SEQEND
  8
LC_OH_2021_05_O7
  0
INSERT
  8
FeatureAttribs
  2
FEATURE
  41
1
  42
1
  43
1
  50
0
  10
200527.251
  20
4522661.750
 66
1
  0
ATTRIB
  8
FeatureAttribs
 70
0
  1
PNOA-H_AMS_1956-57_33k_ES_PAN_21mic_H50_0500_fot_59A-35474_W.tif
  2
NAME
  10
200527.251
  20
4522661.750
 40
34.99255
  0
SEQEND
  0
POLYLINE
  8
LC_OH_2021_05_O7
  70
1
  66
1
  0
VERTEX
  8
LC_OH_2021_05_O7
  10
199079.999
  20
4524873.000
  0
VERTEX
  8
LC_OH_2021_05_O7
  10
200070.499
  20
4525117.000
  0
VERTEX
  8
LC_OH_2021_05_O7
  10
200863.999
  20
4525219.000
  0
VERTEX
  8
LC_OH_2021_05_O7
  10
201837.999
  20
4524830.000
  0
VERTEX
  8
LC_OH_2021_05_O7
  10
201839.499
  20
4524829.500
  0
VERTEX
  8
LC_OH_2021_05_O7
  10
202204.999
  20
4524684.000
  0
VERTEX
  8
LC_OH_2021_05_O7
  10
201929.999
  20
4520199.500
  0
VERTEX
  8
LC_OH_2021_05_O7
  10
199307.999
  20
4520104.500
  0
VERTEX
  8
LC_OH_2021_05_O7
  10
198861.999
  20
4520346.000
  0
VERTEX
  8
LC_OH_2021_05_O7
  10
199079.999
  20
4524873.000
  0
SEQEND
  8
LC_OH_2021_05_O7
  0
INSERT
  8
FeatureAttribs
  2
FEATURE
  41
1
  42
1
  43
1
  50
0
  10
197938.229
  20
4513829.501
 66
1
  0
ATTRIB
  8
FeatureAttribs
 70
0
  1
PNOA-H_AMS_1956-57_33k_ES_PAN_21mic_H50_0500_fot_61A-39629_W.tif
  2
NAME
  10
197938.229
  20
4513829.501
 40
34.99255
  0
SEQEND
  0
POLYLINE
  8
LC_OH_2021_05_O7
  70
1
  66
1
  0
VERTEX
  8
LC_OH_2021_05_O7
  10
199104.999
  20
4515863.500
  0
VERTEX
  8
LC_OH_2021_05_O7
  10
199109.999
  20
4515861.000
  0
VERTEX
  8
LC_OH_2021_05_O7
  10
199410.999
  20
4515626.000
  0
VERTEX
  8
LC_OH_2021_05_O7
  10
199419.999
  20
4511822.000
  0
VERTEX
  8
LC_OH_2021_05_O7
  10
196489.499
  20
4511795.500
  0
VERTEX
  8
LC_OH_2021_05_O7
  10
196435.999
  20
4515644.500
  0
VERTEX
  8
LC_OH_2021_05_O7
  10
199098.999
  20
4515863.000
  0
VERTEX
  8
LC_OH_2021_05_O7
  10
199104.999
  20
4515863.500
  0
SEQEND
  8
LC_OH_2021_05_O7
  0
INSERT
  8
FeatureAttribs
  2
FEATURE
  41
1
  42
1
  43
1
  50
0
  10
191966.097
  20
4513848.750
 66
1
  0
ATTRIB
  8
FeatureAttribs
 70
0
  1
PNOA-H_AMS_1956-57_33k_ES_PAN_21mic_H50_0500_fot_61A-39631_W.tif
  2
NAME
  10
191966.097
  20
4513848.750
 40
34.99255
  0
SEQEND
  0
POLYLINE
  8
LC_OH_2021_05_O7
  70
1
  66
1
  0
VERTEX
  8
LC_OH_2021_05_O7
  10
193048.499
  20
4515974.500
  0
VERTEX
  8
LC_OH_2021_05_O7
  10
193050.999
  20
4515974.500
  0
VERTEX
  8
LC_OH_2021_05_O7
  10
193058.499
  20
4515969.500
  0
VERTEX
  8
LC_OH_2021_05_O7
  10
193437.999
  20
4515710.000
  0
VERTEX
  8
LC_OH_2021_05_O7
  10
193478.999
  20
4511804.500
  0
VERTEX
  8
LC_OH_2021_05_O7
  10
193363.999
  20
4511723.000
  0
VERTEX
  8
LC_OH_2021_05_O7
  10
190490.999
  20
4511863.500
  0
VERTEX
  8
LC_OH_2021_05_O7
  10
190459.999
  20
4515633.000
  0
VERTEX
  8
LC_OH_2021_05_O7
  10
193044.499
  20
4515974.000
  0
VERTEX
  8
LC_OH_2021_05_O7
  10
193048.499
  20
4515974.500
  0
SEQEND
  8
LC_OH_2021_05_O7
  0
INSERT
  8
FeatureAttribs
  2
FEATURE
  41
1
  42
1
  43
1
  50
0
  10
194307.244
  20
4522892.500
 66
1
  0
ATTRIB
  8
FeatureAttribs
 70
0
  1
PNOA-H_AMS_1956-57_33k_ES_PAN_21mic_H50_0500_fot_59A-35476_W.tif
  2
NAME
  10
194307.244
  20
4522892.500
 40
34.99255
  0
SEQEND
  0
POLYLINE
  8
LC_OH_2021_05_O7
  70
1
  66
1
  0
VERTEX
  8
LC_OH_2021_05_O7
  10
192861.499
  20
4525211.000
  0
VERTEX
  8
LC_OH_2021_05_O7
  10
195104.499
  20
4525454.000
  0
VERTEX
  8
LC_OH_2021_05_O7
  10
195694.499
  20
4525146.500
  0
VERTEX
  8
LC_OH_2021_05_O7
  10
195695.499
  20
4525146.000
  0
VERTEX
  8
LC_OH_2021_05_O7
  10
195925.999
  20
4525026.500
  0
VERTEX
  8
LC_OH_2021_05_O7
  10
195824.499
  20
4520505.000
  0
VERTEX
  8
LC_OH_2021_05_O7
  10
193018.499
  20
4520331.000
  0
VERTEX
  8
LC_OH_2021_05_O7
  10
192609.999
  20
4520550.000
  0
VERTEX
  8
LC_OH_2021_05_O7
  10
192861.499
  20
4525211.000
  0
SEQEND
  8
LC_OH_2021_05_O7
  0
INSERT
  8
FeatureAttribs
  2
FEATURE
  41
1
  42
1
  43
1
  50
0
  10
200894.389
  20
4513724.751
 66
1
  0
ATTRIB
  8
FeatureAttribs
 70
0
  1
PNOA-H_AMS_1956-57_33k_ES_PAN_21mic_H50_0500_fot_61A-39628_W.tif
  2
NAME
  10
200894.389
  20
4513724.751
 40
34.99255
  0
SEQEND
  0
POLYLINE
  8
LC_OH_2021_05_O7
  70
1
  66
1
  0
VERTEX
  8
LC_OH_2021_05_O7
  10
199776.999
  20
4515642.500
  0
VERTEX
  8
LC_OH_2021_05_O7
  10
199787.999
  20
4515643.000
  0
VERTEX
  8
LC_OH_2021_05_O7
  10
202238.499
  20
4515754.000
  0
VERTEX
  8
LC_OH_2021_05_O7
  10
202246.499
  20
4515754.000
  0
VERTEX
  8
LC_OH_2021_05_O7
  10
202362.499
  20
4515650.500
  0
VERTEX
  8
LC_OH_2021_05_O7
  10
202383.499
  20
4511910.500
  0
VERTEX
  8
LC_OH_2021_05_O7
  10
199612.499
  20
4511695.500
  0
VERTEX
  8
LC_OH_2021_05_O7
  10
199605.499
  20
4511696.000
  0
VERTEX
  8
LC_OH_2021_05_O7
  10
199419.999
  20
4511821.500
  0
VERTEX
  8
LC_OH_2021_05_O7
  10
199410.999
  20
4515625.500
  0
SEQEND
  8
LC_OH_2021_05_O7
  0
INSERT
  8
FeatureAttribs
  2
FEATURE
  41
1
  42
1
  43
1
  50
0
  10
194959.320
  20
4513848.001
 66
1
  0
ATTRIB
  8
FeatureAttribs
 70
0
  1
PNOA-H_AMS_1956-57_33k_ES_PAN_21mic_H50_0500_fot_61A-39630_W.tif
  2
NAME
  10
194959.320
  20
4513848.001
 40
34.99255
  0
SEQEND
  0
POLYLINE
  8
LC_OH_2021_05_O7
  70
1
  66
1
  0
VERTEX
  8
LC_OH_2021_05_O7
  10
193645.999
  20
4515727.500
  0
VERTEX
  8
LC_OH_2021_05_O7
  10
196045.999
  20
4515929.000
  0
VERTEX
  8
LC_OH_2021_05_O7
  10
196435.999
  20
4515645.000
  0
VERTEX
  8
LC_OH_2021_05_O7
  10
196489.499
  20
4511815.500
  0
VERTEX
  8
LC_OH_2021_05_O7
  10
196489.499
  20
4511795.500
  0
VERTEX
  8
LC_OH_2021_05_O7
  10
196450.499
  20
4511767.000
  0
VERTEX
  8
LC_OH_2021_05_O7
  10
193478.999
  20
4511804.500
  0
VERTEX
  8
LC_OH_2021_05_O7
  10
193437.999
  20
4515709.500
  0
VERTEX
  8
LC_OH_2021_05_O7
  10
193640.499
  20
4515727.000
  0
VERTEX
  8
LC_OH_2021_05_O7
  10
193645.999
  20
4515727.500
  0
SEQEND
  8
LC_OH_2021_05_O7
  0
INSERT
  8
FeatureAttribs
  2
FEATURE
  41
1
  42
1
  43
1
  50
0
  10
191162.119
  20
4522991.000
 66
1
  0
ATTRIB
  8
FeatureAttribs
 70
0
  1
PNOA-H_AMS_1956-57_33k_ES_PAN_21mic_H50_0500_fot_59A-35477_W.tif
  2
NAME
  10
191162.119
  20
4522991.000
 40
34.99255
  0
SEQEND
  0
POLYLINE
  8
LC_OH_2021_05_O7
  70
1
  66
1
  0
VERTEX
  8
LC_OH_2021_05_O7
  10
189680.999
  20
4525414.000
  0
VERTEX
  8
LC_OH_2021_05_O7
  10
191583.999
  20
4525513.000
  0
VERTEX
  8
LC_OH_2021_05_O7
  10
191593.999
  20
4525513.500
  0
VERTEX
  8
LC_OH_2021_05_O7
  10
192296.499
  20
4525549.500
  0
VERTEX
  8
LC_OH_2021_05_O7
  10
192861.499
  20
4525211.000
  0
VERTEX
  8
LC_OH_2021_05_O7
  10
192609.999
  20
4520550.000
  0
VERTEX
  8
LC_OH_2021_05_O7
  10
189958.999
  20
4520432.500
  0
VERTEX
  8
LC_OH_2021_05_O7
  10
189488.499
  20
4520678.000
  0
VERTEX
  8
LC_OH_2021_05_O7
  10
189680.999
  20
4525414.000
  0
SEQEND
  8
LC_OH_2021_05_O7
  0
INSERT
  8
FeatureAttribs
  2
FEATURE
  41
1
  42
1
  43
1
  50
0
  10
184780.655
  20
4523318.751
 66
1
  0
ATTRIB
  8
FeatureAttribs
 70
0
  1
PNOA-H_AMS_1956-57_33k_ES_PAN_21mic_H50_0500_fot_59A-35479_W.tif
  2
NAME
  10
184780.655
  20
4523318.751
 40
34.99255
  0
SEQEND
  0
POLYLINE
  8
LC_OH_2021_05_O7
  70
1
  66
1
  0
VERTEX
  8
LC_OH_2021_05_O7
  10
183269.998
  20
4525552.000
  0
VERTEX
  8
LC_OH_2021_05_O7
  10
183405.998
  20
4525638.000
  0
VERTEX
  8
LC_OH_2021_05_O7
  10
183406.498
  20
4525639.000
  0
VERTEX
  8
LC_OH_2021_05_O7
  10
183646.498
  20
4525792.000
  0
VERTEX
  8
LC_OH_2021_05_O7
  10
183649.998
  20
4525794.000
  0
VERTEX
  8
LC_OH_2021_05_O7
  10
183654.498
  20
4525794.000
  0
VERTEX
  8
LC_OH_2021_05_O7
  10
186477.998
  20
4525493.000
  0
VERTEX
  8
LC_OH_2021_05_O7
  10
186245.998
  20
4521002.000
  0
VERTEX
  8
LC_OH_2021_05_O7
  10
183704.998
  20
4520843.500
  0
VERTEX
  8
LC_OH_2021_05_O7
  10
183124.998
  20
4521197.500
  0
VERTEX
  8
LC_OH_2021_05_O7
  10
183269.998
  20
4525552.000
  0
SEQEND
  8
LC_OH_2021_05_O7
  0
INSERT
  8
FeatureAttribs
  2
FEATURE
  41
1
  42
1
  43
1
  50
0
  10
188986.247
  20
4513890.251
 66
1
  0
ATTRIB
  8
FeatureAttribs
 70
0
  1
PNOA-H_AMS_1956-57_33k_ES_PAN_21mic_H50_0500_fot_61A-39632_W.tif
  2
NAME
  10
188986.247
  20
4513890.251
 40
34.99255
  0
SEQEND
  0
POLYLINE
  8
LC_OH_2021_05_O7
  70
1
  66
1
  0
VERTEX
  8
LC_OH_2021_05_O7
  10
187501.999
  20
4515658.000
  0
VERTEX
  8
LC_OH_2021_05_O7
  10
189729.999
  20
4516090.000
  0
VERTEX
  8
LC_OH_2021_05_O7
  10
190459.999
  20
4515633.000
  0
VERTEX
  8
LC_OH_2021_05_O7
  10
190490.999
  20
4511863.500
  0
VERTEX
  8
LC_OH_2021_05_O7
  10
190234.999
  20
4511690.500
  0
VERTEX
  8
LC_OH_2021_05_O7
  10
187495.499
  20
4511845.500
  0
VERTEX
  8
LC_OH_2021_05_O7
  10
187500.499
  20
4515657.500
  0
VERTEX
  8
LC_OH_2021_05_O7
  10
187501.999
  20
4515658.000
  0
SEQEND
  8
LC_OH_2021_05_O7
  0
INSERT
  8
FeatureAttribs
  2
FEATURE
  41
1
  42
1
  43
1
  50
0
  10
187971.149
  20
4523110.501
 66
1
  0
ATTRIB
  8
FeatureAttribs
 70
0
  1
PNOA-H_AMS_1956-57_33k_ES_PAN_21mic_H50_0500_fot_59A-35478_W.tif
  2
NAME
  10
187971.149
  20
4523110.501
 40
34.99255
  0
SEQEND
  0
POLYLINE
  8
LC_OH_2021_05_O7
  70
1
  66
1
  0
VERTEX
  8
LC_OH_2021_05_O7
  10
186477.998
  20
4525493.000
  0
VERTEX
  8
LC_OH_2021_05_O7
  10
186645.498
  20
4525599.500
  0
VERTEX
  8
LC_OH_2021_05_O7
  10
186648.498
  20
4525600.500
  0
VERTEX
  8
LC_OH_2021_05_O7
  10
187174.998
  20
4525620.500
  0
VERTEX
  8
LC_OH_2021_05_O7
  10
187493.999
  20
4525608.500
  0
VERTEX
  8
LC_OH_2021_05_O7
  10
187503.499
  20
4525608.500
  0
VERTEX
  8
LC_OH_2021_05_O7
  10
189503.999
  20
4525534.000
  0
VERTEX
  8
LC_OH_2021_05_O7
  10
189537.499
  20
4525512.500
  0
VERTEX
  8
LC_OH_2021_05_O7
  10
189680.999
  20
4525414.500
  0
VERTEX
  8
LC_OH_2021_05_O7
  10
189488.499
  20
4520678.000
  0
VERTEX
  8
LC_OH_2021_05_O7
  10
186955.498
  20
4520600.500
  0
VERTEX
  8
LC_OH_2021_05_O7
  10
186944.998
  20
4520601.000
  0
VERTEX
  8
LC_OH_2021_05_O7
  10
186245.998
  20
4521002.000
  0
SEQEND
  8
LC_OH_2021_05_O7
  0
INSERT
  8
FeatureAttribs
  2
FEATURE
  41
1
  42
1
  43
1
  50
0
  10
183064.079
  20
4514023.751
 66
1
  0
ATTRIB
  8
FeatureAttribs
 70
0
  1
PNOA-H_AMS_1956-57_33k_ES_PAN_21mic_H50_0500_fot_61A-39634_W.tif
  2
NAME
  10
183064.079
  20
4514023.751
 40
34.99255
  0
SEQEND
  0
POLYLINE
  8
LC_OH_2021_05_O7
  70
1
  66
1
  0
VERTEX
  8
LC_OH_2021_05_O7
  10
183407.498
  20
4516325.500
  0
VERTEX
  8
LC_OH_2021_05_O7
  10
184496.498
  20
4515848.000
  0
VERTEX
  8
LC_OH_2021_05_O7
  10
184593.998
  20
4511879.000
  0
VERTEX
  8
LC_OH_2021_05_O7
  10
184200.498
  20
4511628.500
  0
VERTEX
  8
LC_OH_2021_05_O7
  10
184196.998
  20
4511628.000
  0
VERTEX
  8
LC_OH_2021_05_O7
  10
181557.498
  20
4511928.500
  0
VERTEX
  8
LC_OH_2021_05_O7
  10
181614.498
  20
4516000.000
  0
VERTEX
  8
LC_OH_2021_05_O7
  10
183192.998
  20
4516419.500
  0
VERTEX
  8
LC_OH_2021_05_O7
  10
183405.498
  20
4516326.000
  0
VERTEX
  8
LC_OH_2021_05_O7
  10
183407.498
  20
4516325.500
  0
SEQEND
  8
LC_OH_2021_05_O7
  0
INSERT
  8
FeatureAttribs
  2
FEATURE
  41
1
  42
1
  43
1
  50
0
  10
186020.558
  20
4513951.501
 66
1
  0
ATTRIB
  8
FeatureAttribs
 70
0
  1
PNOA-H_AMS_1956-57_33k_ES_PAN_21mic_H50_0500_fot_61A-39633_W.tif
  2
NAME
  10
186020.558
  20
4513951.501
 40
34.99255
  0
SEQEND
  0
POLYLINE
  8
LC_OH_2021_05_O7
  70
1
  66
1
  0
VERTEX
  8
LC_OH_2021_05_O7
  10
186410.998
  20
4516243.000
  0
VERTEX
  8
LC_OH_2021_05_O7
  10
187500.499
  20
4515657.500
  0
VERTEX
  8
LC_OH_2021_05_O7
  10
187495.499
  20
4511845.500
  0
VERTEX
  8
LC_OH_2021_05_O7
  10
187218.499
  20
4511660.000
  0
VERTEX
  8
LC_OH_2021_05_O7
  10
184597.998
  20
4511878.500
  0
VERTEX
  8
LC_OH_2021_05_O7
  10
184593.998
  20
4511879.000
  0
VERTEX
  8
LC_OH_2021_05_O7
  10
184593.498
  20
4511880.000
  0
VERTEX
  8
LC_OH_2021_05_O7
  10
184496.498
  20
4515848.000
  0
VERTEX
  8
LC_OH_2021_05_O7
  10
186408.998
  20
4516242.500
  0
VERTEX
  8
LC_OH_2021_05_O7
  10
186410.998
  20
4516243.000
  0
SEQEND
  8
LC_OH_2021_05_O7
  0
INSERT
  8
FeatureAttribs
  2
FEATURE
  41
1
  42
1
  43
1
  50
0
  10
202498.762
  20
4522422.526
 66
1
  0
ATTRIB
  8
FeatureAttribs
 70
0
  1
PNOA-H_AMS_1956-57_33k_ES_PAN_21mic_H50_0501_fot_59A-35473_W.tif
  2
NAME
  10
202498.762
  20
4522422.526
 40
34.99255
  0
SEQEND
  0
POLYLINE
  8
LC_OH_2021_05_O7
  70
1
  66
1
  0
VERTEX
  8
LC_OH_2021_05_O7
  10
202868.601
  20
4519959.097
  0
VERTEX
  8
LC_OH_2021_05_O7
  10
202391.999
  20
4519938.000
  0
VERTEX
  8
LC_OH_2021_05_O7
  10
201929.999
  20
4520199.500
  0
VERTEX
  8
LC_OH_2021_05_O7
  10
202204.999
  20
4524684.000
  0
VERTEX
  8
LC_OH_2021_05_O7
  10
202703.999
  20
4524842.000
  0
VERTEX
  8
LC_OH_2021_05_O7
  10
203067.525
  20
4524907.052
  0
VERTEX
  8
LC_OH_2021_05_O7
  10
203027.454
  20
4523910.825
  0
VERTEX
  8
LC_OH_2021_05_O7
  10
202934.448
  20
4521597.564
  0
SEQEND
  8
LC_OH_2021_05_O7
  0
INSERT
  8
FeatureAttribs
  2
FEATURE
  41
1
  42
1
  43
1
  50
0
  10
180112.612
  20
4514126.500
 66
1
  0
ATTRIB
  8
FeatureAttribs
 70
0
  1
PNOA-H_AMS_1956-57_33k_ES_PAN_21mic_H50_0500_fot_61A-39635_W.tif
  2
NAME
  10
180112.612
  20
4514126.500
 40
34.99255
  0
SEQEND
  0
POLYLINE
  8
LC_OH_2021_05_O7
  70
1
  66
1
  0
VERTEX
  8
LC_OH_2021_05_O7
  10
178655.998
  20
4516222.000
  0
VERTEX
  8
LC_OH_2021_05_O7
  10
179981.998
  20
4516571.000
  0
VERTEX
  8
LC_OH_2021_05_O7
  10
179991.498
  20
4516568.500
  0
VERTEX
  8
LC_OH_2021_05_O7
  10
181614.498
  20
4516000.000
  0
VERTEX
  8
LC_OH_2021_05_O7
  10
181564.998
  20
4512472.500
  0
VERTEX
  8
LC_OH_2021_05_O7
  10
181564.998
  20
4512446.500
  0
VERTEX
  8
LC_OH_2021_05_O7
  10
181557.498
  20
4511928.500
  0
VERTEX
  8
LC_OH_2021_05_O7
  10
181173.498
  20
4511682.000
  0
VERTEX
  8
LC_OH_2021_05_O7
  10
178617.998
  20
4512029.000
  0
VERTEX
  8
LC_OH_2021_05_O7
  10
178655.998
  20
4516222.000
  0
SEQEND
  8
LC_OH_2021_05_O7
  0
INSERT
  8
FeatureAttribs
  2
FEATURE
  41
1
  42
1
  43
1
  50
0
  10
202528.963
  20
4513730.663
 66
1
  0
ATTRIB
  8
FeatureAttribs
 70
0
  1
PNOA-H_AMS_1956-57_33k_ES_PAN_21mic_H50_0501_fot_61A-39627_W.tif
  2
NAME
  10
202528.963
  20
4513730.663
 40
34.99255
  0
SEQEND
  0
POLYLINE
  8
LC_OH_2021_05_O7
  70
1
  66
1
  0
VERTEX
  8
LC_OH_2021_05_O7
  10
202695.427
  20
4515647.956
  0
VERTEX
  8
LC_OH_2021_05_O7
  10
202655.668
  20
4514657.810
  0
VERTEX
  8
LC_OH_2021_05_O7
  10
202562.820
  20
4512344.570
  0
VERTEX
  8
LC_OH_2021_05_O7
  10
202541.426
  20
4511811.326
  0
VERTEX
  8
LC_OH_2021_05_O7
  10
202383.499
  20
4511910.500
  0
VERTEX
  8
LC_OH_2021_05_O7
  10
202362.499
  20
4515650.000
  0
SEQEND
  8
LC_OH_2021_05_O7
  0
INSERT
  8
FeatureAttribs
  2
FEATURE
  41
1
  42
1
  43
1
  50
0
  10
181829.659
  20
4518598.750
 66
1
  0
ATTRIB
  8
FeatureAttribs
 70
0
  1
PNOA-H_AMS_1956-57_33k_ES_PAN_21mic_H50_0500_fot_60A-04405_E.tif
  2
NAME
  10
181829.659
  20
4518598.750
 40
34.99255
  0
SEQEND
  0
POLYLINE
  8
LC_OH_2021_05_O7
  70
1
  66
1
  0
VERTEX
  8
LC_OH_2021_05_O7
  10
183105.998
  20
4521197.500
  0
VERTEX
  8
LC_OH_2021_05_O7
  10
183126.998
  20
4521197.000
  0
VERTEX
  8
LC_OH_2021_05_O7
  10
183705.498
  20
4520843.500
  0
VERTEX
  8
LC_OH_2021_05_O7
  10
183193.498
  20
4516419.500
  0
VERTEX
  8
LC_OH_2021_05_O7
  10
181615.998
  20
4516000.000
  0
VERTEX
  8
LC_OH_2021_05_O7
  10
181611.498
  20
4516000.500
  0
VERTEX
  8
LC_OH_2021_05_O7
  10
179982.998
  20
4516571.000
  0
VERTEX
  8
LC_OH_2021_05_O7
  10
180501.498
  20
4521129.500
  0
VERTEX
  8
LC_OH_2021_05_O7
  10
180509.998
  20
4521130.500
  0
VERTEX
  8
LC_OH_2021_05_O7
  10
183086.498
  20
4521197.000
  0
VERTEX
  8
LC_OH_2021_05_O7
  10
183105.998
  20
4521197.500
  0
SEQEND
  8
LC_OH_2021_05_O7
  0
INSERT
  8
FeatureAttribs
  2
FEATURE
  41
1
  42
1
  43
1
  50
0
  10
191435.226
  20
4518091.501
 66
1
  0
ATTRIB
  8
FeatureAttribs
 70
0
  1
PNOA-H_AMS_1956-57_33k_ES_PAN_21mic_H50_0500_fot_60A-04408_E.tif
  2
NAME
  10
191435.226
  20
4518091.501
 40
34.99255
  0
SEQEND
  0
POLYLINE
  8
LC_OH_2021_05_O7
  70
1
  66
1
  0
VERTEX
  8
LC_OH_2021_05_O7
  10
192598.999
  20
4520550.000
  0
VERTEX
  8
LC_OH_2021_05_O7
  10
192610.499
  20
4520550.000
  0
VERTEX
  8
LC_OH_2021_05_O7
  10
192616.499
  20
4520547.000
  0
VERTEX
  8
LC_OH_2021_05_O7
  10
193018.499
  20
4520331.500
  0
VERTEX
  8
LC_OH_2021_05_O7
  10
193050.499
  20
4515974.500
  0
VERTEX
  8
LC_OH_2021_05_O7
  10
190461.999
  20
4515633.000
  0
VERTEX
  8
LC_OH_2021_05_O7
  10
190457.499
  20
4515634.000
  0
VERTEX
  8
LC_OH_2021_05_O7
  10
189729.499
  20
4516090.000
  0
VERTEX
  8
LC_OH_2021_05_O7
  10
189959.499
  20
4520432.500
  0
VERTEX
  8
LC_OH_2021_05_O7
  10
192587.999
  20
4520549.500
  0
VERTEX
  8
LC_OH_2021_05_O7
  10
192598.999
  20
4520550.000
  0
SEQEND
  8
LC_OH_2021_05_O7
  0
INSERT
  8
FeatureAttribs
  2
FEATURE
  41
1
  42
1
  43
1
  50
0
  10
185052.615
  20
4518425.000
 66
1
  0
ATTRIB
  8
FeatureAttribs
 70
0
  1
PNOA-H_AMS_1956-57_33k_ES_PAN_21mic_H50_0500_fot_60A-04406_E.tif
  2
NAME
  10
185052.615
  20
4518425.000
 40
34.99255
  0
SEQEND
  0
POLYLINE
  8
LC_OH_2021_05_O7
  70
1
  66
1
  0
VERTEX
  8
LC_OH_2021_05_O7
  10
185447.998
  20
4520952.500
  0
VERTEX
  8
LC_OH_2021_05_O7
  10
186246.498
  20
4521002.000
  0
VERTEX
  8
LC_OH_2021_05_O7
  10
186946.498
  20
4520600.500
  0
VERTEX
  8
LC_OH_2021_05_O7
  10
186412.498
  20
4516244.500
  0
VERTEX
  8
LC_OH_2021_05_O7
  10
186411.998
  20
4516243.000
  0
VERTEX
  8
LC_OH_2021_05_O7
  10
186408.998
  20
4516242.000
  0
VERTEX
  8
LC_OH_2021_05_O7
  10
184498.998
  20
4515848.000
  0
VERTEX
  8
LC_OH_2021_05_O7
  10
184495.498
  20
4515848.000
  0
VERTEX
  8
LC_OH_2021_05_O7
  10
184490.498
  20
4515850.000
  0
VERTEX
  8
LC_OH_2021_05_O7
  10
183193.498
  20
4516419.000
  0
VERTEX
  8
LC_OH_2021_05_O7
  10
183704.998
  20
4520842.500
  0
VERTEX
  8
LC_OH_2021_05_O7
  10
183705.498
  20
4520843.500
  0
VERTEX
  8
LC_OH_2021_05_O7
  10
183709.998
  20
4520844.000
  0
VERTEX
  8
LC_OH_2021_05_O7
  10
185439.998
  20
4520952.000
  0
VERTEX
  8
LC_OH_2021_05_O7
  10
185447.998
  20
4520952.500
  0
SEQEND
  8
LC_OH_2021_05_O7
  0
INSERT
  8
FeatureAttribs
  2
FEATURE
  41
1
  42
1
  43
1
  50
0
  10
194603.168
  20
4518107.251
 66
1
  0
ATTRIB
  8
FeatureAttribs
 70
0
  1
PNOA-H_AMS_1956-57_33k_ES_PAN_21mic_H50_0500_fot_60A-04409_E.tif
  2
NAME
  10
194603.168
  20
4518107.251
 40
34.99255
  0
SEQEND
  0
POLYLINE
  8
LC_OH_2021_05_O7
  70
1
  66
1
  0
VERTEX
  8
LC_OH_2021_05_O7
  10
193640.499
  20
4520370.000
  0
VERTEX
  8
LC_OH_2021_05_O7
  10
195824.999
  20
4520505.000
  0
VERTEX
  8
LC_OH_2021_05_O7
  10
196295.499
  20
4520250.500
  0
VERTEX
  8
LC_OH_2021_05_O7
  10
196045.499
  20
4515929.000
  0
VERTEX
  8
LC_OH_2021_05_O7
  10
193438.499
  20
4515709.500
  0
VERTEX
  8
LC_OH_2021_05_O7
  10
193050.499
  20
4515974.500
  0
VERTEX
  8
LC_OH_2021_05_O7
  10
193018.499
  20
4520331.000
  0
VERTEX
  8
LC_OH_2021_05_O7
  10
193632.499
  20
4520369.500
  0
VERTEX
  8
LC_OH_2021_05_O7
  10
193640.499
  20
4520370.000
  0
SEQEND
  8
LC_OH_2021_05_O7
  0
INSERT
  8
FeatureAttribs
  2
FEATURE
  41
1
  42
1
  43
1
  50
0
  10
197686.402
  20
4517995.251
 66
1
  0
ATTRIB
  8
FeatureAttribs
 70
0
  1
PNOA-H_AMS_1956-57_33k_ES_PAN_21mic_H50_0500_fot_60A-04410_E.tif
  2
NAME
  10
197686.402
  20
4517995.251
 40
34.99255
  0
SEQEND
  0
POLYLINE
  8
LC_OH_2021_05_O7
  70
1
  66
1
  0
VERTEX
  8
LC_OH_2021_05_O7
  10
198849.999
  20
4520346.000
  0
VERTEX
  8
LC_OH_2021_05_O7
  10
198862.999
  20
4520346.000
  0
VERTEX
  8
LC_OH_2021_05_O7
  10
198864.999
  20
4520345.000
  0
VERTEX
  8
LC_OH_2021_05_O7
  10
199308.499
  20
4520104.500
  0
VERTEX
  8
LC_OH_2021_05_O7
  10
199106.499
  20
4515863.500
  0
VERTEX
  8
LC_OH_2021_05_O7
  10
196439.499
  20
4515644.500
  0
VERTEX
  8
LC_OH_2021_05_O7
  10
196435.999
  20
4515644.500
  0
VERTEX
  8
LC_OH_2021_05_O7
  10
196433.499
  20
4515646.000
  0
VERTEX
  8
LC_OH_2021_05_O7
  10
196045.499
  20
4515929.000
  0
VERTEX
  8
LC_OH_2021_05_O7
  10
196294.999
  20
4520250.500
  0
VERTEX
  8
LC_OH_2021_05_O7
  10
198836.499
  20
4520345.500
  0
VERTEX
  8
LC_OH_2021_05_O7
  10
198849.999
  20
4520346.000
  0
SEQEND
  8
LC_OH_2021_05_O7
  0
INSERT
  8
FeatureAttribs
  2
FEATURE
  41
1
  42
1
  43
1
  50
0
  10
202557.301
  20
4517803.565
 66
1
  0
ATTRIB
  8
FeatureAttribs
 70
0
  1
PNOA-H_AMS_1956-57_33k_ES_PAN_21mic_H50_0501_fot_60A-04412_E.tif
  2
NAME
  10
202557.301
  20
4517803.565
 40
34.99255
  0
SEQEND
  0
POLYLINE
  8
LC_OH_2021_05_O7
  70
1
  66
1
  0
VERTEX
  8
LC_OH_2021_05_O7
  10
202695.428
  20
4515647.981
  0
VERTEX
  8
LC_OH_2021_05_O7
  10
202362.499
  20
4515650.000
  0
VERTEX
  8
LC_OH_2021_05_O7
  10
202245.999
  20
4515754.000
  0
VERTEX
  8
LC_OH_2021_05_O7
  10
202391.999
  20
4519938.000
  0
VERTEX
  8
LC_OH_2021_05_O7
  10
202868.603
  20
4519959.150
  0
VERTEX
  8
LC_OH_2021_05_O7
  10
202841.482
  20
4519284.307
  0
VERTEX
  8
LC_OH_2021_05_O7
  10
202748.555
  20
4516971.056
  0
SEQEND
  8
LC_OH_2021_05_O7
  0
INSERT
  8
FeatureAttribs
  2
FEATURE
  41
1
  42
1
  43
1
  50
0
  10
200762.597
  20
4517912.501
 66
1
  0
ATTRIB
  8
FeatureAttribs
 70
0
  1
PNOA-H_AMS_1956-57_33k_ES_PAN_21mic_H50_0500_fot_60A-04411_E.tif
  2
NAME
  10
200762.597
  20
4517912.501
 40
34.99255
  0
SEQEND
  0
POLYLINE
  8
LC_OH_2021_05_O7
  70
1
  66
1
  0
VERTEX
  8
LC_OH_2021_05_O7
  10
199307.999
  20
4520102.500
  0
VERTEX
  8
LC_OH_2021_05_O7
  10
199308.499
  20
4520104.500
  0
VERTEX
  8
LC_OH_2021_05_O7
  10
199309.999
  20
4520105.000
  0
VERTEX
  8
LC_OH_2021_05_O7
  10
199765.499
  20
4520121.500
  0
VERTEX
  8
LC_OH_2021_05_O7
  10
199779.499
  20
4520122.000
  0
VERTEX
  8
LC_OH_2021_05_O7
  10
201930.499
  20
4520199.500
  0
VERTEX
  8
LC_OH_2021_05_O7
  10
202391.999
  20
4519938.500
  0
VERTEX
  8
LC_OH_2021_05_O7
  10
202245.999
  20
4515754.000
  0
VERTEX
  8
LC_OH_2021_05_O7
  10
199412.499
  20
4515625.500
  0
VERTEX
  8
LC_OH_2021_05_O7
  10
199409.499
  20
4515626.500
  0
VERTEX
  8
LC_OH_2021_05_O7
  10
199106.499
  20
4515863.000
  0
SEQEND
  8
LC_OH_2021_05_O7
  0
INSERT
  8
FeatureAttribs
  2
FEATURE
  41
1
  42
1
  43
1
  50
0
  10
188243.809
  20
4518167.750
 66
1
  0
ATTRIB
  8
FeatureAttribs
 70
0
  1
PNOA-H_AMS_1956-57_33k_ES_PAN_21mic_H50_0500_fot_60A-04407_E.tif
  2
NAME
  10
188243.809
  20
4518167.750
 40
34.99255
  0
SEQEND
  0
POLYLINE
  8
LC_OH_2021_05_O7
  70
1
  66
1
  0
VERTEX
  8
LC_OH_2021_05_O7
  10
189488.499
  20
4520678.000
  0
VERTEX
  8
LC_OH_2021_05_O7
  10
189959.499
  20
4520432.500
  0
VERTEX
  8
LC_OH_2021_05_O7
  10
189729.499
  20
4516090.000
  0
VERTEX
  8
LC_OH_2021_05_O7
  10
187499.499
  20
4515657.500
  0
VERTEX
  8
LC_OH_2021_05_O7
  10
186411.998
  20
4516243.000
  0
VERTEX
  8
LC_OH_2021_05_O7
  10
186946.498
  20
4520600.500
  0
VERTEX
  8
LC_OH_2021_05_O7
  10
189488.499
  20
4520678.000
  0
SEQEND
  8
LC_OH_2021_05_O7
  0
INSERT
  8
FeatureAttribs
  2
FEATURE
  41
1
  42
1
  43
1
  50
0
  10
179584.727
  20
4509992.750
 66
1
  0
ATTRIB
  8
FeatureAttribs
 70
0
  1
PNOA-H_AMS_1956-57_33k_ES_PAN_21mic_H50_0501_fot_62C-05327_E.tif
  2
NAME
  10
179584.727
  20
4509992.750
 40
34.99255
  0
SEQEND
  0
POLYLINE
  8
LC_OH_2021_05_O7
  70
1
  66
1
  0
VERTEX
  8
LC_OH_2021_05_O7
  10
181042.050
  20
4508604.326
  0
VERTEX
  8
LC_OH_2021_05_O7
  10
178006.998
  20
4508735.405
  0
VERTEX
  8
LC_OH_2021_05_O7
  10
178006.998
  20
4508967.500
  0
VERTEX
  8
LC_OH_2021_05_O7
  10
178173.498
  20
4511760.000
  0
VERTEX
  8
LC_OH_2021_05_O7
  10
178617.998
  20
4512029.000
  0
VERTEX
  8
LC_OH_2021_05_O7
  10
179307.498
  20
4511935.000
  0
VERTEX
  8
LC_OH_2021_05_O7
  10
179311.498
  20
4511934.500
  0
VERTEX
  8
LC_OH_2021_05_O7
  10
181168.498
  20
4511683.000
  0
VERTEX
  8
LC_OH_2021_05_O7
  10
181172.998
  20
4511682.000
  0
VERTEX
  8
LC_OH_2021_05_O7
  10
181172.998
  20
4511672.000
  0
SEQEND
  8
LC_OH_2021_05_O7
  0
INSERT
  8
FeatureAttribs
  2
FEATURE
  41
1
  42
1
  43
1
  50
0
  10
191793.617
  20
4509654.751
 66
1
  0
ATTRIB
  8
FeatureAttribs
 70
0
  1
PNOA-H_AMS_1956-57_33k_ES_PAN_21mic_H50_0502_fot_62C-05331_E.tif
  2
NAME
  10
191793.617
  20
4509654.751
 40
34.99255
  0
SEQEND
  0
POLYLINE
  8
LC_OH_2021_05_O7
  70
1
  66
1
  0
VERTEX
  8
LC_OH_2021_05_O7
  10
193302.963
  20
4508087.704
  0
VERTEX
  8
LC_OH_2021_05_O7
  10
191808.625
  20
4508149.397
  0
VERTEX
  8
LC_OH_2021_05_O7
  10
190274.612
  20
4508213.458
  0
VERTEX
  8
LC_OH_2021_05_O7
  10
190234.999
  20
4511691.000
  0
VERTEX
  8
LC_OH_2021_05_O7
  10
190489.999
  20
4511863.500
  0
VERTEX
  8
LC_OH_2021_05_O7
  10
191590.999
  20
4511809.500
  0
VERTEX
  8
LC_OH_2021_05_O7
  10
191599.499
  20
4511809.500
  0
VERTEX
  8
LC_OH_2021_05_O7
  10
193363.499
  20
4511723.000
  0
SEQEND
  8
LC_OH_2021_05_O7
  0
INSERT
  8
FeatureAttribs
  2
FEATURE
  41
1
  42
1
  43
1
  50
0
  10
182621.878
  20
4509798.249
 66
1
  0
ATTRIB
  8
FeatureAttribs
 70
0
  1
PNOA-H_AMS_1956-57_33k_ES_PAN_21mic_H50_0501_fot_62C-05328_E.tif
  2
NAME
  10
182621.878
  20
4509798.249
 40
34.99255
  0
SEQEND
  0
POLYLINE
  8
LC_OH_2021_05_O7
  70
1
  66
1
  0
VERTEX
  8
LC_OH_2021_05_O7
  10
184116.077
  20
4508472.934
  0
VERTEX
  8
LC_OH_2021_05_O7
  10
181239.786
  20
4508595.787
  0
VERTEX
  8
LC_OH_2021_05_O7
  10
181042.024
  20
4508604.328
  0
VERTEX
  8
LC_OH_2021_05_O7
  10
181172.998
  20
4511682.000
  0
VERTEX
  8
LC_OH_2021_05_O7
  10
181358.498
  20
4511800.500
  0
VERTEX
  8
LC_OH_2021_05_O7
  10
181358.998
  20
4511801.500
  0
VERTEX
  8
LC_OH_2021_05_O7
  10
181556.998
  20
4511928.500
  0
VERTEX
  8
LC_OH_2021_05_O7
  10
181560.498
  20
4511928.500
  0
VERTEX
  8
LC_OH_2021_05_O7
  10
184198.998
  20
4511628.000
  0
SEQEND
  8
LC_OH_2021_05_O7
  0
INSERT
  8
FeatureAttribs
  2
FEATURE
  41
1
  42
1
  43
1
  50
0
  10
188734.040
  20
4509658.750
 66
1
  0
ATTRIB
  8
FeatureAttribs
 70
0
  1
PNOA-H_AMS_1956-57_33k_ES_PAN_21mic_H50_0502_fot_62C-05330_E.tif
  2
NAME
  10
188734.040
  20
4509658.750
 40
34.99255
  0
SEQEND
  0
POLYLINE
  8
LC_OH_2021_05_O7
  70
1
  66
1
  0
VERTEX
  8
LC_OH_2021_05_O7
  10
190274.612
  20
4508213.458
  0
VERTEX
  8
LC_OH_2021_05_O7
  10
188285.703
  20
4508296.516
  0
VERTEX
  8
LC_OH_2021_05_O7
  10
187204.660
  20
4508342.175
  0
VERTEX
  8
LC_OH_2021_05_O7
  10
187217.999
  20
4511660.000
  0
VERTEX
  8
LC_OH_2021_05_O7
  10
187493.999
  20
4511845.000
  0
VERTEX
  8
LC_OH_2021_05_O7
  10
187494.999
  20
4511845.500
  0
VERTEX
  8
LC_OH_2021_05_O7
  10
190234.999
  20
4511690.500
  0
SEQEND
  8
LC_OH_2021_05_O7
  0
INSERT
  8
FeatureAttribs
  2
FEATURE
  41
1
  42
1
  43
1
  50
0
  10
198025.772
  20
4509588.251
 66
1
  0
ATTRIB
  8
FeatureAttribs
 70
0
  1
PNOA-H_AMS_1956-57_33k_ES_PAN_21mic_H50_0502_fot_62C-05333_E.tif
  2
NAME
  10
198025.772
  20
4509588.251
 40
34.99255
  0
SEQEND
  0
POLYLINE
  8
LC_OH_2021_05_O7
  70
1
  66
1
  0
VERTEX
  8
LC_OH_2021_05_O7
  10
199591.384
  20
4507830.466
  0
VERTEX
  8
LC_OH_2021_05_O7
  10
198854.394
  20
4507860.191
  0
VERTEX
  8
LC_OH_2021_05_O7
  10
196454.988
  20
4507958.108
  0
VERTEX
  8
LC_OH_2021_05_O7
  10
196450.499
  20
4511767.500
  0
VERTEX
  8
LC_OH_2021_05_O7
  10
196488.999
  20
4511795.500
  0
VERTEX
  8
LC_OH_2021_05_O7
  10
199351.999
  20
4511821.500
  0
VERTEX
  8
LC_OH_2021_05_O7
  10
199407.499
  20
4511822.000
  0
VERTEX
  8
LC_OH_2021_05_O7
  10
199420.999
  20
4511821.500
  0
VERTEX
  8
LC_OH_2021_05_O7
  10
199606.999
  20
4511695.500
  0
SEQEND
  8
LC_OH_2021_05_O7
  0
INSERT
  8
FeatureAttribs
  2
FEATURE
  41
1
  42
1
  43
1
  50
0
  10
194890.571
  20
4509596.751
 66
1
  0
ATTRIB
  8
FeatureAttribs
 70
0
  1
PNOA-H_AMS_1956-57_33k_ES_PAN_21mic_H50_0502_fot_62C-05332_E.tif
  2
NAME
  10
194890.571
  20
4509596.751
 40
34.99255
  0
SEQEND
  0
POLYLINE
  8
LC_OH_2021_05_O7
  70
1
  66
1
  0
VERTEX
  8
LC_OH_2021_05_O7
  10
196454.988
  20
4507958.108
  0
VERTEX
  8
LC_OH_2021_05_O7
  10
195331.521
  20
4508003.956
  0
VERTEX
  8
LC_OH_2021_05_O7
  10
193302.963
  20
4508087.704
  0
VERTEX
  8
LC_OH_2021_05_O7
  10
193363.499
  20
4511723.000
  0
VERTEX
  8
LC_OH_2021_05_O7
  10
193477.499
  20
4511804.000
  0
VERTEX
  8
LC_OH_2021_05_O7
  10
193478.499
  20
4511804.500
  0
VERTEX
  8
LC_OH_2021_05_O7
  10
196450.499
  20
4511767.000
  0
SEQEND
  8
LC_OH_2021_05_O7
  0
INSERT
  8
FeatureAttribs
  2
FEATURE
  41
1
  42
1
  43
1
  50
0
  10
185679.468
  20
4509716.499
 66
1
  0
ATTRIB
  8
FeatureAttribs
 70
0
  1
PNOA-H_AMS_1956-57_33k_ES_PAN_21mic_H50_0502_fot_62C-05329_E.tif
  2
NAME
  10
185679.468
  20
4509716.499
 40
34.99255
  0
SEQEND
  0
POLYLINE
  8
LC_OH_2021_05_O7
  70
1
  66
1
  0
VERTEX
  8
LC_OH_2021_05_O7
  10
187204.658
  20
4508342.175
  0
VERTEX
  8
LC_OH_2021_05_O7
  10
184762.757
  20
4508445.312
  0
VERTEX
  8
LC_OH_2021_05_O7
  10
184116.077
  20
4508472.934
  0
VERTEX
  8
LC_OH_2021_05_O7
  10
184198.998
  20
4511628.000
  0
VERTEX
  8
LC_OH_2021_05_O7
  10
184592.998
  20
4511879.000
  0
VERTEX
  8
LC_OH_2021_05_O7
  10
185454.498
  20
4511807.000
  0
VERTEX
  8
LC_OH_2021_05_O7
  10
185455.498
  20
4511807.000
  0
VERTEX
  8
LC_OH_2021_05_O7
  10
187217.999
  20
4511660.000
  0
SEQEND
  8
LC_OH_2021_05_O7
  0
INSERT
  8
FeatureAttribs
  2
FEATURE
  41
1
  42
1
  43
1
  50
0
  10
201167.858
  20
4509552.751
 66
1
  0
ATTRIB
  8
FeatureAttribs
 70
0
  1
PNOA-H_AMS_1956-57_33k_ES_PAN_21mic_H50_0502_fot_62C-05334_E.tif
  2
NAME
  10
201167.858
  20
4509552.751
 40
34.99255
  0
SEQEND
  0
POLYLINE
  8
LC_OH_2021_05_O7
  70
1
  66
1
  0
VERTEX
  8
LC_OH_2021_05_O7
  10
202541.447
  20
4511811.859
  0
VERTEX
  8
LC_OH_2021_05_O7
  10
202470.011
  20
4510031.334
  0
VERTEX
  8
LC_OH_2021_05_O7
  10
202377.242
  20
4507718.104
  0
VERTEX
  8
LC_OH_2021_05_O7
  10
199591.384
  20
4507830.466
  0
VERTEX
  8
LC_OH_2021_05_O7
  10
199606.999
  20
4511695.500
  0
VERTEX
  8
LC_OH_2021_05_O7
  10
199780.499
  20
4511709.000
  0
VERTEX
  8
LC_OH_2021_05_O7
  10
199786.499
  20
4511709.500
  0
VERTEX
  8
LC_OH_2021_05_O7
  10
202384.499
  20
4511910.500
  0
SEQEND
  8
LC_OH_2021_05_O7
  0
INSERT
  8
FeatureAttribs
  2
FEATURE
  41
1
  42
1
  43
1
  50
0
  10
176074.835
  20
4509850.928
 66
1
  0
ATTRIB
  8
FeatureAttribs
 70
0
  1
PNOA-H_AMS_1956-57_33k_ES_PAN_21mic_H50_0501_fot_62C-05326_E.tif
  2
NAME
  10
176074.835
  20
4509850.928
 40
34.99255
  0
SEQEND
  0
POLYLINE
  8
LC_OH_2021_05_O7
  70
1
  66
1
  0
VERTEX
  8
LC_OH_2021_05_O7
  10
178006.998
  20
4508735.405
  0
VERTEX
  8
LC_OH_2021_05_O7
  10
177716.789
  20
4508747.939
  0
VERTEX
  8
LC_OH_2021_05_O7
  10
174193.766
  20
4508901.769
  0
VERTEX
  8
LC_OH_2021_05_O7
  10
174295.349
  20
4511215.130
  0
VERTEX
  8
LC_OH_2021_05_O7
  10
174346.575
  20
4512381.194
  0
VERTEX
  8
LC_OH_2021_05_O7
  10
175807.998
  20
4512144.000
  0
VERTEX
  8
LC_OH_2021_05_O7
  10
176006.998
  20
4512111.500
  0
VERTEX
  8
LC_OH_2021_05_O7
  10
176740.998
  20
4511992.000
  0
VERTEX
  8
LC_OH_2021_05_O7
  10
177263.498
  20
4511992.000
  0
VERTEX
  8
LC_OH_2021_05_O7
  10
177981.998
  20
4511992.000
  0
VERTEX
  8
LC_OH_2021_05_O7
  10
177991.998
  20
4511982.000
  0
VERTEX
  8
LC_OH_2021_05_O7
  10
177991.998
  20
4511789.000
  0
VERTEX
  8
LC_OH_2021_05_O7
  10
178173.498
  20
4511759.500
  0
VERTEX
  8
LC_OH_2021_05_O7
  10
178006.998
  20
4508967.500
  0
SEQEND
  8
LC_OH_2021_05_O7
  0
INSERT
  8
FeatureAttribs
  2
FEATURE
  41
1
  42
1
  43
1
  50
0
  10
200433.411
  20
4525868.500
 66
1
  0
ATTRIB
  8
FeatureAttribs
 70
0
  1
PNOA-H_AMS_1956-57_33k_ES_PAN_21mic_H50_0475_fot_000-36804_R.tif
  2
NAME
  10
200433.411
  20
4525868.500
 40
34.99255
  0
SEQEND
  0
POLYLINE
  8
LC_OH_2021_05_O7
  70
1
  66
1
  0
VERTEX
  8
LC_OH_2021_05_O7
  10
200976.640
  20
4526310.853
  0
VERTEX
  8
LC_OH_2021_05_O7
  10
200862.999
  20
4525219.000
  0
VERTEX
  8
LC_OH_2021_05_O7
  10
200074.499
  20
4525117.000
  0
VERTEX
  8
LC_OH_2021_05_O7
  10
200070.499
  20
4525117.000
  0
VERTEX
  8
LC_OH_2021_05_O7
  10
200069.499
  20
4525121.000
  0
VERTEX
  8
LC_OH_2021_05_O7
  10
199849.193
  20
4526356.480
  0
SEQEND
  8
LC_OH_2021_05_O7
  0
INSERT
  8
FeatureAttribs
  2
FEATURE
  41
1
  42
1
  43
1
  50
0
  10
197706.443
  20
4525995.748
 66
1
  0
ATTRIB
  8
FeatureAttribs
 70
0
  1
PNOA-H_AMS_1956-57_33k_ES_PAN_21mic_H50_0475_fot_000-36805_R.tif
  2
NAME
  10
197706.443
  20
4525995.748
 40
34.99255
  0
SEQEND
  0
POLYLINE
  8
LC_OH_2021_05_O7
  70
1
  66
1
  0
VERTEX
  8
LC_OH_2021_05_O7
  10
198038.716
  20
4526430.498
  0
VERTEX
  8
LC_OH_2021_05_O7
  10
197920.499
  20
4525397.500
  0
VERTEX
  8
LC_OH_2021_05_O7
  10
197706.499
  20
4525371.500
  0
VERTEX
  8
LC_OH_2021_05_O7
  10
197697.499
  20
4525371.500
  0
VERTEX
  8
LC_OH_2021_05_O7
  10
197218.631
  20
4526464.078
  0
SEQEND
  8
LC_OH_2021_05_O7
  0
INSERT
  8
FeatureAttribs
  2
FEATURE
  41
1
  42
1
  43
1
  50
0
  10
183821.319
  20
4526773.750
 66
1
  0
ATTRIB
  8
FeatureAttribs
 70
0
  1
PNOA-H_AMS_1956-57_33k_ES_PAN_21mic_H50_0475_fot_000-36809_R.tif
  2
NAME
  10
183821.319
  20
4526773.750
 40
34.99255
  0
SEQEND
  0
POLYLINE
  8
LC_OH_2021_05_O7
  70
1
  66
1
  0
VERTEX
  8
LC_OH_2021_05_O7
  10
184250.266
  20
4527007.640
  0
VERTEX
  8
LC_OH_2021_05_O7
  10
183647.498
  20
4526337.500
  0
VERTEX
  8
LC_OH_2021_05_O7
  10
183575.784
  20
4527036.546
  0
SEQEND
  8
LC_OH_2021_05_O7
  0
INSERT
  8
FeatureAttribs
  2
FEATURE
  41
1
  42
1
  43
1
  50
0
  10
187030.648
  20
4526405.000
 66
1
  0
ATTRIB
  8
FeatureAttribs
 70
0
  1
PNOA-H_AMS_1956-57_33k_ES_PAN_21mic_H50_0475_fot_000-36808_R.tif
  2
NAME
  10
187030.648
  20
4526405.000
 40
34.99255
  0
SEQEND
  0
POLYLINE
  8
LC_OH_2021_05_O7
  70
1
  66
1
  0
VERTEX
  8
LC_OH_2021_05_O7
  10
187628.508
  20
4526863.852
  0
VERTEX
  8
LC_OH_2021_05_O7
  10
187179.998
  20
4525620.500
  0
VERTEX
  8
LC_OH_2021_05_O7
  10
186646.998
  20
4525600.000
  0
VERTEX
  8
LC_OH_2021_05_O7
  10
186567.818
  20
4526908.804
  0
SEQEND
  8
LC_OH_2021_05_O7
  0
INSERT
  8
FeatureAttribs
  2
FEATURE
  41
1
  42
1
  43
1
  50
0
  10
189733.732
  20
4526212.248
 66
1
  0
ATTRIB
  8
FeatureAttribs
 70
0
  1
PNOA-H_AMS_1956-57_33k_ES_PAN_21mic_H50_0475_fot_000-36807_R.tif
  2
NAME
  10
189733.732
  20
4526212.248
 40
34.99255
  0
SEQEND
  0
POLYLINE
  8
LC_OH_2021_05_O7
  70
1
  66
1
  0
VERTEX
  8
LC_OH_2021_05_O7
  10
190292.839
  20
4526751.527
  0
VERTEX
  8
LC_OH_2021_05_O7
  10
189534.999
  20
4525514.500
  0
VERTEX
  8
LC_OH_2021_05_O7
  10
189530.999
  20
4525516.000
  0
VERTEX
  8
LC_OH_2021_05_O7
  10
189503.999
  20
4525533.500
  0
VERTEX
  8
LC_OH_2021_05_O7
  10
189505.799
  20
4526784.505
  0
SEQEND
  8
LC_OH_2021_05_O7
  0
INSERT
  8
FeatureAttribs
  2
FEATURE
  41
1
  42
1
  43
1
  50
0
  10
202863.234
  20
4525543.207
 66
1
  0
ATTRIB
  8
FeatureAttribs
 70
0
  1
PNOA-H_AMS_1956-57_33k_ES_PAN_21mic_H50_0501_fot_000-36803_R.tif
  2
NAME
  10
202863.234
  20
4525543.207
 40
34.99255
  0
SEQEND
  0
POLYLINE
  8
LC_OH_2021_05_O7
  70
1
  66
1
  0
VERTEX
  8
LC_OH_2021_05_O7
  10
203067.512
  20
4524906.734
  0
VERTEX
  8
LC_OH_2021_05_O7
  10
202702.999
  20
4524841.500
  0
VERTEX
  8
LC_OH_2021_05_O7
  10
202605.969
  20
4526244.915
  0
VERTEX
  8
LC_OH_2021_05_O7
  10
203120.499
  20
4526224.092
  0
SEQEND
  8
LC_OH_2021_05_O7
  0
INSERT
  8
FeatureAttribs
  2
FEATURE
  41
1
  42
1
  43
1
  50
0
  10
176465.755
  20
4514624.105
 66
1
  0
ATTRIB
  8
FeatureAttribs
 70
0
  1
PNOA-H_AMS_1956-57_33k_ES_PAN_21mic_H50_0500_fot_61A-39636_W.tif
  2
NAME
  10
176465.755
  20
4514624.105
 40
34.99255
  0
SEQEND
  0
POLYLINE
  8
LC_OH_2021_05_O7
  70
1
  66
1
  0
VERTEX
  8
LC_OH_2021_05_O7
  10
174567.514
  20
4517408.226
  0
VERTEX
  8
LC_OH_2021_05_O7
  10
178655.998
  20
4516222.500
  0
VERTEX
  8
LC_OH_2021_05_O7
  10
178617.998
  20
4512028.500
  0
VERTEX
  8
LC_OH_2021_05_O7
  10
178172.498
  20
4511759.500
  0
VERTEX
  8
LC_OH_2021_05_O7
  10
177991.998
  20
4511789.000
  0
VERTEX
  8
LC_OH_2021_05_O7
  10
177991.998
  20
4511982.000
  0
VERTEX
  8
LC_OH_2021_05_O7
  10
177981.998
  20
4511992.000
  0
VERTEX
  8
LC_OH_2021_05_O7
  10
176740.998
  20
4511992.000
  0
VERTEX
  8
LC_OH_2021_05_O7
  10
176006.998
  20
4512111.500
  0
VERTEX
  8
LC_OH_2021_05_O7
  10
175804.998
  20
4512144.000
  0
VERTEX
  8
LC_OH_2021_05_O7
  10
174346.562
  20
4512380.911
  0
VERTEX
  8
LC_OH_2021_05_O7
  10
174396.976
  20
4513528.495
  0
VERTEX
  8
LC_OH_2021_05_O7
  10
174498.646
  20
4515841.865
  0
SEQEND
  8
LC_OH_2021_05_O7
  0
INSERT
  8
FeatureAttribs
  2
FEATURE
  41
1
  42
1
  43
1
  50
0
  10
177373.715
  20
4518892.001
 66
1
  0
ATTRIB
  8
FeatureAttribs
 70
0
  1
PNOA-H_AMS_1956-57_33k_ES_PAN_21mic_H50_0500_fot_60A-04404_E.tif
  2
NAME
  10
177373.715
  20
4518892.001
 40
34.99255
  0
SEQEND
  0
POLYLINE
  8
LC_OH_2021_05_O7
  70
1
  66
1
  0
VERTEX
  8
LC_OH_2021_05_O7
  10
174728.148
  20
4521060.246
  0
VERTEX
  8
LC_OH_2021_05_O7
  10
179825.498
  20
4521562.000
  0
VERTEX
  8
LC_OH_2021_05_O7
  10
179827.498
  20
4521562.000
  0
VERTEX
  8
LC_OH_2021_05_O7
  10
180501.998
  20
4521130.000
  0
VERTEX
  8
LC_OH_2021_05_O7
  10
179983.498
  20
4516571.500
  0
VERTEX
  8
LC_OH_2021_05_O7
  10
179875.498
  20
4516542.500
  0
VERTEX
  8
LC_OH_2021_05_O7
  10
179873.498
  20
4516542.500
  0
VERTEX
  8
LC_OH_2021_05_O7
  10
178655.998
  20
4516222.000
  0
VERTEX
  8
LC_OH_2021_05_O7
  10
174567.510
  20
4517408.141
  0
VERTEX
  8
LC_OH_2021_05_O7
  10
174600.358
  20
4518155.240
  0
VERTEX
  8
LC_OH_2021_05_O7
  10
174702.114
  20
4520468.619
  0
SEQEND
  8
LC_OH_2021_05_O7
  0
INSERT
  8
FeatureAttribs
  2
FEATURE
  41
1
  42
1
  43
1
  50
0
  10
177316.309
  20
4523544.846
 66
1
  0
ATTRIB
  8
FeatureAttribs
 70
0
  1
PNOA-H_AMS_1956-57_33k_ES_PAN_21mic_H50_0500_fot_59A-35481_W.tif
  2
NAME
  10
177316.309
  20
4523544.846
 40
34.99255
  0
SEQEND
  0
POLYLINE
  8
LC_OH_2021_05_O7
  70
1
  66
1
  0
VERTEX
  8
LC_OH_2021_05_O7
  10
174889.000
  20
4524714.784
  0
VERTEX
  8
LC_OH_2021_05_O7
  10
177549.998
  20
4526051.500
  0
VERTEX
  8
LC_OH_2021_05_O7
  10
177552.998
  20
4526051.500
  0
VERTEX
  8
LC_OH_2021_05_O7
  10
180036.998
  20
4525504.500
  0
VERTEX
  8
LC_OH_2021_05_O7
  10
179826.998
  20
4521562.000
  0
VERTEX
  8
LC_OH_2021_05_O7
  10
174728.165
  20
4521060.627
  0
VERTEX
  8
LC_OH_2021_05_O7
  10
174803.913
  20
4522782.003
  0
SEQEND
  8
LC_OH_2021_05_O7
  0
INSERT
  8
FeatureAttribs
  2
FEATURE
  41
1
  42
1
  43
1
  50
0
  10
176125.823
  20
4526064.836
 66
1
  0
ATTRIB
  8
FeatureAttribs
 70
0
  1
PNOA-H_AMS_1956-57_33k_ES_PAN_21mic_H50_0475_fot_58A-40180_W.tif
  2
NAME
  10
176125.823
  20
4526064.836
 40
34.99255
  0
SEQEND
  0
POLYLINE
  8
LC_OH_2021_05_O7
  70
1
  66
1
  0
VERTEX
  8
LC_OH_2021_05_O7
  10
177609.752
  20
4527294.780
  0
VERTEX
  8
LC_OH_2021_05_O7
  10
177550.998
  20
4526051.500
  0
VERTEX
  8
LC_OH_2021_05_O7
  10
174888.991
  20
4524714.589
  0
VERTEX
  8
LC_OH_2021_05_O7
  10
174905.755
  20
4525095.391
  0
VERTEX
  8
LC_OH_2021_05_O7
  10
175007.641
  20
4527408.784
  0
SEQEND
  8
LC_OH_2021_05_O7
  0
ENDSEC
  0
EOF
