  0
SECTION
  2
HEADER
  9
$ACADVER
  1
AC1009
  9
$LUNITS
  70
2
  9
$LIMMIN
  10
231231.896
  20
4524176.836
  9
$LIMMAX
  10
259946.212
  20
4543652.229
  9
$EXTMIN
  10
231231.896
  20
4524176.836
  9
$EXTMAX
  10
259946.212
  20
4543652.229
  999
Created by Global Mapper
  999
Projection: UTM
  999
Datum: ETRS89
  999
Ground Units: meters
  999
ZONE: 30
  0
ENDSEC
  0
SECTION
  2
TABLES
  0
ENDSEC
  0
SECTION
  2
BLOCKS
  0
ENDSEC
  0
SECTION
  2
ENTITIES
  0
POLYLINE
  8
PNOA-H_AMS_1956-57_33k_ES_PAN_21mic_H50_0450_fot_54A-29164_W_tif
  70
9
  66
1
  0
VERTEX
  8
PNOA-H_AMS_1956-57_33k_ES_PAN_21mic_H50_0450_fot_54A-29164_W_tif
  70
32
  10
233204.276
  20
4543605.138
  30
811.273
  0
VERTEX
  8
PNOA-H_AMS_1956-57_33k_ES_PAN_21mic_H50_0450_fot_54A-29164_W_tif
  70
32
  10
233161.000
  20
4541380.293
  30
802
  0
VERTEX
  8
PNOA-H_AMS_1956-57_33k_ES_PAN_21mic_H50_0450_fot_54A-29164_W_tif
  70
32
  10
232363.000
  20
4541080.793
  30
805
  0
VERTEX
  8
PNOA-H_AMS_1956-57_33k_ES_PAN_21mic_H50_0450_fot_54A-29164_W_tif
  70
32
  10
232359.500
  20
4541080.793
  30
805
  0
VERTEX
  8
PNOA-H_AMS_1956-57_33k_ES_PAN_21mic_H50_0450_fot_54A-29164_W_tif
  70
32
  10
231816.077
  20
4541166.358
  30
806.068
  0
VERTEX
  8
PNOA-H_AMS_1956-57_33k_ES_PAN_21mic_H50_0450_fot_54A-29164_W_tif
  70
32
  10
231822.382
  20
4541339.031
  30
806.108
  0
VERTEX
  8
PNOA-H_AMS_1956-57_33k_ES_PAN_21mic_H50_0450_fot_54A-29164_W_tif
  70
32
  10
231906.879
  20
4543652.229
  30
811.364
  0
SEQEND
  8
PNOA-H_AMS_1956-57_33k_ES_PAN_21mic_H50_0450_fot_54A-29164_W_tif
  0
TEXT
  8
PNOA-H_AMS_1956-57_33k_ES_PAN_21mic_H50_0450_fot_54A-29164_W_tif
 62
0
  1
PNOA-H_AMS_1956-57_33k_ES_PAN_21mic_H50_0450_fot_54A-29164_W.tif
 40
41.63504
  10
232510.176
  20
4542366.511
  0
POLYLINE
  8
PNOA-H_AMS_1956-57_33k_ES_PAN_21mic_H50_0451_fot_54A-29162_W_tif
  70
9
  66
1
  0
VERTEX
  8
PNOA-H_AMS_1956-57_33k_ES_PAN_21mic_H50_0451_fot_54A-29162_W_tif
  70
32
  10
238710.157
  20
4543406.871
  30
822.091
  0
VERTEX
  8
PNOA-H_AMS_1956-57_33k_ES_PAN_21mic_H50_0451_fot_54A-29162_W_tif
  70
32
  10
238707.500
  20
4541429.793
  30
819
  0
VERTEX
  8
PNOA-H_AMS_1956-57_33k_ES_PAN_21mic_H50_0451_fot_54A-29162_W_tif
  70
32
  10
237992.000
  20
4541120.793
  30
820.72
  0
VERTEX
  8
PNOA-H_AMS_1956-57_33k_ES_PAN_21mic_H50_0451_fot_54A-29162_W_tif
  70
32
  10
236025.500
  20
4541394.793
  30
823
  0
VERTEX
  8
PNOA-H_AMS_1956-57_33k_ES_PAN_21mic_H50_0451_fot_54A-29162_W_tif
  70
32
  10
235976.354
  20
4543504.791
  30
826.528
  0
SEQEND
  8
PNOA-H_AMS_1956-57_33k_ES_PAN_21mic_H50_0451_fot_54A-29162_W_tif
  0
TEXT
  8
PNOA-H_AMS_1956-57_33k_ES_PAN_21mic_H50_0451_fot_54A-29162_W_tif
 62
0
  1
PNOA-H_AMS_1956-57_33k_ES_PAN_21mic_H50_0451_fot_54A-29162_W.tif
 40
41.63504
  10
237344.660
  20
4543382.793
  0
POLYLINE
  8
PNOA-H_AMS_1956-57_33k_ES_PAN_21mic_H50_0451_fot_54A-29163_W_tif
  70
9
  66
1
  0
VERTEX
  8
PNOA-H_AMS_1956-57_33k_ES_PAN_21mic_H50_0451_fot_54A-29163_W_tif
  70
32
  10
235976.354
  20
4543504.791
  30
826.528
  0
VERTEX
  8
PNOA-H_AMS_1956-57_33k_ES_PAN_21mic_H50_0451_fot_54A-29163_W_tif
  70
32
  10
236025.500
  20
4541394.793
  30
823
  0
VERTEX
  8
PNOA-H_AMS_1956-57_33k_ES_PAN_21mic_H50_0451_fot_54A-29163_W_tif
  70
32
  10
235143.000
  20
4541036.293
  30
811
  0
VERTEX
  8
PNOA-H_AMS_1956-57_33k_ES_PAN_21mic_H50_0451_fot_54A-29163_W_tif
  70
32
  10
233161.500
  20
4541380.793
  30
802
  0
VERTEX
  8
PNOA-H_AMS_1956-57_33k_ES_PAN_21mic_H50_0451_fot_54A-29163_W_tif
  70
32
  10
233204.508
  20
4543605.130
  30
811.271
  0
VERTEX
  8
PNOA-H_AMS_1956-57_33k_ES_PAN_21mic_H50_0451_fot_54A-29163_W_tif
  70
32
  10
235411.863
  20
4543525.010
  30
826.584
  0
SEQEND
  8
PNOA-H_AMS_1956-57_33k_ES_PAN_21mic_H50_0451_fot_54A-29163_W_tif
  0
TEXT
  8
PNOA-H_AMS_1956-57_33k_ES_PAN_21mic_H50_0451_fot_54A-29163_W_tif
 62
0
  1
PNOA-H_AMS_1956-57_33k_ES_PAN_21mic_H50_0451_fot_54A-29163_W.tif
 40
41.63504
  10
234589.699
  20
4543384.543
  0
POLYLINE
  8
PNOA-H_AMS_1956-57_33k_ES_PAN_21mic_H50_0451_fot_54A-29161_W_tif
  70
9
  66
1
  0
VERTEX
  8
PNOA-H_AMS_1956-57_33k_ES_PAN_21mic_H50_0451_fot_54A-29161_W_tif
  70
32
  10
241475.629
  20
4543309.041
  30
838.412
  0
VERTEX
  8
PNOA-H_AMS_1956-57_33k_ES_PAN_21mic_H50_0451_fot_54A-29161_W_tif
  70
32
  10
241394.500
  20
4541417.293
  30
846
  0
VERTEX
  8
PNOA-H_AMS_1956-57_33k_ES_PAN_21mic_H50_0451_fot_54A-29161_W_tif
  70
32
  10
240856.000
  20
4541174.293
  30
847
  0
VERTEX
  8
PNOA-H_AMS_1956-57_33k_ES_PAN_21mic_H50_0451_fot_54A-29161_W_tif
  70
32
  10
240851.000
  20
4541173.793
  30
846.44
  0
VERTEX
  8
PNOA-H_AMS_1956-57_33k_ES_PAN_21mic_H50_0451_fot_54A-29161_W_tif
  70
32
  10
238707.500
  20
4541429.793
  30
819
  0
VERTEX
  8
PNOA-H_AMS_1956-57_33k_ES_PAN_21mic_H50_0451_fot_54A-29161_W_tif
  70
32
  10
238710.156
  20
4543406.871
  30
822.091
  0
VERTEX
  8
PNOA-H_AMS_1956-57_33k_ES_PAN_21mic_H50_0451_fot_54A-29161_W_tif
  70
32
  10
238916.826
  20
4543399.468
  30
822.08
  0
SEQEND
  8
PNOA-H_AMS_1956-57_33k_ES_PAN_21mic_H50_0451_fot_54A-29161_W_tif
  0
TEXT
  8
PNOA-H_AMS_1956-57_33k_ES_PAN_21mic_H50_0451_fot_54A-29161_W_tif
 62
0
  1
PNOA-H_AMS_1956-57_33k_ES_PAN_21mic_H50_0451_fot_54A-29161_W.tif
 40
41.63504
  10
240091.565
  20
4542290.332
  0
POLYLINE
  8
PNOA-H_AMS_1956-57_33k_ES_PAN_21mic_H50_0451_fot_54A-29160_W_tif
  70
9
  66
1
  0
VERTEX
  8
PNOA-H_AMS_1956-57_33k_ES_PAN_21mic_H50_0451_fot_54A-29160_W_tif
  70
32
  10
244243.940
  20
4543212.081
  30
848.354
  0
VERTEX
  8
PNOA-H_AMS_1956-57_33k_ES_PAN_21mic_H50_0451_fot_54A-29160_W_tif
  70
32
  10
244198.500
  20
4541324.793
  30
846
  0
VERTEX
  8
PNOA-H_AMS_1956-57_33k_ES_PAN_21mic_H50_0451_fot_54A-29160_W_tif
  70
32
  10
243804.000
  20
4541117.293
  30
852
  0
VERTEX
  8
PNOA-H_AMS_1956-57_33k_ES_PAN_21mic_H50_0451_fot_54A-29160_W_tif
  70
32
  10
241394.500
  20
4541417.293
  30
846
  0
VERTEX
  8
PNOA-H_AMS_1956-57_33k_ES_PAN_21mic_H50_0451_fot_54A-29160_W_tif
  70
32
  10
241475.401
  20
4543309.049
  30
838.459
  0
VERTEX
  8
PNOA-H_AMS_1956-57_33k_ES_PAN_21mic_H50_0451_fot_54A-29160_W_tif
  70
32
  10
242421.771
  20
4543275.604
  30
838.431
  0
SEQEND
  8
PNOA-H_AMS_1956-57_33k_ES_PAN_21mic_H50_0451_fot_54A-29160_W_tif
  0
TEXT
  8
PNOA-H_AMS_1956-57_33k_ES_PAN_21mic_H50_0451_fot_54A-29160_W_tif
 62
0
  1
PNOA-H_AMS_1956-57_33k_ES_PAN_21mic_H50_0451_fot_54A-29160_W.tif
 40
41.63504
  10
242858.841
  20
4543249.293
  0
POLYLINE
  8
PNOA-H_AMS_1956-57_33k_ES_PAN_21mic_H50_0451_fot_54A-29159_W_tif
  70
9
  66
1
  0
VERTEX
  8
PNOA-H_AMS_1956-57_33k_ES_PAN_21mic_H50_0451_fot_54A-29159_W_tif
  70
32
  10
246980.914
  20
4543117.171
  30
835.914
  0
VERTEX
  8
PNOA-H_AMS_1956-57_33k_ES_PAN_21mic_H50_0451_fot_54A-29159_W_tif
  70
32
  10
246973.000
  20
4541259.293
  30
828
  0
VERTEX
  8
PNOA-H_AMS_1956-57_33k_ES_PAN_21mic_H50_0451_fot_54A-29159_W_tif
  70
32
  10
246886.500
  20
4541204.793
  30
823
  0
VERTEX
  8
PNOA-H_AMS_1956-57_33k_ES_PAN_21mic_H50_0451_fot_54A-29159_W_tif
  70
32
  10
244198.500
  20
4541324.793
  30
846
  0
VERTEX
  8
PNOA-H_AMS_1956-57_33k_ES_PAN_21mic_H50_0451_fot_54A-29159_W_tif
  70
32
  10
244243.716
  20
4543212.089
  30
848.355
  0
VERTEX
  8
PNOA-H_AMS_1956-57_33k_ES_PAN_21mic_H50_0451_fot_54A-29159_W_tif
  70
32
  10
245926.696
  20
4543153.418
  30
836.049
  0
SEQEND
  8
PNOA-H_AMS_1956-57_33k_ES_PAN_21mic_H50_0451_fot_54A-29159_W_tif
  0
TEXT
  8
PNOA-H_AMS_1956-57_33k_ES_PAN_21mic_H50_0451_fot_54A-29159_W_tif
 62
0
  1
PNOA-H_AMS_1956-57_33k_ES_PAN_21mic_H50_0451_fot_54A-29159_W.tif
 40
41.63504
  10
245589.707
  20
4542208.441
  0
POLYLINE
  8
PNOA-H_AMS_1956-57_33k_ES_PAN_21mic_H50_0451_fot_54A-29156_W_tif
  70
9
  66
1
  0
VERTEX
  8
PNOA-H_AMS_1956-57_33k_ES_PAN_21mic_H50_0451_fot_54A-29156_W_tif
  70
32
  10
255328.767
  20
4542834.114
  30
790
  0
VERTEX
  8
PNOA-H_AMS_1956-57_33k_ES_PAN_21mic_H50_0451_fot_54A-29156_W_tif
  70
32
  10
255241.500
  20
4541245.293
  30
792.42
  0
VERTEX
  8
PNOA-H_AMS_1956-57_33k_ES_PAN_21mic_H50_0451_fot_54A-29156_W_tif
  70
32
  10
252685.500
  20
4541066.793
  30
806.01
  0
VERTEX
  8
PNOA-H_AMS_1956-57_33k_ES_PAN_21mic_H50_0451_fot_54A-29156_W_tif
  70
32
  10
252395.000
  20
4541254.293
  30
804
  0
VERTEX
  8
PNOA-H_AMS_1956-57_33k_ES_PAN_21mic_H50_0451_fot_54A-29156_W_tif
  70
32
  10
252511.634
  20
4542928.483
  30
800.348
  0
VERTEX
  8
PNOA-H_AMS_1956-57_33k_ES_PAN_21mic_H50_0451_fot_54A-29156_W_tif
  70
32
  10
252936.491
  20
4542914.079
  30
800.315
  0
SEQEND
  8
PNOA-H_AMS_1956-57_33k_ES_PAN_21mic_H50_0451_fot_54A-29156_W_tif
  0
TEXT
  8
PNOA-H_AMS_1956-57_33k_ES_PAN_21mic_H50_0451_fot_54A-29156_W_tif
 62
0
  1
PNOA-H_AMS_1956-57_33k_ES_PAN_21mic_H50_0451_fot_54A-29156_W.tif
 40
41.63504
  10
253861.884
  20
4541997.638
  0
POLYLINE
  8
PNOA-H_AMS_1956-57_33k_ES_PAN_21mic_H50_0451_fot_54A-29157_W_tif
  70
9
  66
1
  0
VERTEX
  8
PNOA-H_AMS_1956-57_33k_ES_PAN_21mic_H50_0451_fot_54A-29157_W_tif
  70
32
  10
252511.634
  20
4542928.483
  30
800.348
  0
VERTEX
  8
PNOA-H_AMS_1956-57_33k_ES_PAN_21mic_H50_0451_fot_54A-29157_W_tif
  70
32
  10
252395.000
  20
4541254.293
  30
804
  0
VERTEX
  8
PNOA-H_AMS_1956-57_33k_ES_PAN_21mic_H50_0451_fot_54A-29157_W_tif
  70
32
  10
249882.000
  20
4541147.293
  30
821.6
  0
VERTEX
  8
PNOA-H_AMS_1956-57_33k_ES_PAN_21mic_H50_0451_fot_54A-29157_W_tif
  70
32
  10
249868.500
  20
4541147.793
  30
822.37
  0
VERTEX
  8
PNOA-H_AMS_1956-57_33k_ES_PAN_21mic_H50_0451_fot_54A-29157_W_tif
  70
32
  10
249559.000
  20
4541334.793
  30
827
  0
VERTEX
  8
PNOA-H_AMS_1956-57_33k_ES_PAN_21mic_H50_0451_fot_54A-29157_W_tif
  70
32
  10
249700.834
  20
4543023.782
  30
822.018
  0
SEQEND
  8
PNOA-H_AMS_1956-57_33k_ES_PAN_21mic_H50_0451_fot_54A-29157_W_tif
  0
TEXT
  8
PNOA-H_AMS_1956-57_33k_ES_PAN_21mic_H50_0451_fot_54A-29157_W_tif
 62
0
  1
PNOA-H_AMS_1956-57_33k_ES_PAN_21mic_H50_0451_fot_54A-29157_W.tif
 40
41.63504
  10
251035.317
  20
4542085.538
  0
POLYLINE
  8
PNOA-H_AMS_1956-57_33k_ES_PAN_21mic_H50_0451_fot_54A-29158_W_tif
  70
9
  66
1
  0
VERTEX
  8
PNOA-H_AMS_1956-57_33k_ES_PAN_21mic_H50_0451_fot_54A-29158_W_tif
  70
32
  10
249700.815
  20
4543023.782
  30
821.974
  0
VERTEX
  8
PNOA-H_AMS_1956-57_33k_ES_PAN_21mic_H50_0451_fot_54A-29158_W_tif
  70
32
  10
249559.000
  20
4541334.793
  30
827
  0
VERTEX
  8
PNOA-H_AMS_1956-57_33k_ES_PAN_21mic_H50_0451_fot_54A-29158_W_tif
  70
32
  10
246973.000
  20
4541259.293
  30
828
  0
VERTEX
  8
PNOA-H_AMS_1956-57_33k_ES_PAN_21mic_H50_0451_fot_54A-29158_W_tif
  70
32
  10
246980.709
  20
4543117.179
  30
835.943
  0
VERTEX
  8
PNOA-H_AMS_1956-57_33k_ES_PAN_21mic_H50_0451_fot_54A-29158_W_tif
  70
32
  10
249431.603
  20
4543032.910
  30
822.013
  0
SEQEND
  8
PNOA-H_AMS_1956-57_33k_ES_PAN_21mic_H50_0451_fot_54A-29158_W_tif
  0
TEXT
  8
PNOA-H_AMS_1956-57_33k_ES_PAN_21mic_H50_0451_fot_54A-29158_W_tif
 62
0
  1
PNOA-H_AMS_1956-57_33k_ES_PAN_21mic_H50_0451_fot_54A-29158_W.tif
 40
41.63504
  10
248336.907
  20
4542188.236
  0
POLYLINE
  8
PNOA-H_AMS_1956-57_33k_ES_PAN_21mic_H50_0451_fot_54A-29155_W_tif
  70
9
  66
1
  0
VERTEX
  8
PNOA-H_AMS_1956-57_33k_ES_PAN_21mic_H50_0451_fot_54A-29155_W_tif
  70
32
  10
258111.096
  20
4542741.911
  30
810.639
  0
VERTEX
  8
PNOA-H_AMS_1956-57_33k_ES_PAN_21mic_H50_0451_fot_54A-29155_W_tif
  70
32
  10
258070.500
  20
4541240.293
  30
810.36
  0
VERTEX
  8
PNOA-H_AMS_1956-57_33k_ES_PAN_21mic_H50_0451_fot_54A-29155_W_tif
  70
32
  10
255695.500
  20
4540950.793
  30
784
  0
VERTEX
  8
PNOA-H_AMS_1956-57_33k_ES_PAN_21mic_H50_0451_fot_54A-29155_W_tif
  70
32
  10
255692.000
  20
4540951.793
  30
784
  0
VERTEX
  8
PNOA-H_AMS_1956-57_33k_ES_PAN_21mic_H50_0451_fot_54A-29155_W_tif
  70
32
  10
255241.500
  20
4541245.293
  30
792.42
  0
VERTEX
  8
PNOA-H_AMS_1956-57_33k_ES_PAN_21mic_H50_0451_fot_54A-29155_W_tif
  70
32
  10
255329.058
  20
4542834.105
  30
793.835
  0
VERTEX
  8
PNOA-H_AMS_1956-57_33k_ES_PAN_21mic_H50_0451_fot_54A-29155_W_tif
  70
32
  10
256441.361
  20
4542796.925
  30
793.857
  0
SEQEND
  8
PNOA-H_AMS_1956-57_33k_ES_PAN_21mic_H50_0451_fot_54A-29155_W_tif
  0
TEXT
  8
PNOA-H_AMS_1956-57_33k_ES_PAN_21mic_H50_0451_fot_54A-29155_W_tif
 62
0
  1
PNOA-H_AMS_1956-57_33k_ES_PAN_21mic_H50_0451_fot_54A-29155_W.tif
 40
41.63504
  10
256676.298
  20
4541892.449
  0
POLYLINE
  8
PNOA-H_AMS_1956-57_33k_ES_PAN_21mic_H50_0451_fot_54A-29154_W_tif
  70
9
  66
1
  0
VERTEX
  8
PNOA-H_AMS_1956-57_33k_ES_PAN_21mic_H50_0451_fot_54A-29154_W_tif
  70
32
  10
259892.631
  20
4541042.958
  30
822.235
  0
VERTEX
  8
PNOA-H_AMS_1956-57_33k_ES_PAN_21mic_H50_0451_fot_54A-29154_W_tif
  70
32
  10
259201.000
  20
4540917.793
  30
819
  0
VERTEX
  8
PNOA-H_AMS_1956-57_33k_ES_PAN_21mic_H50_0451_fot_54A-29154_W_tif
  70
32
  10
259198.500
  20
4540917.793
  30
819
  0
VERTEX
  8
PNOA-H_AMS_1956-57_33k_ES_PAN_21mic_H50_0451_fot_54A-29154_W_tif
  70
32
  10
258730.000
  20
4540832.793
  30
815
  0
VERTEX
  8
PNOA-H_AMS_1956-57_33k_ES_PAN_21mic_H50_0451_fot_54A-29154_W_tif
  70
32
  10
258070.500
  20
4541240.293
  30
810.36
  0
VERTEX
  8
PNOA-H_AMS_1956-57_33k_ES_PAN_21mic_H50_0451_fot_54A-29154_W_tif
  70
32
  10
258111.096
  20
4542741.911
  30
810.639
  0
VERTEX
  8
PNOA-H_AMS_1956-57_33k_ES_PAN_21mic_H50_0451_fot_54A-29154_W_tif
  70
32
  10
259946.212
  20
4542681.448
  30
830.27
  0
SEQEND
  8
PNOA-H_AMS_1956-57_33k_ES_PAN_21mic_H50_0451_fot_54A-29154_W_tif
  0
TEXT
  8
PNOA-H_AMS_1956-57_33k_ES_PAN_21mic_H50_0451_fot_54A-29154_W_tif
 62
0
  1
PNOA-H_AMS_1956-57_33k_ES_PAN_21mic_H50_0451_fot_54A-29154_W.tif
 40
41.63504
  10
259008.356
  20
4541787.352
  0
POLYLINE
  8
PNOA-H_AMS_1956-57_33k_ES_PAN_21mic_H50_0477_fot_57A-36833_E_tif
  70
9
  66
1
  0
VERTEX
  8
PNOA-H_AMS_1956-57_33k_ES_PAN_21mic_H50_0477_fot_57A-36833_E_tif
  70
32
  10
231499.935
  20
4532502.761
  30
781.41
  0
VERTEX
  8
PNOA-H_AMS_1956-57_33k_ES_PAN_21mic_H50_0477_fot_57A-36833_E_tif
  70
32
  10
232806.500
  20
4532517.793
  30
790
  0
VERTEX
  8
PNOA-H_AMS_1956-57_33k_ES_PAN_21mic_H50_0477_fot_57A-36833_E_tif
  70
32
  10
232851.000
  20
4532518.293
  30
789
  0
VERTEX
  8
PNOA-H_AMS_1956-57_33k_ES_PAN_21mic_H50_0477_fot_57A-36833_E_tif
  70
32
  10
234062.000
  20
4532531.793
  30
797.1
  0
VERTEX
  8
PNOA-H_AMS_1956-57_33k_ES_PAN_21mic_H50_0477_fot_57A-36833_E_tif
  70
32
  10
234349.000
  20
4532344.793
  30
792
  0
VERTEX
  8
PNOA-H_AMS_1956-57_33k_ES_PAN_21mic_H50_0477_fot_57A-36833_E_tif
  70
32
  10
234280.500
  20
4530862.293
  30
771.9
  0
VERTEX
  8
PNOA-H_AMS_1956-57_33k_ES_PAN_21mic_H50_0477_fot_57A-36833_E_tif
  70
32
  10
231501.000
  20
4529213.293
  30
785
  0
VERTEX
  8
PNOA-H_AMS_1956-57_33k_ES_PAN_21mic_H50_0477_fot_57A-36833_E_tif
  70
32
  10
231500.000
  20
4529213.293
  30
785
  0
VERTEX
  8
PNOA-H_AMS_1956-57_33k_ES_PAN_21mic_H50_0477_fot_57A-36833_E_tif
  70
32
  10
231499.500
  20
4529215.293
  30
785
  0
VERTEX
  8
PNOA-H_AMS_1956-57_33k_ES_PAN_21mic_H50_0477_fot_57A-36833_E_tif
  70
32
  10
231497.500
  20
4529229.793
  30
785
  0
VERTEX
  8
PNOA-H_AMS_1956-57_33k_ES_PAN_21mic_H50_0477_fot_57A-36833_E_tif
  70
32
  10
231405.511
  20
4529912.559
  30
776.823
  0
VERTEX
  8
PNOA-H_AMS_1956-57_33k_ES_PAN_21mic_H50_0477_fot_57A-36833_E_tif
  70
32
  10
231484.748
  20
4532086.296
  30
773.939
  0
SEQEND
  8
PNOA-H_AMS_1956-57_33k_ES_PAN_21mic_H50_0477_fot_57A-36833_E_tif
  0
TEXT
  8
PNOA-H_AMS_1956-57_33k_ES_PAN_21mic_H50_0477_fot_57A-36833_E_tif
 62
0
  1
PNOA-H_AMS_1956-57_33k_ES_PAN_21mic_H50_0477_fot_57A-36833_E.tif
 40
41.63504
  10
232778.573
  20
4530872.543
  0
POLYLINE
  8
PNOA-H_AMS_1956-57_33k_ES_PAN_21mic_H50_0477_fot_58A-40161_W_tif
  70
9
  66
1
  0
VERTEX
  8
PNOA-H_AMS_1956-57_33k_ES_PAN_21mic_H50_0477_fot_58A-40161_W_tif
  70
32
  10
232097.520
  20
4525115.492
  30
774.671
  0
VERTEX
  8
PNOA-H_AMS_1956-57_33k_ES_PAN_21mic_H50_0477_fot_58A-40161_W_tif
  70
32
  10
231231.896
  20
4525146.806
  30
769.363
  0
VERTEX
  8
PNOA-H_AMS_1956-57_33k_ES_PAN_21mic_H50_0477_fot_58A-40161_W_tif
  70
32
  10
231316.144
  20
4527459.964
  30
783.114
  0
VERTEX
  8
PNOA-H_AMS_1956-57_33k_ES_PAN_21mic_H50_0477_fot_58A-40161_W_tif
  70
32
  10
231339.002
  20
4528087.305
  30
778.32
  0
VERTEX
  8
PNOA-H_AMS_1956-57_33k_ES_PAN_21mic_H50_0477_fot_58A-40161_W_tif
  70
32
  10
231473.500
  20
4528158.793
  30
776
  0
VERTEX
  8
PNOA-H_AMS_1956-57_33k_ES_PAN_21mic_H50_0477_fot_58A-40161_W_tif
  70
32
  10
232856.000
  20
4527835.293
  30
765
  0
VERTEX
  8
PNOA-H_AMS_1956-57_33k_ES_PAN_21mic_H50_0477_fot_58A-40161_W_tif
  70
32
  10
232858.500
  20
4527834.793
  30
765
  0
VERTEX
  8
PNOA-H_AMS_1956-57_33k_ES_PAN_21mic_H50_0477_fot_58A-40161_W_tif
  70
32
  10
233572.500
  20
4527667.793
  30
783.9
  0
VERTEX
  8
PNOA-H_AMS_1956-57_33k_ES_PAN_21mic_H50_0477_fot_58A-40161_W_tif
  70
32
  10
233524.000
  20
4525848.293
  30
786.84
  0
SEQEND
  8
PNOA-H_AMS_1956-57_33k_ES_PAN_21mic_H50_0477_fot_58A-40161_W_tif
  0
TEXT
  8
PNOA-H_AMS_1956-57_33k_ES_PAN_21mic_H50_0477_fot_58A-40161_W_tif
 62
0
  1
PNOA-H_AMS_1956-57_33k_ES_PAN_21mic_H50_0477_fot_58A-40161_W.tif
 40
41.63504
  10
232109.337
  20
4526474.397
  0
POLYLINE
  8
PNOA-H_AMS_1956-57_33k_ES_PAN_21mic_H50_0476_fot_57B-04734_W_tif
  70
9
  66
1
  0
VERTEX
  8
PNOA-H_AMS_1956-57_33k_ES_PAN_21mic_H50_0476_fot_57B-04734_W_tif
  70
32
  10
231405.592
  20
4529914.781
  30
776.685
  0
VERTEX
  8
PNOA-H_AMS_1956-57_33k_ES_PAN_21mic_H50_0476_fot_57B-04734_W_tif
  70
32
  10
231500.000
  20
4529215.293
  30
785
  0
VERTEX
  8
PNOA-H_AMS_1956-57_33k_ES_PAN_21mic_H50_0476_fot_57B-04734_W_tif
  70
32
  10
231474.500
  20
4528158.793
  30
776
  0
VERTEX
  8
PNOA-H_AMS_1956-57_33k_ES_PAN_21mic_H50_0476_fot_57B-04734_W_tif
  70
32
  10
231338.982
  20
4528086.730
  30
778.381
  0
VERTEX
  8
PNOA-H_AMS_1956-57_33k_ES_PAN_21mic_H50_0476_fot_57B-04734_W_tif
  70
32
  10
231400.428
  20
4529773.127
  30
778.331
  0
SEQEND
  8
PNOA-H_AMS_1956-57_33k_ES_PAN_21mic_H50_0476_fot_57B-04734_W_tif
  0
TEXT
  8
PNOA-H_AMS_1956-57_33k_ES_PAN_21mic_H50_0476_fot_57B-04734_W_tif
 62
0
  1
PNOA-H_AMS_1956-57_33k_ES_PAN_21mic_H50_0476_fot_57B-04734_W.tif
 40
41.63504
  10
231419.491
  20
4529000.756
  0
POLYLINE
  8
PNOA-H_AMS_1956-57_33k_ES_PAN_21mic_H50_0477_fot_57B-04733_W_tif
  70
9
  66
1
  0
VERTEX
  8
PNOA-H_AMS_1956-57_33k_ES_PAN_21mic_H50_0477_fot_57B-04733_W_tif
  70
32
  10
231500.000
  20
4529213.293
  30
785
  0
VERTEX
  8
PNOA-H_AMS_1956-57_33k_ES_PAN_21mic_H50_0477_fot_57B-04733_W_tif
  70
32
  10
234279.500
  20
4530861.293
  30
772
  0
VERTEX
  8
PNOA-H_AMS_1956-57_33k_ES_PAN_21mic_H50_0477_fot_57B-04733_W_tif
  70
32
  10
234280.000
  20
4530862.293
  30
772
  0
VERTEX
  8
PNOA-H_AMS_1956-57_33k_ES_PAN_21mic_H50_0477_fot_57B-04733_W_tif
  70
32
  10
234425.000
  20
4529481.793
  30
779.1
  0
VERTEX
  8
PNOA-H_AMS_1956-57_33k_ES_PAN_21mic_H50_0477_fot_57B-04733_W_tif
  70
32
  10
234380.000
  20
4528081.793
  30
787.9
  0
VERTEX
  8
PNOA-H_AMS_1956-57_33k_ES_PAN_21mic_H50_0477_fot_57B-04733_W_tif
  70
32
  10
233572.000
  20
4527667.793
  30
783.9
  0
VERTEX
  8
PNOA-H_AMS_1956-57_33k_ES_PAN_21mic_H50_0477_fot_57B-04733_W_tif
  70
32
  10
231474.500
  20
4528158.793
  30
776
  0
SEQEND
  8
PNOA-H_AMS_1956-57_33k_ES_PAN_21mic_H50_0477_fot_57B-04733_W_tif
  0
TEXT
  8
PNOA-H_AMS_1956-57_33k_ES_PAN_21mic_H50_0477_fot_57B-04733_W_tif
 62
0
  1
PNOA-H_AMS_1956-57_33k_ES_PAN_21mic_H50_0477_fot_57B-04733_W.tif
 40
41.63504
  10
233002.657
  20
4529265.043
  0
POLYLINE
  8
PNOA-H_AMS_1956-57_33k_ES_PAN_21mic_H50_0476_fot_55A-03736_W_tif
  70
9
  66
1
  0
VERTEX
  8
PNOA-H_AMS_1956-57_33k_ES_PAN_21mic_H50_0476_fot_55A-03736_W_tif
  70
32
  10
231816.087
  20
4541166.624
  30
806.071
  0
VERTEX
  8
PNOA-H_AMS_1956-57_33k_ES_PAN_21mic_H50_0476_fot_55A-03736_W_tif
  70
32
  10
232362.000
  20
4541080.793
  30
805
  0
VERTEX
  8
PNOA-H_AMS_1956-57_33k_ES_PAN_21mic_H50_0476_fot_55A-03736_W_tif
  70
32
  10
232371.000
  20
4536966.793
  30
831
  0
VERTEX
  8
PNOA-H_AMS_1956-57_33k_ES_PAN_21mic_H50_0476_fot_55A-03736_W_tif
  70
32
  10
231651.486
  20
4536657.617
  30
828.471
  0
VERTEX
  8
PNOA-H_AMS_1956-57_33k_ES_PAN_21mic_H50_0476_fot_55A-03736_W_tif
  70
32
  10
231653.493
  20
4536712.652
  30
828.547
  0
VERTEX
  8
PNOA-H_AMS_1956-57_33k_ES_PAN_21mic_H50_0476_fot_55A-03736_W_tif
  70
32
  10
231737.920
  20
4539025.839
  30
817.978
  0
SEQEND
  8
PNOA-H_AMS_1956-57_33k_ES_PAN_21mic_H50_0476_fot_55A-03736_W_tif
  0
TEXT
  8
PNOA-H_AMS_1956-57_33k_ES_PAN_21mic_H50_0476_fot_55A-03736_W_tif
 62
0
  1
PNOA-H_AMS_1956-57_33k_ES_PAN_21mic_H50_0476_fot_55A-03736_W.tif
 40
41.63504
  10
232011.243
  20
4538912.120
  0
POLYLINE
  8
PNOA-H_AMS_1956-57_33k_ES_PAN_21mic_H50_0477_fot_55A-03733_W_tif
  70
9
  66
1
  0
VERTEX
  8
PNOA-H_AMS_1956-57_33k_ES_PAN_21mic_H50_0477_fot_55A-03733_W_tif
  70
32
  10
238706.500
  20
4541429.793
  30
819
  0
VERTEX
  8
PNOA-H_AMS_1956-57_33k_ES_PAN_21mic_H50_0477_fot_55A-03733_W_tif
  70
32
  10
240854.000
  20
4541173.793
  30
846.86
  0
VERTEX
  8
PNOA-H_AMS_1956-57_33k_ES_PAN_21mic_H50_0477_fot_55A-03733_W_tif
  70
32
  10
240934.500
  20
4536790.293
  30
863
  0
VERTEX
  8
PNOA-H_AMS_1956-57_33k_ES_PAN_21mic_H50_0477_fot_55A-03733_W_tif
  70
32
  10
240274.000
  20
4536458.293
  30
866.64
  0
VERTEX
  8
PNOA-H_AMS_1956-57_33k_ES_PAN_21mic_H50_0477_fot_55A-03733_W_tif
  70
32
  10
238116.000
  20
4536886.293
  30
844
  0
VERTEX
  8
PNOA-H_AMS_1956-57_33k_ES_PAN_21mic_H50_0477_fot_55A-03733_W_tif
  70
32
  10
237991.500
  20
4541120.793
  30
820.79
  0
VERTEX
  8
PNOA-H_AMS_1956-57_33k_ES_PAN_21mic_H50_0477_fot_55A-03733_W_tif
  70
32
  10
238705.000
  20
4541429.293
  30
819
  0
VERTEX
  8
PNOA-H_AMS_1956-57_33k_ES_PAN_21mic_H50_0477_fot_55A-03733_W_tif
  70
32
  10
238706.500
  20
4541429.793
  30
819
  0
SEQEND
  8
PNOA-H_AMS_1956-57_33k_ES_PAN_21mic_H50_0477_fot_55A-03733_W_tif
  0
TEXT
  8
PNOA-H_AMS_1956-57_33k_ES_PAN_21mic_H50_0477_fot_55A-03733_W_tif
 62
0
  1
PNOA-H_AMS_1956-57_33k_ES_PAN_21mic_H50_0477_fot_55A-03733_W.tif
 40
41.63504
  10
239475.224
  20
4538944.043
  0
POLYLINE
  8
PNOA-H_AMS_1956-57_33k_ES_PAN_21mic_H50_0477_fot_55A-03734_W_tif
  70
9
  66
1
  0
VERTEX
  8
PNOA-H_AMS_1956-57_33k_ES_PAN_21mic_H50_0477_fot_55A-03734_W_tif
  70
32
  10
236025.000
  20
4541394.793
  30
823
  0
VERTEX
  8
PNOA-H_AMS_1956-57_33k_ES_PAN_21mic_H50_0477_fot_55A-03734_W_tif
  70
32
  10
237991.500
  20
4541120.793
  30
820.79
  0
VERTEX
  8
PNOA-H_AMS_1956-57_33k_ES_PAN_21mic_H50_0477_fot_55A-03734_W_tif
  70
32
  10
238116.000
  20
4536885.793
  30
844
  0
VERTEX
  8
PNOA-H_AMS_1956-57_33k_ES_PAN_21mic_H50_0477_fot_55A-03734_W_tif
  70
32
  10
237200.000
  20
4536440.293
  30
822
  0
VERTEX
  8
PNOA-H_AMS_1956-57_33k_ES_PAN_21mic_H50_0477_fot_55A-03734_W_tif
  70
32
  10
235206.500
  20
4536935.793
  30
831
  0
VERTEX
  8
PNOA-H_AMS_1956-57_33k_ES_PAN_21mic_H50_0477_fot_55A-03734_W_tif
  70
32
  10
235143.000
  20
4541036.793
  30
811
  0
VERTEX
  8
PNOA-H_AMS_1956-57_33k_ES_PAN_21mic_H50_0477_fot_55A-03734_W_tif
  70
32
  10
236023.500
  20
4541394.293
  30
823
  0
VERTEX
  8
PNOA-H_AMS_1956-57_33k_ES_PAN_21mic_H50_0477_fot_55A-03734_W_tif
  70
32
  10
236025.000
  20
4541394.793
  30
823
  0
SEQEND
  8
PNOA-H_AMS_1956-57_33k_ES_PAN_21mic_H50_0477_fot_55A-03734_W_tif
  0
TEXT
  8
PNOA-H_AMS_1956-57_33k_ES_PAN_21mic_H50_0477_fot_55A-03734_W_tif
 62
0
  1
PNOA-H_AMS_1956-57_33k_ES_PAN_21mic_H50_0477_fot_55A-03734_W.tif
 40
41.63504
  10
236616.043
  20
4538917.543
  0
POLYLINE
  8
PNOA-H_AMS_1956-57_33k_ES_PAN_21mic_H50_0477_fot_55A-03735_W_tif
  70
9
  66
1
  0
VERTEX
  8
PNOA-H_AMS_1956-57_33k_ES_PAN_21mic_H50_0477_fot_55A-03735_W_tif
  70
32
  10
233161.000
  20
4541380.793
  30
802
  0
VERTEX
  8
PNOA-H_AMS_1956-57_33k_ES_PAN_21mic_H50_0477_fot_55A-03735_W_tif
  70
32
  10
235143.000
  20
4541036.293
  30
811
  0
VERTEX
  8
PNOA-H_AMS_1956-57_33k_ES_PAN_21mic_H50_0477_fot_55A-03735_W_tif
  70
32
  10
235206.500
  20
4536935.293
  30
831
  0
VERTEX
  8
PNOA-H_AMS_1956-57_33k_ES_PAN_21mic_H50_0477_fot_55A-03735_W_tif
  70
32
  10
234967.500
  20
4536821.793
  30
836
  0
VERTEX
  8
PNOA-H_AMS_1956-57_33k_ES_PAN_21mic_H50_0477_fot_55A-03735_W_tif
  70
32
  10
234966.500
  20
4536821.793
  30
836
  0
VERTEX
  8
PNOA-H_AMS_1956-57_33k_ES_PAN_21mic_H50_0477_fot_55A-03735_W_tif
  70
32
  10
234238.500
  20
4536475.293
  30
841
  0
VERTEX
  8
PNOA-H_AMS_1956-57_33k_ES_PAN_21mic_H50_0477_fot_55A-03735_W_tif
  70
32
  10
234219.500
  20
4536466.293
  30
842
  0
VERTEX
  8
PNOA-H_AMS_1956-57_33k_ES_PAN_21mic_H50_0477_fot_55A-03735_W_tif
  70
32
  10
234216.500
  20
4536466.293
  30
842
  0
VERTEX
  8
PNOA-H_AMS_1956-57_33k_ES_PAN_21mic_H50_0477_fot_55A-03735_W_tif
  70
32
  10
232371.000
  20
4536966.793
  30
831
  0
VERTEX
  8
PNOA-H_AMS_1956-57_33k_ES_PAN_21mic_H50_0477_fot_55A-03735_W_tif
  70
32
  10
232362.000
  20
4541080.793
  30
805
  0
SEQEND
  8
PNOA-H_AMS_1956-57_33k_ES_PAN_21mic_H50_0477_fot_55A-03735_W_tif
  0
TEXT
  8
PNOA-H_AMS_1956-57_33k_ES_PAN_21mic_H50_0477_fot_55A-03735_W_tif
 62
0
  1
PNOA-H_AMS_1956-57_33k_ES_PAN_21mic_H50_0477_fot_55A-03735_W.tif
 40
41.63504
  10
233771.217
  20
4538923.543
  0
POLYLINE
  8
PNOA-H_AMS_1956-57_33k_ES_PAN_21mic_H50_0477_fot_56A-04378_W_tif
  70
9
  66
1
  0
VERTEX
  8
PNOA-H_AMS_1956-57_33k_ES_PAN_21mic_H50_0477_fot_56A-04378_W_tif
  70
32
  10
240078.500
  20
4532725.793
  30
871.21
  0
VERTEX
  8
PNOA-H_AMS_1956-57_33k_ES_PAN_21mic_H50_0477_fot_56A-04378_W_tif
  70
32
  10
240055.500
  20
4532287.293
  30
865
  0
VERTEX
  8
PNOA-H_AMS_1956-57_33k_ES_PAN_21mic_H50_0477_fot_56A-04378_W_tif
  70
32
  10
237482.500
  20
4532161.793
  30
812
  0
VERTEX
  8
PNOA-H_AMS_1956-57_33k_ES_PAN_21mic_H50_0477_fot_56A-04378_W_tif
  70
32
  10
237063.500
  20
4532430.293
  30
825
  0
VERTEX
  8
PNOA-H_AMS_1956-57_33k_ES_PAN_21mic_H50_0477_fot_56A-04378_W_tif
  70
32
  10
237199.000
  20
4536440.293
  30
822
  0
VERTEX
  8
PNOA-H_AMS_1956-57_33k_ES_PAN_21mic_H50_0477_fot_56A-04378_W_tif
  70
32
  10
238116.000
  20
4536886.293
  30
844
  0
VERTEX
  8
PNOA-H_AMS_1956-57_33k_ES_PAN_21mic_H50_0477_fot_56A-04378_W_tif
  70
32
  10
240273.500
  20
4536458.293
  30
866.56
  0
VERTEX
  8
PNOA-H_AMS_1956-57_33k_ES_PAN_21mic_H50_0477_fot_56A-04378_W_tif
  70
32
  10
240078.500
  20
4532728.793
  30
871.3
  0
VERTEX
  8
PNOA-H_AMS_1956-57_33k_ES_PAN_21mic_H50_0477_fot_56A-04378_W_tif
  70
32
  10
240078.500
  20
4532725.793
  30
871.21
  0
SEQEND
  8
PNOA-H_AMS_1956-57_33k_ES_PAN_21mic_H50_0477_fot_56A-04378_W_tif
  0
TEXT
  8
PNOA-H_AMS_1956-57_33k_ES_PAN_21mic_H50_0477_fot_56A-04378_W_tif
 62
0
  1
PNOA-H_AMS_1956-57_33k_ES_PAN_21mic_H50_0477_fot_56A-04378_W.tif
 40
41.63504
  10
238653.308
  20
4534524.043
  0
POLYLINE
  8
PNOA-H_AMS_1956-57_33k_ES_PAN_21mic_H50_0477_fot_56A-04380_W_tif
  70
9
  66
1
  0
VERTEX
  8
PNOA-H_AMS_1956-57_33k_ES_PAN_21mic_H50_0477_fot_56A-04380_W_tif
  70
32
  10
231651.498
  20
4536657.947
  30
828.475
  0
VERTEX
  8
PNOA-H_AMS_1956-57_33k_ES_PAN_21mic_H50_0477_fot_56A-04380_W_tif
  70
32
  10
232369.500
  20
4536966.293
  30
831
  0
VERTEX
  8
PNOA-H_AMS_1956-57_33k_ES_PAN_21mic_H50_0477_fot_56A-04380_W_tif
  70
32
  10
232370.500
  20
4536966.793
  30
831
  0
VERTEX
  8
PNOA-H_AMS_1956-57_33k_ES_PAN_21mic_H50_0477_fot_56A-04380_W_tif
  70
32
  10
234218.500
  20
4536466.293
  30
842
  0
VERTEX
  8
PNOA-H_AMS_1956-57_33k_ES_PAN_21mic_H50_0477_fot_56A-04380_W_tif
  70
32
  10
234062.000
  20
4532531.793
  30
797.1
  0
VERTEX
  8
PNOA-H_AMS_1956-57_33k_ES_PAN_21mic_H50_0477_fot_56A-04380_W_tif
  70
32
  10
231499.934
  20
4532502.731
  30
781.323
  0
VERTEX
  8
PNOA-H_AMS_1956-57_33k_ES_PAN_21mic_H50_0477_fot_56A-04380_W_tif
  70
32
  10
231569.103
  20
4534399.471
  30
800.421
  0
SEQEND
  8
PNOA-H_AMS_1956-57_33k_ES_PAN_21mic_H50_0477_fot_56A-04380_W_tif
  0
TEXT
  8
PNOA-H_AMS_1956-57_33k_ES_PAN_21mic_H50_0477_fot_56A-04380_W_tif
 62
0
  1
PNOA-H_AMS_1956-57_33k_ES_PAN_21mic_H50_0477_fot_56A-04380_W.tif
 40
41.63504
  10
232676.807
  20
4534733.543
  0
POLYLINE
  8
PNOA-H_AMS_1956-57_33k_ES_PAN_21mic_H50_0477_fot_56A-04379_W_tif
  70
9
  66
1
  0
VERTEX
  8
PNOA-H_AMS_1956-57_33k_ES_PAN_21mic_H50_0477_fot_56A-04379_W_tif
  70
32
  10
237073.500
  20
4532725.793
  30
829
  0
VERTEX
  8
PNOA-H_AMS_1956-57_33k_ES_PAN_21mic_H50_0477_fot_56A-04379_W_tif
  70
32
  10
237063.500
  20
4532430.293
  30
825
  0
VERTEX
  8
PNOA-H_AMS_1956-57_33k_ES_PAN_21mic_H50_0477_fot_56A-04379_W_tif
  70
32
  10
234348.500
  20
4532344.793
  30
792
  0
VERTEX
  8
PNOA-H_AMS_1956-57_33k_ES_PAN_21mic_H50_0477_fot_56A-04379_W_tif
  70
32
  10
234062.000
  20
4532531.293
  30
797.2
  0
VERTEX
  8
PNOA-H_AMS_1956-57_33k_ES_PAN_21mic_H50_0477_fot_56A-04379_W_tif
  70
32
  10
234218.500
  20
4536466.293
  30
842
  0
VERTEX
  8
PNOA-H_AMS_1956-57_33k_ES_PAN_21mic_H50_0477_fot_56A-04379_W_tif
  70
32
  10
235206.500
  20
4536935.793
  30
831
  0
VERTEX
  8
PNOA-H_AMS_1956-57_33k_ES_PAN_21mic_H50_0477_fot_56A-04379_W_tif
  70
32
  10
237199.000
  20
4536440.293
  30
822
  0
VERTEX
  8
PNOA-H_AMS_1956-57_33k_ES_PAN_21mic_H50_0477_fot_56A-04379_W_tif
  70
32
  10
237073.500
  20
4532733.293
  30
829.76
  0
VERTEX
  8
PNOA-H_AMS_1956-57_33k_ES_PAN_21mic_H50_0477_fot_56A-04379_W_tif
  70
32
  10
237073.500
  20
4532725.793
  30
829
  0
SEQEND
  8
PNOA-H_AMS_1956-57_33k_ES_PAN_21mic_H50_0477_fot_56A-04379_W_tif
  0
TEXT
  8
PNOA-H_AMS_1956-57_33k_ES_PAN_21mic_H50_0477_fot_56A-04379_W_tif
 62
0
  1
PNOA-H_AMS_1956-57_33k_ES_PAN_21mic_H50_0477_fot_56A-04379_W.tif
 40
41.63504
  10
235641.969
  20
4534640.293
  0
POLYLINE
  8
PNOA-H_AMS_1956-57_33k_ES_PAN_21mic_H50_0477_fot_000-36835_R_tif
  70
9
  66
1
  0
VERTEX
  8
PNOA-H_AMS_1956-57_33k_ES_PAN_21mic_H50_0477_fot_000-36835_R_tif
  70
32
  10
238995.500
  20
4532235.793
  30
854
  0
VERTEX
  8
PNOA-H_AMS_1956-57_33k_ES_PAN_21mic_H50_0477_fot_000-36835_R_tif
  70
32
  10
240056.500
  20
4532287.293
  30
865
  0
VERTEX
  8
PNOA-H_AMS_1956-57_33k_ES_PAN_21mic_H50_0477_fot_000-36835_R_tif
  70
32
  10
240546.000
  20
4531984.793
  30
863
  0
VERTEX
  8
PNOA-H_AMS_1956-57_33k_ES_PAN_21mic_H50_0477_fot_000-36835_R_tif
  70
32
  10
240476.000
  20
4530799.793
  30
841.9
  0
VERTEX
  8
PNOA-H_AMS_1956-57_33k_ES_PAN_21mic_H50_0477_fot_000-36835_R_tif
  70
32
  10
240378.000
  20
4529905.293
  30
833
  0
VERTEX
  8
PNOA-H_AMS_1956-57_33k_ES_PAN_21mic_H50_0477_fot_000-36835_R_tif
  70
32
  10
237395.500
  20
4529579.293
  30
802.06
  0
VERTEX
  8
PNOA-H_AMS_1956-57_33k_ES_PAN_21mic_H50_0477_fot_000-36835_R_tif
  70
32
  10
237394.500
  20
4529579.793
  30
802
  0
VERTEX
  8
PNOA-H_AMS_1956-57_33k_ES_PAN_21mic_H50_0477_fot_000-36835_R_tif
  70
32
  10
237353.000
  20
4530359.293
  30
798.4
  0
VERTEX
  8
PNOA-H_AMS_1956-57_33k_ES_PAN_21mic_H50_0477_fot_000-36835_R_tif
  70
32
  10
237483.000
  20
4532161.793
  30
812
  0
VERTEX
  8
PNOA-H_AMS_1956-57_33k_ES_PAN_21mic_H50_0477_fot_000-36835_R_tif
  70
32
  10
238985.500
  20
4532235.293
  30
853.4
  0
VERTEX
  8
PNOA-H_AMS_1956-57_33k_ES_PAN_21mic_H50_0477_fot_000-36835_R_tif
  70
32
  10
238995.500
  20
4532235.793
  30
854
  0
SEQEND
  8
PNOA-H_AMS_1956-57_33k_ES_PAN_21mic_H50_0477_fot_000-36835_R_tif
  0
TEXT
  8
PNOA-H_AMS_1956-57_33k_ES_PAN_21mic_H50_0477_fot_000-36835_R_tif
 62
0
  1
PNOA-H_AMS_1956-57_33k_ES_PAN_21mic_H50_0477_fot_000-36835_R.tif
 40
41.63504
  10
238939.142
  20
4530933.293
  0
POLYLINE
  8
PNOA-H_AMS_1956-57_33k_ES_PAN_21mic_H50_0477_fot_000-36834_R_tif
  70
9
  66
1
  0
VERTEX
  8
PNOA-H_AMS_1956-57_33k_ES_PAN_21mic_H50_0477_fot_000-36834_R_tif
  70
32
  10
237050.000
  20
4532430.293
  30
825
  0
VERTEX
  8
PNOA-H_AMS_1956-57_33k_ES_PAN_21mic_H50_0477_fot_000-36834_R_tif
  70
32
  10
237064.000
  20
4532430.293
  30
825
  0
VERTEX
  8
PNOA-H_AMS_1956-57_33k_ES_PAN_21mic_H50_0477_fot_000-36834_R_tif
  70
32
  10
237067.500
  20
4532428.293
  30
825
  0
VERTEX
  8
PNOA-H_AMS_1956-57_33k_ES_PAN_21mic_H50_0477_fot_000-36834_R_tif
  70
32
  10
237483.000
  20
4532161.793
  30
812
  0
VERTEX
  8
PNOA-H_AMS_1956-57_33k_ES_PAN_21mic_H50_0477_fot_000-36834_R_tif
  70
32
  10
237353.000
  20
4530353.293
  30
798
  0
VERTEX
  8
PNOA-H_AMS_1956-57_33k_ES_PAN_21mic_H50_0477_fot_000-36834_R_tif
  70
32
  10
234425.500
  20
4529478.293
  30
779.82
  0
VERTEX
  8
PNOA-H_AMS_1956-57_33k_ES_PAN_21mic_H50_0477_fot_000-36834_R_tif
  70
32
  10
234280.500
  20
4530859.293
  30
771.96
  0
VERTEX
  8
PNOA-H_AMS_1956-57_33k_ES_PAN_21mic_H50_0477_fot_000-36834_R_tif
  70
32
  10
234349.000
  20
4532344.793
  30
792
  0
VERTEX
  8
PNOA-H_AMS_1956-57_33k_ES_PAN_21mic_H50_0477_fot_000-36834_R_tif
  70
32
  10
237034.500
  20
4532429.793
  30
824.9
  0
VERTEX
  8
PNOA-H_AMS_1956-57_33k_ES_PAN_21mic_H50_0477_fot_000-36834_R_tif
  70
32
  10
237050.000
  20
4532430.293
  30
825
  0
SEQEND
  8
PNOA-H_AMS_1956-57_33k_ES_PAN_21mic_H50_0477_fot_000-36834_R_tif
  0
TEXT
  8
PNOA-H_AMS_1956-57_33k_ES_PAN_21mic_H50_0477_fot_000-36834_R_tif
 62
0
  1
PNOA-H_AMS_1956-57_33k_ES_PAN_21mic_H50_0477_fot_000-36834_R.tif
 40
41.63504
  10
235840.541
  20
4530954.293
  0
POLYLINE
  8
PNOA-H_AMS_1956-57_33k_ES_PAN_21mic_H50_0477_fot_57B-04731_W_tif
  70
9
  66
1
  0
VERTEX
  8
PNOA-H_AMS_1956-57_33k_ES_PAN_21mic_H50_0477_fot_57B-04731_W_tif
  70
32
  10
238998.000
  20
4529754.793
  30
802.7
  0
VERTEX
  8
PNOA-H_AMS_1956-57_33k_ES_PAN_21mic_H50_0477_fot_57B-04731_W_tif
  70
32
  10
240378.000
  20
4529905.293
  30
833
  0
VERTEX
  8
PNOA-H_AMS_1956-57_33k_ES_PAN_21mic_H50_0477_fot_57B-04731_W_tif
  70
32
  10
240327.500
  20
4527933.293
  30
783.9
  0
VERTEX
  8
PNOA-H_AMS_1956-57_33k_ES_PAN_21mic_H50_0477_fot_57B-04731_W_tif
  70
32
  10
239255.000
  20
4527487.293
  30
809
  0
VERTEX
  8
PNOA-H_AMS_1956-57_33k_ES_PAN_21mic_H50_0477_fot_57B-04731_W_tif
  70
32
  10
237352.000
  20
4528071.793
  30
779.46
  0
VERTEX
  8
PNOA-H_AMS_1956-57_33k_ES_PAN_21mic_H50_0477_fot_57B-04731_W_tif
  70
32
  10
237395.000
  20
4529579.293
  30
802
  0
VERTEX
  8
PNOA-H_AMS_1956-57_33k_ES_PAN_21mic_H50_0477_fot_57B-04731_W_tif
  70
32
  10
238993.500
  20
4529754.293
  30
803
  0
VERTEX
  8
PNOA-H_AMS_1956-57_33k_ES_PAN_21mic_H50_0477_fot_57B-04731_W_tif
  70
32
  10
238998.000
  20
4529754.793
  30
802.7
  0
SEQEND
  8
PNOA-H_AMS_1956-57_33k_ES_PAN_21mic_H50_0477_fot_57B-04731_W_tif
  0
TEXT
  8
PNOA-H_AMS_1956-57_33k_ES_PAN_21mic_H50_0477_fot_57B-04731_W_tif
 62
0
  1
PNOA-H_AMS_1956-57_33k_ES_PAN_21mic_H50_0477_fot_57B-04731_W.tif
 40
41.63504
  10
238858.426
  20
4528696.293
  0
POLYLINE
  8
PNOA-H_AMS_1956-57_33k_ES_PAN_21mic_H50_0477_fot_57B-04732_W_tif
  70
9
  66
1
  0
VERTEX
  8
PNOA-H_AMS_1956-57_33k_ES_PAN_21mic_H50_0477_fot_57B-04732_W_tif
  70
32
  10
237352.000
  20
4530353.293
  30
798
  0
VERTEX
  8
PNOA-H_AMS_1956-57_33k_ES_PAN_21mic_H50_0477_fot_57B-04732_W_tif
  70
32
  10
237353.000
  20
4530353.293
  30
798
  0
VERTEX
  8
PNOA-H_AMS_1956-57_33k_ES_PAN_21mic_H50_0477_fot_57B-04732_W_tif
  70
32
  10
237353.500
  20
4530345.793
  30
796.7
  0
VERTEX
  8
PNOA-H_AMS_1956-57_33k_ES_PAN_21mic_H50_0477_fot_57B-04732_W_tif
  70
32
  10
237395.000
  20
4529579.793
  30
802
  0
VERTEX
  8
PNOA-H_AMS_1956-57_33k_ES_PAN_21mic_H50_0477_fot_57B-04732_W_tif
  70
32
  10
237352.000
  20
4528071.793
  30
779.46
  0
VERTEX
  8
PNOA-H_AMS_1956-57_33k_ES_PAN_21mic_H50_0477_fot_57B-04732_W_tif
  70
32
  10
236379.500
  20
4527588.293
  30
812.82
  0
VERTEX
  8
PNOA-H_AMS_1956-57_33k_ES_PAN_21mic_H50_0477_fot_57B-04732_W_tif
  70
32
  10
234380.000
  20
4528081.793
  30
787.9
  0
VERTEX
  8
PNOA-H_AMS_1956-57_33k_ES_PAN_21mic_H50_0477_fot_57B-04732_W_tif
  70
32
  10
234425.000
  20
4529478.293
  30
779.8
  0
VERTEX
  8
PNOA-H_AMS_1956-57_33k_ES_PAN_21mic_H50_0477_fot_57B-04732_W_tif
  70
32
  10
237350.000
  20
4530352.793
  30
798
  0
VERTEX
  8
PNOA-H_AMS_1956-57_33k_ES_PAN_21mic_H50_0477_fot_57B-04732_W_tif
  70
32
  10
237352.000
  20
4530353.293
  30
798
  0
SEQEND
  8
PNOA-H_AMS_1956-57_33k_ES_PAN_21mic_H50_0477_fot_57B-04732_W_tif
  0
TEXT
  8
PNOA-H_AMS_1956-57_33k_ES_PAN_21mic_H50_0477_fot_57B-04732_W_tif
 62
0
  1
PNOA-H_AMS_1956-57_33k_ES_PAN_21mic_H50_0477_fot_57B-04732_W.tif
 40
41.63504
  10
235893.141
  20
4528970.793
  0
POLYLINE
  8
PNOA-H_AMS_1956-57_33k_ES_PAN_21mic_H50_0477_fot_58A-40160_W_tif
  70
9
  66
1
  0
VERTEX
  8
PNOA-H_AMS_1956-57_33k_ES_PAN_21mic_H50_0477_fot_58A-40160_W_tif
  70
32
  10
235212.349
  20
4525003.035
  30
784.97
  0
VERTEX
  8
PNOA-H_AMS_1956-57_33k_ES_PAN_21mic_H50_0477_fot_58A-40160_W_tif
  70
32
  10
234745.725
  20
4525019.693
  30
783.979
  0
VERTEX
  8
PNOA-H_AMS_1956-57_33k_ES_PAN_21mic_H50_0477_fot_58A-40160_W_tif
  70
32
  10
234035.766
  20
4525045.376
  30
783.268
  0
VERTEX
  8
PNOA-H_AMS_1956-57_33k_ES_PAN_21mic_H50_0477_fot_58A-40160_W_tif
  70
32
  10
233524.500
  20
4525846.793
  30
786.81
  0
VERTEX
  8
PNOA-H_AMS_1956-57_33k_ES_PAN_21mic_H50_0477_fot_58A-40160_W_tif
  70
32
  10
233524.000
  20
4525864.293
  30
787
  0
VERTEX
  8
PNOA-H_AMS_1956-57_33k_ES_PAN_21mic_H50_0477_fot_58A-40160_W_tif
  70
32
  10
233572.500
  20
4527668.293
  30
783.8
  0
VERTEX
  8
PNOA-H_AMS_1956-57_33k_ES_PAN_21mic_H50_0477_fot_58A-40160_W_tif
  70
32
  10
234378.000
  20
4528081.293
  30
787.88
  0
VERTEX
  8
PNOA-H_AMS_1956-57_33k_ES_PAN_21mic_H50_0477_fot_58A-40160_W_tif
  70
32
  10
234379.000
  20
4528081.793
  30
787.92
  0
VERTEX
  8
PNOA-H_AMS_1956-57_33k_ES_PAN_21mic_H50_0477_fot_58A-40160_W_tif
  70
32
  10
236379.000
  20
4527588.293
  30
812.84
  0
VERTEX
  8
PNOA-H_AMS_1956-57_33k_ES_PAN_21mic_H50_0477_fot_58A-40160_W_tif
  70
32
  10
236360.500
  20
4525542.793
  30
788
  0
SEQEND
  8
PNOA-H_AMS_1956-57_33k_ES_PAN_21mic_H50_0477_fot_58A-40160_W_tif
  0
TEXT
  8
PNOA-H_AMS_1956-57_33k_ES_PAN_21mic_H50_0477_fot_58A-40160_W_tif
 62
0
  1
PNOA-H_AMS_1956-57_33k_ES_PAN_21mic_H50_0477_fot_58A-40160_W.tif
 40
41.63504
  10
234953.972
  20
4526435.897
  0
POLYLINE
  8
PNOA-H_AMS_1956-57_33k_ES_PAN_21mic_H50_0477_fot_58A-40159_W_tif
  70
9
  66
1
  0
VERTEX
  8
PNOA-H_AMS_1956-57_33k_ES_PAN_21mic_H50_0477_fot_58A-40159_W_tif
  70
32
  10
238271.818
  20
4524893.823
  30
808.756
  0
VERTEX
  8
PNOA-H_AMS_1956-57_33k_ES_PAN_21mic_H50_0477_fot_58A-40159_W_tif
  70
32
  10
238259.533
  20
4524894.256
  30
808.629
  0
VERTEX
  8
PNOA-H_AMS_1956-57_33k_ES_PAN_21mic_H50_0477_fot_58A-40159_W_tif
  70
32
  10
236874.038
  20
4524943.716
  30
795.756
  0
VERTEX
  8
PNOA-H_AMS_1956-57_33k_ES_PAN_21mic_H50_0477_fot_58A-40159_W_tif
  70
32
  10
236360.500
  20
4525542.293
  30
788
  0
VERTEX
  8
PNOA-H_AMS_1956-57_33k_ES_PAN_21mic_H50_0477_fot_58A-40159_W_tif
  70
32
  10
236379.000
  20
4527588.293
  30
812.84
  0
VERTEX
  8
PNOA-H_AMS_1956-57_33k_ES_PAN_21mic_H50_0477_fot_58A-40159_W_tif
  70
32
  10
237299.500
  20
4528046.293
  30
780
  0
VERTEX
  8
PNOA-H_AMS_1956-57_33k_ES_PAN_21mic_H50_0477_fot_58A-40159_W_tif
  70
32
  10
237351.000
  20
4528071.793
  30
779.28
  0
VERTEX
  8
PNOA-H_AMS_1956-57_33k_ES_PAN_21mic_H50_0477_fot_58A-40159_W_tif
  70
32
  10
237353.500
  20
4528071.793
  30
779.73
  0
VERTEX
  8
PNOA-H_AMS_1956-57_33k_ES_PAN_21mic_H50_0477_fot_58A-40159_W_tif
  70
32
  10
239001.000
  20
4527564.793
  30
803.1
  0
VERTEX
  8
PNOA-H_AMS_1956-57_33k_ES_PAN_21mic_H50_0477_fot_58A-40159_W_tif
  70
32
  10
239002.500
  20
4527564.293
  30
803.3
  0
VERTEX
  8
PNOA-H_AMS_1956-57_33k_ES_PAN_21mic_H50_0477_fot_58A-40159_W_tif
  70
32
  10
239254.000
  20
4527487.293
  30
809
  0
VERTEX
  8
PNOA-H_AMS_1956-57_33k_ES_PAN_21mic_H50_0477_fot_58A-40159_W_tif
  70
32
  10
239108.500
  20
4525269.293
  30
819.3
  0
SEQEND
  8
PNOA-H_AMS_1956-57_33k_ES_PAN_21mic_H50_0477_fot_58A-40159_W_tif
  0
TEXT
  8
PNOA-H_AMS_1956-57_33k_ES_PAN_21mic_H50_0477_fot_58A-40159_W_tif
 62
0
  1
PNOA-H_AMS_1956-57_33k_ES_PAN_21mic_H50_0477_fot_58A-40159_W.tif
 40
41.63504
  10
237776.618
  20
4526430.897
  0
POLYLINE
  8
PNOA-H_AMS_1956-57_33k_ES_PAN_21mic_H50_0502_fot_000-36791_R_tif
  70
9
  66
1
  0
VERTEX
  8
PNOA-H_AMS_1956-57_33k_ES_PAN_21mic_H50_0502_fot_000-36791_R_tif
  70
32
  10
239548.865
  20
4524848.844
  30
811.627
  0
VERTEX
  8
PNOA-H_AMS_1956-57_33k_ES_PAN_21mic_H50_0502_fot_000-36791_R_tif
  70
32
  10
238271.338
  20
4524893.840
  30
808.949
  0
VERTEX
  8
PNOA-H_AMS_1956-57_33k_ES_PAN_21mic_H50_0502_fot_000-36791_R_tif
  70
32
  10
239106.000
  20
4525268.793
  30
819.8
  0
VERTEX
  8
PNOA-H_AMS_1956-57_33k_ES_PAN_21mic_H50_0502_fot_000-36791_R_tif
  70
32
  10
239107.000
  20
4525269.293
  30
819.6
  0
VERTEX
  8
PNOA-H_AMS_1956-57_33k_ES_PAN_21mic_H50_0502_fot_000-36791_R_tif
  70
32
  10
239109.000
  20
4525269.293
  30
819.2
  0
VERTEX
  8
PNOA-H_AMS_1956-57_33k_ES_PAN_21mic_H50_0502_fot_000-36791_R_tif
  70
32
  10
239115.000
  20
4525263.793
  30
818.3
  0
SEQEND
  8
PNOA-H_AMS_1956-57_33k_ES_PAN_21mic_H50_0502_fot_000-36791_R_tif
  0
TEXT
  8
PNOA-H_AMS_1956-57_33k_ES_PAN_21mic_H50_0502_fot_000-36791_R_tif
 62
0
  1
PNOA-H_AMS_1956-57_33k_ES_PAN_21mic_H50_0502_fot_000-36791_R.tif
 40
41.63504
  10
238892.956
  20
4524904.647
  0
POLYLINE
  8
PNOA-H_AMS_1956-57_33k_ES_PAN_21mic_H50_0502_fot_000-36793_R_tif
  70
9
  66
1
  0
VERTEX
  8
PNOA-H_AMS_1956-57_33k_ES_PAN_21mic_H50_0502_fot_000-36793_R_tif
  70
32
  10
234036.467
  20
4525045.350
  30
783.183
  0
VERTEX
  8
PNOA-H_AMS_1956-57_33k_ES_PAN_21mic_H50_0502_fot_000-36793_R_tif
  70
32
  10
232097.191
  20
4525115.504
  30
774.551
  0
VERTEX
  8
PNOA-H_AMS_1956-57_33k_ES_PAN_21mic_H50_0502_fot_000-36793_R_tif
  70
32
  10
233522.000
  20
4525847.793
  30
786.46
  0
VERTEX
  8
PNOA-H_AMS_1956-57_33k_ES_PAN_21mic_H50_0502_fot_000-36793_R_tif
  70
32
  10
233523.000
  20
4525848.293
  30
786.68
  0
VERTEX
  8
PNOA-H_AMS_1956-57_33k_ES_PAN_21mic_H50_0502_fot_000-36793_R_tif
  70
32
  10
233524.500
  20
4525847.793
  30
786.91
  0
VERTEX
  8
PNOA-H_AMS_1956-57_33k_ES_PAN_21mic_H50_0502_fot_000-36793_R_tif
  70
32
  10
233527.500
  20
4525843.293
  30
786.6
  0
SEQEND
  8
PNOA-H_AMS_1956-57_33k_ES_PAN_21mic_H50_0502_fot_000-36793_R_tif
  0
TEXT
  8
PNOA-H_AMS_1956-57_33k_ES_PAN_21mic_H50_0502_fot_000-36793_R_tif
 62
0
  1
PNOA-H_AMS_1956-57_33k_ES_PAN_21mic_H50_0502_fot_000-36793_R.tif
 40
41.63504
  10
233177.622
  20
4525319.147
  0
POLYLINE
  8
PNOA-H_AMS_1956-57_33k_ES_PAN_21mic_H50_0502_fot_000-36792_R_tif
  70
9
  66
1
  0
VERTEX
  8
PNOA-H_AMS_1956-57_33k_ES_PAN_21mic_H50_0502_fot_000-36792_R_tif
  70
32
  10
236874.521
  20
4524943.699
  30
795.76
  0
VERTEX
  8
PNOA-H_AMS_1956-57_33k_ES_PAN_21mic_H50_0502_fot_000-36792_R_tif
  70
32
  10
235211.918
  20
4525003.051
  30
787.21
  0
VERTEX
  8
PNOA-H_AMS_1956-57_33k_ES_PAN_21mic_H50_0502_fot_000-36792_R_tif
  70
32
  10
236360.500
  20
4525542.793
  30
788
  0
SEQEND
  8
PNOA-H_AMS_1956-57_33k_ES_PAN_21mic_H50_0502_fot_000-36792_R_tif
  0
TEXT
  8
PNOA-H_AMS_1956-57_33k_ES_PAN_21mic_H50_0502_fot_000-36792_R_tif
 62
0
  1
PNOA-H_AMS_1956-57_33k_ES_PAN_21mic_H50_0502_fot_000-36792_R.tif
 40
41.63504
  10
236121.484
  20
4525166.397
  0
POLYLINE
  8
PNOA-H_AMS_1956-57_33k_ES_PAN_21mic_H50_0477_fot_55A-03731_W_tif
  70
9
  66
1
  0
VERTEX
  8
PNOA-H_AMS_1956-57_33k_ES_PAN_21mic_H50_0477_fot_55A-03731_W_tif
  70
32
  10
244198.000
  20
4541324.793
  30
846
  0
VERTEX
  8
PNOA-H_AMS_1956-57_33k_ES_PAN_21mic_H50_0477_fot_55A-03731_W_tif
  70
32
  10
246886.000
  20
4541204.793
  30
823
  0
VERTEX
  8
PNOA-H_AMS_1956-57_33k_ES_PAN_21mic_H50_0477_fot_55A-03731_W_tif
  70
32
  10
247003.500
  20
4536745.793
  30
822
  0
VERTEX
  8
PNOA-H_AMS_1956-57_33k_ES_PAN_21mic_H50_0477_fot_55A-03731_W_tif
  70
32
  10
246371.500
  20
4536426.293
  30
845.7
  0
VERTEX
  8
PNOA-H_AMS_1956-57_33k_ES_PAN_21mic_H50_0477_fot_55A-03731_W_tif
  70
32
  10
246354.500
  20
4536417.793
  30
847
  0
VERTEX
  8
PNOA-H_AMS_1956-57_33k_ES_PAN_21mic_H50_0477_fot_55A-03731_W_tif
  70
32
  10
246351.500
  20
4536417.793
  30
847
  0
VERTEX
  8
PNOA-H_AMS_1956-57_33k_ES_PAN_21mic_H50_0477_fot_55A-03731_W_tif
  70
32
  10
243895.000
  20
4536770.293
  30
851
  0
VERTEX
  8
PNOA-H_AMS_1956-57_33k_ES_PAN_21mic_H50_0477_fot_55A-03731_W_tif
  70
32
  10
243803.500
  20
4541117.293
  30
852
  0
VERTEX
  8
PNOA-H_AMS_1956-57_33k_ES_PAN_21mic_H50_0477_fot_55A-03731_W_tif
  70
32
  10
244197.000
  20
4541324.293
  30
846
  0
VERTEX
  8
PNOA-H_AMS_1956-57_33k_ES_PAN_21mic_H50_0477_fot_55A-03731_W_tif
  70
32
  10
244198.000
  20
4541324.793
  30
846
  0
SEQEND
  8
PNOA-H_AMS_1956-57_33k_ES_PAN_21mic_H50_0477_fot_55A-03731_W_tif
  0
TEXT
  8
PNOA-H_AMS_1956-57_33k_ES_PAN_21mic_H50_0477_fot_55A-03731_W_tif
 62
0
  1
PNOA-H_AMS_1956-57_33k_ES_PAN_21mic_H50_0477_fot_55A-03731_W.tif
 40
41.63504
  10
245399.133
  20
4538871.293
  0
POLYLINE
  8
PNOA-H_AMS_1956-57_33k_ES_PAN_21mic_H50_0477_fot_55A-03732_W_tif
  70
9
  66
1
  0
VERTEX
  8
PNOA-H_AMS_1956-57_33k_ES_PAN_21mic_H50_0477_fot_55A-03732_W_tif
  70
32
  10
243098.500
  20
4541204.793
  30
853
  0
VERTEX
  8
PNOA-H_AMS_1956-57_33k_ES_PAN_21mic_H50_0477_fot_55A-03732_W_tif
  70
32
  10
243803.500
  20
4541117.293
  30
852
  0
VERTEX
  8
PNOA-H_AMS_1956-57_33k_ES_PAN_21mic_H50_0477_fot_55A-03732_W_tif
  70
32
  10
243895.000
  20
4536769.793
  30
851
  0
VERTEX
  8
PNOA-H_AMS_1956-57_33k_ES_PAN_21mic_H50_0477_fot_55A-03732_W_tif
  70
32
  10
243320.500
  20
4536466.293
  30
857
  0
VERTEX
  8
PNOA-H_AMS_1956-57_33k_ES_PAN_21mic_H50_0477_fot_55A-03732_W_tif
  70
32
  10
243313.500
  20
4536462.793
  30
857.03
  0
VERTEX
  8
PNOA-H_AMS_1956-57_33k_ES_PAN_21mic_H50_0477_fot_55A-03732_W_tif
  70
32
  10
243309.000
  20
4536462.793
  30
857.1
  0
VERTEX
  8
PNOA-H_AMS_1956-57_33k_ES_PAN_21mic_H50_0477_fot_55A-03732_W_tif
  70
32
  10
240939.000
  20
4536789.293
  30
863
  0
VERTEX
  8
PNOA-H_AMS_1956-57_33k_ES_PAN_21mic_H50_0477_fot_55A-03732_W_tif
  70
32
  10
240934.500
  20
4536790.293
  30
863
  0
VERTEX
  8
PNOA-H_AMS_1956-57_33k_ES_PAN_21mic_H50_0477_fot_55A-03732_W_tif
  70
32
  10
240934.000
  20
4536801.293
  30
863
  0
VERTEX
  8
PNOA-H_AMS_1956-57_33k_ES_PAN_21mic_H50_0477_fot_55A-03732_W_tif
  70
32
  10
240854.000
  20
4541173.793
  30
846.86
  0
VERTEX
  8
PNOA-H_AMS_1956-57_33k_ES_PAN_21mic_H50_0477_fot_55A-03732_W_tif
  70
32
  10
241393.500
  20
4541417.293
  30
846
  0
VERTEX
  8
PNOA-H_AMS_1956-57_33k_ES_PAN_21mic_H50_0477_fot_55A-03732_W_tif
  70
32
  10
243094.500
  20
4541205.293
  30
853
  0
VERTEX
  8
PNOA-H_AMS_1956-57_33k_ES_PAN_21mic_H50_0477_fot_55A-03732_W_tif
  70
32
  10
243098.500
  20
4541204.793
  30
853
  0
SEQEND
  8
PNOA-H_AMS_1956-57_33k_ES_PAN_21mic_H50_0477_fot_55A-03732_W_tif
  0
TEXT
  8
PNOA-H_AMS_1956-57_33k_ES_PAN_21mic_H50_0477_fot_55A-03732_W_tif
 62
0
  1
PNOA-H_AMS_1956-57_33k_ES_PAN_21mic_H50_0477_fot_55A-03732_W.tif
 40
41.63504
  10
242372.096
  20
4538940.043
  0
POLYLINE
  8
PNOA-H_AMS_1956-57_33k_ES_PAN_21mic_H50_0477_fot_56A-04376_W_tif
  70
9
  66
1
  0
VERTEX
  8
PNOA-H_AMS_1956-57_33k_ES_PAN_21mic_H50_0477_fot_56A-04376_W_tif
  70
32
  10
245146.500
  20
4536590.793
  30
826.3
  0
VERTEX
  8
PNOA-H_AMS_1956-57_33k_ES_PAN_21mic_H50_0477_fot_56A-04376_W_tif
  70
32
  10
246354.000
  20
4536417.793
  30
847
  0
VERTEX
  8
PNOA-H_AMS_1956-57_33k_ES_PAN_21mic_H50_0477_fot_56A-04376_W_tif
  70
32
  10
246177.000
  20
4531908.293
  30
821
  0
VERTEX
  8
PNOA-H_AMS_1956-57_33k_ES_PAN_21mic_H50_0477_fot_56A-04376_W_tif
  70
32
  10
243589.000
  20
4531835.293
  30
841.2
  0
VERTEX
  8
PNOA-H_AMS_1956-57_33k_ES_PAN_21mic_H50_0477_fot_56A-04376_W_tif
  70
32
  10
243578.500
  20
4531835.293
  30
842
  0
VERTEX
  8
PNOA-H_AMS_1956-57_33k_ES_PAN_21mic_H50_0477_fot_56A-04376_W_tif
  70
32
  10
243103.500
  20
4532122.793
  30
850
  0
VERTEX
  8
PNOA-H_AMS_1956-57_33k_ES_PAN_21mic_H50_0477_fot_56A-04376_W_tif
  70
32
  10
243312.500
  20
4536462.793
  30
857.05
  0
VERTEX
  8
PNOA-H_AMS_1956-57_33k_ES_PAN_21mic_H50_0477_fot_56A-04376_W_tif
  70
32
  10
243895.000
  20
4536770.293
  30
851
  0
VERTEX
  8
PNOA-H_AMS_1956-57_33k_ES_PAN_21mic_H50_0477_fot_56A-04376_W_tif
  70
32
  10
245144.500
  20
4536590.793
  30
826.3
  0
VERTEX
  8
PNOA-H_AMS_1956-57_33k_ES_PAN_21mic_H50_0477_fot_56A-04376_W_tif
  70
32
  10
245146.500
  20
4536590.793
  30
826.3
  0
SEQEND
  8
PNOA-H_AMS_1956-57_33k_ES_PAN_21mic_H50_0477_fot_56A-04376_W_tif
  0
TEXT
  8
PNOA-H_AMS_1956-57_33k_ES_PAN_21mic_H50_0477_fot_56A-04376_W_tif
 62
0
  1
PNOA-H_AMS_1956-57_33k_ES_PAN_21mic_H50_0477_fot_56A-04376_W.tif
 40
41.63504
  10
244739.733
  20
4534302.793
  0
POLYLINE
  8
PNOA-H_AMS_1956-57_33k_ES_PAN_21mic_H50_0477_fot_56A-04377_W_tif
  70
9
  66
1
  0
VERTEX
  8
PNOA-H_AMS_1956-57_33k_ES_PAN_21mic_H50_0477_fot_56A-04377_W_tif
  70
32
  10
240934.000
  20
4536790.293
  30
863
  0
VERTEX
  8
PNOA-H_AMS_1956-57_33k_ES_PAN_21mic_H50_0477_fot_56A-04377_W_tif
  70
32
  10
243312.500
  20
4536462.793
  30
857.05
  0
VERTEX
  8
PNOA-H_AMS_1956-57_33k_ES_PAN_21mic_H50_0477_fot_56A-04377_W_tif
  70
32
  10
243103.500
  20
4532123.293
  30
850
  0
VERTEX
  8
PNOA-H_AMS_1956-57_33k_ES_PAN_21mic_H50_0477_fot_56A-04377_W_tif
  70
32
  10
240545.500
  20
4531984.793
  30
863
  0
VERTEX
  8
PNOA-H_AMS_1956-57_33k_ES_PAN_21mic_H50_0477_fot_56A-04377_W_tif
  70
32
  10
240055.500
  20
4532287.293
  30
865
  0
VERTEX
  8
PNOA-H_AMS_1956-57_33k_ES_PAN_21mic_H50_0477_fot_56A-04377_W_tif
  70
32
  10
240273.500
  20
4536458.293
  30
866.56
  0
VERTEX
  8
PNOA-H_AMS_1956-57_33k_ES_PAN_21mic_H50_0477_fot_56A-04377_W_tif
  70
32
  10
240933.000
  20
4536789.793
  30
863
  0
VERTEX
  8
PNOA-H_AMS_1956-57_33k_ES_PAN_21mic_H50_0477_fot_56A-04377_W_tif
  70
32
  10
240934.000
  20
4536790.293
  30
863
  0
SEQEND
  8
PNOA-H_AMS_1956-57_33k_ES_PAN_21mic_H50_0477_fot_56A-04377_W_tif
  0
TEXT
  8
PNOA-H_AMS_1956-57_33k_ES_PAN_21mic_H50_0477_fot_56A-04377_W_tif
 62
0
  1
PNOA-H_AMS_1956-57_33k_ES_PAN_21mic_H50_0477_fot_56A-04377_W.tif
 40
41.63504
  10
241688.911
  20
4534387.543
  0
POLYLINE
  8
PNOA-H_AMS_1956-57_33k_ES_PAN_21mic_H50_0477_fot_000-36836_R_tif
  70
9
  66
1
  0
VERTEX
  8
PNOA-H_AMS_1956-57_33k_ES_PAN_21mic_H50_0477_fot_000-36836_R_tif
  70
32
  10
241044.000
  20
4532011.793
  30
845.9
  0
VERTEX
  8
PNOA-H_AMS_1956-57_33k_ES_PAN_21mic_H50_0477_fot_000-36836_R_tif
  70
32
  10
243103.500
  20
4532123.293
  30
850
  0
VERTEX
  8
PNOA-H_AMS_1956-57_33k_ES_PAN_21mic_H50_0477_fot_000-36836_R_tif
  70
32
  10
243579.000
  20
4531835.293
  30
842
  0
VERTEX
  8
PNOA-H_AMS_1956-57_33k_ES_PAN_21mic_H50_0477_fot_000-36836_R_tif
  70
32
  10
243319.000
  20
4528416.293
  30
806.2
  0
VERTEX
  8
PNOA-H_AMS_1956-57_33k_ES_PAN_21mic_H50_0477_fot_000-36836_R_tif
  70
32
  10
240476.000
  20
4530801.793
  30
841.98
  0
VERTEX
  8
PNOA-H_AMS_1956-57_33k_ES_PAN_21mic_H50_0477_fot_000-36836_R_tif
  70
32
  10
240546.000
  20
4531984.793
  30
863
  0
VERTEX
  8
PNOA-H_AMS_1956-57_33k_ES_PAN_21mic_H50_0477_fot_000-36836_R_tif
  70
32
  10
241034.500
  20
4532011.293
  30
845
  0
VERTEX
  8
PNOA-H_AMS_1956-57_33k_ES_PAN_21mic_H50_0477_fot_000-36836_R_tif
  70
32
  10
241044.000
  20
4532011.793
  30
845.9
  0
SEQEND
  8
PNOA-H_AMS_1956-57_33k_ES_PAN_21mic_H50_0477_fot_000-36836_R_tif
  0
TEXT
  8
PNOA-H_AMS_1956-57_33k_ES_PAN_21mic_H50_0477_fot_000-36836_R_tif
 62
0
  1
PNOA-H_AMS_1956-57_33k_ES_PAN_21mic_H50_0477_fot_000-36836_R.tif
 40
41.63504
  10
242284.990
  20
4530269.793
  0
POLYLINE
  8
PNOA-H_AMS_1956-57_33k_ES_PAN_21mic_H50_0477_fot_57B-04730_W_tif
  70
9
  66
1
  0
VERTEX
  8
PNOA-H_AMS_1956-57_33k_ES_PAN_21mic_H50_0477_fot_57B-04730_W_tif
  70
32
  10
241050.500
  20
4530319.293
  30
839.94
  0
VERTEX
  8
PNOA-H_AMS_1956-57_33k_ES_PAN_21mic_H50_0477_fot_57B-04730_W_tif
  70
32
  10
243319.000
  20
4528416.293
  30
806.2
  0
VERTEX
  8
PNOA-H_AMS_1956-57_33k_ES_PAN_21mic_H50_0477_fot_57B-04730_W_tif
  70
32
  10
243304.000
  20
4527856.293
  30
801
  0
VERTEX
  8
PNOA-H_AMS_1956-57_33k_ES_PAN_21mic_H50_0477_fot_57B-04730_W_tif
  70
32
  10
241984.500
  20
4527371.793
  30
844.81
  0
VERTEX
  8
PNOA-H_AMS_1956-57_33k_ES_PAN_21mic_H50_0477_fot_57B-04730_W_tif
  70
32
  10
241969.500
  20
4527367.293
  30
842
  0
VERTEX
  8
PNOA-H_AMS_1956-57_33k_ES_PAN_21mic_H50_0477_fot_57B-04730_W_tif
  70
32
  10
240327.500
  20
4527932.793
  30
783.95
  0
VERTEX
  8
PNOA-H_AMS_1956-57_33k_ES_PAN_21mic_H50_0477_fot_57B-04730_W_tif
  70
32
  10
240377.500
  20
4529900.793
  30
833
  0
VERTEX
  8
PNOA-H_AMS_1956-57_33k_ES_PAN_21mic_H50_0477_fot_57B-04730_W_tif
  70
32
  10
240476.000
  20
4530801.793
  30
841.98
  0
VERTEX
  8
PNOA-H_AMS_1956-57_33k_ES_PAN_21mic_H50_0477_fot_57B-04730_W_tif
  70
32
  10
241050.000
  20
4530320.293
  30
840
  0
VERTEX
  8
PNOA-H_AMS_1956-57_33k_ES_PAN_21mic_H50_0477_fot_57B-04730_W_tif
  70
32
  10
241050.500
  20
4530319.293
  30
839.94
  0
SEQEND
  8
PNOA-H_AMS_1956-57_33k_ES_PAN_21mic_H50_0477_fot_57B-04730_W_tif
  0
TEXT
  8
PNOA-H_AMS_1956-57_33k_ES_PAN_21mic_H50_0477_fot_57B-04730_W_tif
 62
0
  1
PNOA-H_AMS_1956-57_33k_ES_PAN_21mic_H50_0477_fot_57B-04730_W.tif
 40
41.63504
  10
241439.582
  20
4529084.543
  0
POLYLINE
  8
PNOA-H_AMS_1956-57_33k_ES_PAN_21mic_H50_0477_fot_57B-04729_W_tif
  70
9
  66
1
  0
VERTEX
  8
PNOA-H_AMS_1956-57_33k_ES_PAN_21mic_H50_0477_fot_57B-04729_W_tif
  70
32
  10
246163.500
  20
4531908.293
  30
821
  0
VERTEX
  8
PNOA-H_AMS_1956-57_33k_ES_PAN_21mic_H50_0477_fot_57B-04729_W_tif
  70
32
  10
246178.500
  20
4531907.793
  30
821
  0
VERTEX
  8
PNOA-H_AMS_1956-57_33k_ES_PAN_21mic_H50_0477_fot_57B-04729_W_tif
  70
32
  10
246445.500
  20
4531740.293
  30
812.46
  0
VERTEX
  8
PNOA-H_AMS_1956-57_33k_ES_PAN_21mic_H50_0477_fot_57B-04729_W_tif
  70
32
  10
246329.000
  20
4527729.293
  30
795.48
  0
VERTEX
  8
PNOA-H_AMS_1956-57_33k_ES_PAN_21mic_H50_0477_fot_57B-04729_W_tif
  70
32
  10
244808.500
  20
4527234.793
  30
795
  0
VERTEX
  8
PNOA-H_AMS_1956-57_33k_ES_PAN_21mic_H50_0477_fot_57B-04729_W_tif
  70
32
  10
244798.000
  20
4527238.293
  30
797.8
  0
VERTEX
  8
PNOA-H_AMS_1956-57_33k_ES_PAN_21mic_H50_0477_fot_57B-04729_W_tif
  70
32
  10
243304.000
  20
4527856.293
  30
801
  0
VERTEX
  8
PNOA-H_AMS_1956-57_33k_ES_PAN_21mic_H50_0477_fot_57B-04729_W_tif
  70
32
  10
243319.000
  20
4528422.293
  30
806.2
  0
VERTEX
  8
PNOA-H_AMS_1956-57_33k_ES_PAN_21mic_H50_0477_fot_57B-04729_W_tif
  70
32
  10
243579.000
  20
4531835.293
  30
842
  0
VERTEX
  8
PNOA-H_AMS_1956-57_33k_ES_PAN_21mic_H50_0477_fot_57B-04729_W_tif
  70
32
  10
246146.000
  20
4531907.793
  30
821
  0
VERTEX
  8
PNOA-H_AMS_1956-57_33k_ES_PAN_21mic_H50_0477_fot_57B-04729_W_tif
  70
32
  10
246163.500
  20
4531908.293
  30
821
  0
SEQEND
  8
PNOA-H_AMS_1956-57_33k_ES_PAN_21mic_H50_0477_fot_57B-04729_W_tif
  0
TEXT
  8
PNOA-H_AMS_1956-57_33k_ES_PAN_21mic_H50_0477_fot_57B-04729_W_tif
 62
0
  1
PNOA-H_AMS_1956-57_33k_ES_PAN_21mic_H50_0477_fot_57B-04729_W.tif
 40
41.63504
  10
244894.529
  20
4529571.543
  0
POLYLINE
  8
PNOA-H_AMS_1956-57_33k_ES_PAN_21mic_H50_0477_fot_58A-40156_W_tif
  70
9
  66
1
  0
VERTEX
  8
PNOA-H_AMS_1956-57_33k_ES_PAN_21mic_H50_0477_fot_58A-40156_W_tif
  70
32
  10
246917.081
  20
4524592.556
  30
807.715
  0
VERTEX
  8
PNOA-H_AMS_1956-57_33k_ES_PAN_21mic_H50_0477_fot_58A-40156_W_tif
  70
32
  10
245287.089
  20
4524648.412
  30
821.298
  0
VERTEX
  8
PNOA-H_AMS_1956-57_33k_ES_PAN_21mic_H50_0477_fot_58A-40156_W_tif
  70
32
  10
245082.121
  20
4524655.533
  30
820.488
  0
VERTEX
  8
PNOA-H_AMS_1956-57_33k_ES_PAN_21mic_H50_0477_fot_58A-40156_W_tif
  70
32
  10
244688.500
  20
4524971.293
  30
818
  0
VERTEX
  8
PNOA-H_AMS_1956-57_33k_ES_PAN_21mic_H50_0477_fot_58A-40156_W_tif
  70
32
  10
244807.000
  20
4527232.293
  30
795
  0
VERTEX
  8
PNOA-H_AMS_1956-57_33k_ES_PAN_21mic_H50_0477_fot_58A-40156_W_tif
  70
32
  10
244808.500
  20
4527235.293
  30
795
  0
VERTEX
  8
PNOA-H_AMS_1956-57_33k_ES_PAN_21mic_H50_0477_fot_58A-40156_W_tif
  70
32
  10
244826.500
  20
4527241.293
  30
792.88
  0
VERTEX
  8
PNOA-H_AMS_1956-57_33k_ES_PAN_21mic_H50_0477_fot_58A-40156_W_tif
  70
32
  10
245143.500
  20
4527344.293
  30
796
  0
VERTEX
  8
PNOA-H_AMS_1956-57_33k_ES_PAN_21mic_H50_0477_fot_58A-40156_W_tif
  70
32
  10
245145.000
  20
4527344.793
  30
796
  0
VERTEX
  8
PNOA-H_AMS_1956-57_33k_ES_PAN_21mic_H50_0477_fot_58A-40156_W_tif
  70
32
  10
246328.500
  20
4527729.293
  30
795.42
  0
VERTEX
  8
PNOA-H_AMS_1956-57_33k_ES_PAN_21mic_H50_0477_fot_58A-40156_W_tif
  70
32
  10
246921.000
  20
4527467.793
  30
794
  0
SEQEND
  8
PNOA-H_AMS_1956-57_33k_ES_PAN_21mic_H50_0477_fot_58A-40156_W_tif
  0
TEXT
  8
PNOA-H_AMS_1956-57_33k_ES_PAN_21mic_H50_0477_fot_58A-40156_W_tif
 62
0
  1
PNOA-H_AMS_1956-57_33k_ES_PAN_21mic_H50_0477_fot_58A-40156_W.tif
 40
41.63504
  10
245831.101
  20
4526014.647
  0
POLYLINE
  8
PNOA-H_AMS_1956-57_33k_ES_PAN_21mic_H50_0477_fot_58A-40158_W_tif
  70
9
  66
1
  0
VERTEX
  8
PNOA-H_AMS_1956-57_33k_ES_PAN_21mic_H50_0477_fot_58A-40158_W_tif
  70
32
  10
241324.500
  20
4524786.304
  30
805.811
  0
VERTEX
  8
PNOA-H_AMS_1956-57_33k_ES_PAN_21mic_H50_0477_fot_58A-40158_W_tif
  70
32
  10
239548.181
  20
4524848.868
  30
812.097
  0
VERTEX
  8
PNOA-H_AMS_1956-57_33k_ES_PAN_21mic_H50_0477_fot_58A-40158_W_tif
  70
32
  10
239108.500
  20
4525269.293
  30
819.3
  0
VERTEX
  8
PNOA-H_AMS_1956-57_33k_ES_PAN_21mic_H50_0477_fot_58A-40158_W_tif
  70
32
  10
239254.000
  20
4527487.293
  30
809
  0
VERTEX
  8
PNOA-H_AMS_1956-57_33k_ES_PAN_21mic_H50_0477_fot_58A-40158_W_tif
  70
32
  10
240327.000
  20
4527933.293
  30
783.88
  0
VERTEX
  8
PNOA-H_AMS_1956-57_33k_ES_PAN_21mic_H50_0477_fot_58A-40158_W_tif
  70
32
  10
241970.500
  20
4527367.293
  30
842.1
  0
VERTEX
  8
PNOA-H_AMS_1956-57_33k_ES_PAN_21mic_H50_0477_fot_58A-40158_W_tif
  70
32
  10
241870.000
  20
4525061.793
  30
808
  0
SEQEND
  8
PNOA-H_AMS_1956-57_33k_ES_PAN_21mic_H50_0477_fot_58A-40158_W_tif
  0
TEXT
  8
PNOA-H_AMS_1956-57_33k_ES_PAN_21mic_H50_0477_fot_58A-40158_W_tif
 62
0
  1
PNOA-H_AMS_1956-57_33k_ES_PAN_21mic_H50_0477_fot_58A-40158_W.tif
 40
41.63504
  10
240546.586
  20
4526236.647
  0
POLYLINE
  8
PNOA-H_AMS_1956-57_33k_ES_PAN_21mic_H50_0477_fot_58A-40157_W_tif
  70
9
  66
1
  0
VERTEX
  8
PNOA-H_AMS_1956-57_33k_ES_PAN_21mic_H50_0477_fot_58A-40157_W_tif
  70
32
  10
244189.711
  20
4524686.540
  30
817.352
  0
VERTEX
  8
PNOA-H_AMS_1956-57_33k_ES_PAN_21mic_H50_0477_fot_58A-40157_W_tif
  70
32
  10
242248.558
  20
4524753.984
  30
810.388
  0
VERTEX
  8
PNOA-H_AMS_1956-57_33k_ES_PAN_21mic_H50_0477_fot_58A-40157_W_tif
  70
32
  10
241870.000
  20
4525061.793
  30
808
  0
VERTEX
  8
PNOA-H_AMS_1956-57_33k_ES_PAN_21mic_H50_0477_fot_58A-40157_W_tif
  70
32
  10
241970.500
  20
4527367.293
  30
842.1
  0
VERTEX
  8
PNOA-H_AMS_1956-57_33k_ES_PAN_21mic_H50_0477_fot_58A-40157_W_tif
  70
32
  10
243301.000
  20
4527855.793
  30
801
  0
VERTEX
  8
PNOA-H_AMS_1956-57_33k_ES_PAN_21mic_H50_0477_fot_58A-40157_W_tif
  70
32
  10
243302.500
  20
4527856.293
  30
801
  0
VERTEX
  8
PNOA-H_AMS_1956-57_33k_ES_PAN_21mic_H50_0477_fot_58A-40157_W_tif
  70
32
  10
243305.000
  20
4527856.293
  30
801
  0
VERTEX
  8
PNOA-H_AMS_1956-57_33k_ES_PAN_21mic_H50_0477_fot_58A-40157_W_tif
  70
32
  10
243315.000
  20
4527852.293
  30
801
  0
VERTEX
  8
PNOA-H_AMS_1956-57_33k_ES_PAN_21mic_H50_0477_fot_58A-40157_W_tif
  70
32
  10
244807.500
  20
4527234.793
  30
795
  0
VERTEX
  8
PNOA-H_AMS_1956-57_33k_ES_PAN_21mic_H50_0477_fot_58A-40157_W_tif
  70
32
  10
244689.000
  20
4524977.293
  30
818
  0
VERTEX
  8
PNOA-H_AMS_1956-57_33k_ES_PAN_21mic_H50_0477_fot_58A-40157_W_tif
  70
32
  10
244688.500
  20
4524971.293
  30
818
  0
SEQEND
  8
PNOA-H_AMS_1956-57_33k_ES_PAN_21mic_H50_0477_fot_58A-40157_W_tif
  0
TEXT
  8
PNOA-H_AMS_1956-57_33k_ES_PAN_21mic_H50_0477_fot_58A-40157_W_tif
 62
0
  1
PNOA-H_AMS_1956-57_33k_ES_PAN_21mic_H50_0477_fot_58A-40157_W.tif
 40
41.63504
  10
243336.310
  20
4526198.147
  0
POLYLINE
  8
PNOA-H_AMS_1956-57_33k_ES_PAN_21mic_H50_0502_fot_000-36790_R_tif
  70
9
  66
1
  0
VERTEX
  8
PNOA-H_AMS_1956-57_33k_ES_PAN_21mic_H50_0502_fot_000-36790_R_tif
  70
32
  10
242249.113
  20
4524753.965
  30
810.335
  0
VERTEX
  8
PNOA-H_AMS_1956-57_33k_ES_PAN_21mic_H50_0502_fot_000-36790_R_tif
  70
32
  10
241773.321
  20
4524770.496
  30
807.779
  0
VERTEX
  8
PNOA-H_AMS_1956-57_33k_ES_PAN_21mic_H50_0502_fot_000-36790_R_tif
  70
32
  10
241323.807
  20
4524786.328
  30
807.376
  0
VERTEX
  8
PNOA-H_AMS_1956-57_33k_ES_PAN_21mic_H50_0502_fot_000-36790_R_tif
  70
32
  10
241868.500
  20
4525061.293
  30
808
  0
VERTEX
  8
PNOA-H_AMS_1956-57_33k_ES_PAN_21mic_H50_0502_fot_000-36790_R_tif
  70
32
  10
241869.500
  20
4525061.793
  30
808
  0
VERTEX
  8
PNOA-H_AMS_1956-57_33k_ES_PAN_21mic_H50_0502_fot_000-36790_R_tif
  70
32
  10
241891.000
  20
4525045.293
  30
808
  0
SEQEND
  8
PNOA-H_AMS_1956-57_33k_ES_PAN_21mic_H50_0502_fot_000-36790_R_tif
  0
TEXT
  8
PNOA-H_AMS_1956-57_33k_ES_PAN_21mic_H50_0502_fot_000-36790_R_tif
 62
0
  1
PNOA-H_AMS_1956-57_33k_ES_PAN_21mic_H50_0502_fot_000-36790_R.tif
 40
41.63504
  10
241772.045
  20
4524800.897
  0
POLYLINE
  8
PNOA-H_AMS_1956-57_33k_ES_PAN_21mic_H50_0502_fot_000-36789_R_tif
  70
9
  66
1
  0
VERTEX
  8
PNOA-H_AMS_1956-57_33k_ES_PAN_21mic_H50_0502_fot_000-36789_R_tif
  70
32
  10
245082.321
  20
4524655.527
  30
820.488
  0
VERTEX
  8
PNOA-H_AMS_1956-57_33k_ES_PAN_21mic_H50_0502_fot_000-36789_R_tif
  70
32
  10
244188.686
  20
4524686.575
  30
817.929
  0
VERTEX
  8
PNOA-H_AMS_1956-57_33k_ES_PAN_21mic_H50_0502_fot_000-36789_R_tif
  70
32
  10
244639.000
  20
4524943.793
  30
819
  0
VERTEX
  8
PNOA-H_AMS_1956-57_33k_ES_PAN_21mic_H50_0502_fot_000-36789_R_tif
  70
32
  10
244685.500
  20
4524970.293
  30
818
  0
VERTEX
  8
PNOA-H_AMS_1956-57_33k_ES_PAN_21mic_H50_0502_fot_000-36789_R_tif
  70
32
  10
244689.000
  20
4524971.293
  30
818
  0
SEQEND
  8
PNOA-H_AMS_1956-57_33k_ES_PAN_21mic_H50_0502_fot_000-36789_R_tif
  0
TEXT
  8
PNOA-H_AMS_1956-57_33k_ES_PAN_21mic_H50_0502_fot_000-36789_R_tif
 62
0
  1
PNOA-H_AMS_1956-57_33k_ES_PAN_21mic_H50_0502_fot_000-36789_R.tif
 40
41.63504
  10
244635.503
  20
4524813.410
  0
POLYLINE
  8
PNOA-H_AMS_1956-57_33k_ES_PAN_21mic_H50_0477_fot_55A-03729_W_tif
  70
9
  66
1
  0
VERTEX
  8
PNOA-H_AMS_1956-57_33k_ES_PAN_21mic_H50_0477_fot_55A-03729_W_tif
  70
32
  10
251284.000
  20
4541207.293
  30
787
  0
VERTEX
  8
PNOA-H_AMS_1956-57_33k_ES_PAN_21mic_H50_0477_fot_55A-03729_W_tif
  70
32
  10
252395.500
  20
4541254.293
  30
804
  0
VERTEX
  8
PNOA-H_AMS_1956-57_33k_ES_PAN_21mic_H50_0477_fot_55A-03729_W_tif
  70
32
  10
252686.000
  20
4541066.793
  30
806.02
  0
VERTEX
  8
PNOA-H_AMS_1956-57_33k_ES_PAN_21mic_H50_0477_fot_55A-03729_W_tif
  70
32
  10
252867.000
  20
4536638.793
  30
808
  0
VERTEX
  8
PNOA-H_AMS_1956-57_33k_ES_PAN_21mic_H50_0477_fot_55A-03729_W_tif
  70
32
  10
252367.500
  20
4536399.293
  30
813
  0
VERTEX
  8
PNOA-H_AMS_1956-57_33k_ES_PAN_21mic_H50_0477_fot_55A-03729_W_tif
  70
32
  10
249927.500
  20
4536654.293
  30
799
  0
VERTEX
  8
PNOA-H_AMS_1956-57_33k_ES_PAN_21mic_H50_0477_fot_55A-03729_W_tif
  70
32
  10
249870.000
  20
4541147.293
  30
822
  0
VERTEX
  8
PNOA-H_AMS_1956-57_33k_ES_PAN_21mic_H50_0477_fot_55A-03729_W_tif
  70
32
  10
251272.000
  20
4541206.793
  30
786.46
  0
VERTEX
  8
PNOA-H_AMS_1956-57_33k_ES_PAN_21mic_H50_0477_fot_55A-03729_W_tif
  70
32
  10
251284.000
  20
4541207.293
  30
787
  0
SEQEND
  8
PNOA-H_AMS_1956-57_33k_ES_PAN_21mic_H50_0477_fot_55A-03729_W_tif
  0
TEXT
  8
PNOA-H_AMS_1956-57_33k_ES_PAN_21mic_H50_0477_fot_55A-03729_W_tif
 62
0
  1
PNOA-H_AMS_1956-57_33k_ES_PAN_21mic_H50_0477_fot_55A-03729_W.tif
 40
41.63504
  10
251338.630
  20
4538826.793
  0
POLYLINE
  8
PNOA-H_AMS_1956-57_33k_ES_PAN_21mic_H50_0477_fot_55A-03730_W_tif
  70
9
  66
1
  0
VERTEX
  8
PNOA-H_AMS_1956-57_33k_ES_PAN_21mic_H50_0477_fot_55A-03730_W_tif
  70
32
  10
249554.500
  20
4541334.793
  30
827
  0
VERTEX
  8
PNOA-H_AMS_1956-57_33k_ES_PAN_21mic_H50_0477_fot_55A-03730_W_tif
  70
32
  10
249559.500
  20
4541334.793
  30
827
  0
VERTEX
  8
PNOA-H_AMS_1956-57_33k_ES_PAN_21mic_H50_0477_fot_55A-03730_W_tif
  70
32
  10
249870.500
  20
4541146.793
  30
822
  0
VERTEX
  8
PNOA-H_AMS_1956-57_33k_ES_PAN_21mic_H50_0477_fot_55A-03730_W_tif
  70
32
  10
249927.500
  20
4536654.293
  30
799
  0
VERTEX
  8
PNOA-H_AMS_1956-57_33k_ES_PAN_21mic_H50_0477_fot_55A-03730_W_tif
  70
32
  10
249389.500
  20
4536407.793
  30
804
  0
VERTEX
  8
PNOA-H_AMS_1956-57_33k_ES_PAN_21mic_H50_0477_fot_55A-03730_W_tif
  70
32
  10
247003.500
  20
4536745.793
  30
822
  0
VERTEX
  8
PNOA-H_AMS_1956-57_33k_ES_PAN_21mic_H50_0477_fot_55A-03730_W_tif
  70
32
  10
246886.000
  20
4541204.793
  30
823
  0
VERTEX
  8
PNOA-H_AMS_1956-57_33k_ES_PAN_21mic_H50_0477_fot_55A-03730_W_tif
  70
32
  10
246970.500
  20
4541258.293
  30
828
  0
VERTEX
  8
PNOA-H_AMS_1956-57_33k_ES_PAN_21mic_H50_0477_fot_55A-03730_W_tif
  70
32
  10
246978.000
  20
4541259.793
  30
828.3
  0
VERTEX
  8
PNOA-H_AMS_1956-57_33k_ES_PAN_21mic_H50_0477_fot_55A-03730_W_tif
  70
32
  10
249537.500
  20
4541334.293
  30
827
  0
VERTEX
  8
PNOA-H_AMS_1956-57_33k_ES_PAN_21mic_H50_0477_fot_55A-03730_W_tif
  70
32
  10
249554.500
  20
4541334.793
  30
827
  0
SEQEND
  8
PNOA-H_AMS_1956-57_33k_ES_PAN_21mic_H50_0477_fot_55A-03730_W_tif
  0
TEXT
  8
PNOA-H_AMS_1956-57_33k_ES_PAN_21mic_H50_0477_fot_55A-03730_W_tif
 62
0
  1
PNOA-H_AMS_1956-57_33k_ES_PAN_21mic_H50_0477_fot_55A-03730_W.tif
 40
41.63504
  10
248423.431
  20
4538871.293
  0
POLYLINE
  8
PNOA-H_AMS_1956-57_33k_ES_PAN_21mic_H50_0477_fot_55A-03728_W_tif
  70
9
  66
1
  0
VERTEX
  8
PNOA-H_AMS_1956-57_33k_ES_PAN_21mic_H50_0477_fot_55A-03728_W_tif
  70
32
  10
255386.500
  20
4541150.793
  30
789.21
  0
VERTEX
  8
PNOA-H_AMS_1956-57_33k_ES_PAN_21mic_H50_0477_fot_55A-03728_W_tif
  70
32
  10
255694.000
  20
4540951.293
  30
784
  0
VERTEX
  8
PNOA-H_AMS_1956-57_33k_ES_PAN_21mic_H50_0477_fot_55A-03728_W_tif
  70
32
  10
255744.500
  20
4536602.793
  30
799
  0
VERTEX
  8
PNOA-H_AMS_1956-57_33k_ES_PAN_21mic_H50_0477_fot_55A-03728_W_tif
  70
32
  10
255337.500
  20
4536417.793
  30
799.55
  0
VERTEX
  8
PNOA-H_AMS_1956-57_33k_ES_PAN_21mic_H50_0477_fot_55A-03728_W_tif
  70
32
  10
252867.000
  20
4536638.793
  30
808
  0
VERTEX
  8
PNOA-H_AMS_1956-57_33k_ES_PAN_21mic_H50_0477_fot_55A-03728_W_tif
  70
32
  10
252686.000
  20
4541066.793
  30
806.02
  0
VERTEX
  8
PNOA-H_AMS_1956-57_33k_ES_PAN_21mic_H50_0477_fot_55A-03728_W_tif
  70
32
  10
255236.000
  20
4541245.293
  30
792.92
  0
VERTEX
  8
PNOA-H_AMS_1956-57_33k_ES_PAN_21mic_H50_0477_fot_55A-03728_W_tif
  70
32
  10
255242.000
  20
4541245.293
  30
792.36
  0
VERTEX
  8
PNOA-H_AMS_1956-57_33k_ES_PAN_21mic_H50_0477_fot_55A-03728_W_tif
  70
32
  10
255385.500
  20
4541151.293
  30
789.18
  0
VERTEX
  8
PNOA-H_AMS_1956-57_33k_ES_PAN_21mic_H50_0477_fot_55A-03728_W_tif
  70
32
  10
255386.500
  20
4541150.793
  30
789.21
  0
SEQEND
  8
PNOA-H_AMS_1956-57_33k_ES_PAN_21mic_H50_0477_fot_55A-03728_W_tif
  0
TEXT
  8
PNOA-H_AMS_1956-57_33k_ES_PAN_21mic_H50_0477_fot_55A-03728_W_tif
 62
0
  1
PNOA-H_AMS_1956-57_33k_ES_PAN_21mic_H50_0477_fot_55A-03728_W.tif
 40
41.63504
  10
254247.993
  20
4538831.543
  0
POLYLINE
  8
PNOA-H_AMS_1956-57_33k_ES_PAN_21mic_H50_0477_fot_56A-04373_W_tif
  70
9
  66
1
  0
VERTEX
  8
PNOA-H_AMS_1956-57_33k_ES_PAN_21mic_H50_0477_fot_56A-04373_W_tif
  70
32
  10
253338.500
  20
4536596.793
  30
808
  0
VERTEX
  8
PNOA-H_AMS_1956-57_33k_ES_PAN_21mic_H50_0477_fot_56A-04373_W_tif
  70
32
  10
255338.500
  20
4536417.793
  30
799.37
  0
VERTEX
  8
PNOA-H_AMS_1956-57_33k_ES_PAN_21mic_H50_0477_fot_56A-04373_W_tif
  70
32
  10
255121.000
  20
4531498.293
  30
814.96
  0
VERTEX
  8
PNOA-H_AMS_1956-57_33k_ES_PAN_21mic_H50_0477_fot_56A-04373_W_tif
  70
32
  10
252571.500
  20
4531455.793
  30
824
  0
VERTEX
  8
PNOA-H_AMS_1956-57_33k_ES_PAN_21mic_H50_0477_fot_56A-04373_W_tif
  70
32
  10
252567.500
  20
4531456.793
  30
824
  0
VERTEX
  8
PNOA-H_AMS_1956-57_33k_ES_PAN_21mic_H50_0477_fot_56A-04373_W_tif
  70
32
  10
252176.500
  20
4531691.293
  30
821
  0
VERTEX
  8
PNOA-H_AMS_1956-57_33k_ES_PAN_21mic_H50_0477_fot_56A-04373_W_tif
  70
32
  10
252366.500
  20
4536397.293
  30
813
  0
VERTEX
  8
PNOA-H_AMS_1956-57_33k_ES_PAN_21mic_H50_0477_fot_56A-04373_W_tif
  70
32
  10
252367.500
  20
4536399.793
  30
813
  0
VERTEX
  8
PNOA-H_AMS_1956-57_33k_ES_PAN_21mic_H50_0477_fot_56A-04373_W_tif
  70
32
  10
252375.500
  20
4536403.793
  30
813
  0
VERTEX
  8
PNOA-H_AMS_1956-57_33k_ES_PAN_21mic_H50_0477_fot_56A-04373_W_tif
  70
32
  10
252866.000
  20
4536638.793
  30
808
  0
VERTEX
  8
PNOA-H_AMS_1956-57_33k_ES_PAN_21mic_H50_0477_fot_56A-04373_W_tif
  70
32
  10
253336.000
  20
4536596.793
  30
808
  0
VERTEX
  8
PNOA-H_AMS_1956-57_33k_ES_PAN_21mic_H50_0477_fot_56A-04373_W_tif
  70
32
  10
253338.500
  20
4536596.793
  30
808
  0
SEQEND
  8
PNOA-H_AMS_1956-57_33k_ES_PAN_21mic_H50_0477_fot_56A-04373_W_tif
  0
TEXT
  8
PNOA-H_AMS_1956-57_33k_ES_PAN_21mic_H50_0477_fot_56A-04373_W_tif
 62
0
  1
PNOA-H_AMS_1956-57_33k_ES_PAN_21mic_H50_0477_fot_56A-04373_W.tif
 40
41.63504
  10
253752.659
  20
4534047.293
  0
POLYLINE
  8
PNOA-H_AMS_1956-57_33k_ES_PAN_21mic_H50_0477_fot_56A-04375_W_tif
  70
9
  66
1
  0
VERTEX
  8
PNOA-H_AMS_1956-57_33k_ES_PAN_21mic_H50_0477_fot_56A-04375_W_tif
  70
32
  10
247003.000
  20
4536745.793
  30
822
  0
VERTEX
  8
PNOA-H_AMS_1956-57_33k_ES_PAN_21mic_H50_0477_fot_56A-04375_W_tif
  70
32
  10
249389.000
  20
4536407.793
  30
804
  0
VERTEX
  8
PNOA-H_AMS_1956-57_33k_ES_PAN_21mic_H50_0477_fot_56A-04375_W_tif
  70
32
  10
249193.000
  20
4531789.293
  30
797
  0
VERTEX
  8
PNOA-H_AMS_1956-57_33k_ES_PAN_21mic_H50_0477_fot_56A-04375_W_tif
  70
32
  10
246445.500
  20
4531739.793
  30
812.55
  0
VERTEX
  8
PNOA-H_AMS_1956-57_33k_ES_PAN_21mic_H50_0477_fot_56A-04375_W_tif
  70
32
  10
246177.000
  20
4531908.293
  30
821
  0
VERTEX
  8
PNOA-H_AMS_1956-57_33k_ES_PAN_21mic_H50_0477_fot_56A-04375_W_tif
  70
32
  10
246353.500
  20
4536415.793
  30
847
  0
VERTEX
  8
PNOA-H_AMS_1956-57_33k_ES_PAN_21mic_H50_0477_fot_56A-04375_W_tif
  70
32
  10
246354.500
  20
4536418.293
  30
847
  0
VERTEX
  8
PNOA-H_AMS_1956-57_33k_ES_PAN_21mic_H50_0477_fot_56A-04375_W_tif
  70
32
  10
246372.000
  20
4536427.293
  30
845.6
  0
VERTEX
  8
PNOA-H_AMS_1956-57_33k_ES_PAN_21mic_H50_0477_fot_56A-04375_W_tif
  70
32
  10
247002.000
  20
4536745.293
  30
822
  0
VERTEX
  8
PNOA-H_AMS_1956-57_33k_ES_PAN_21mic_H50_0477_fot_56A-04375_W_tif
  70
32
  10
247003.000
  20
4536745.793
  30
822
  0
SEQEND
  8
PNOA-H_AMS_1956-57_33k_ES_PAN_21mic_H50_0477_fot_56A-04375_W_tif
  0
TEXT
  8
PNOA-H_AMS_1956-57_33k_ES_PAN_21mic_H50_0477_fot_56A-04375_W_tif
 62
0
  1
PNOA-H_AMS_1956-57_33k_ES_PAN_21mic_H50_0477_fot_56A-04375_W.tif
 40
41.63504
  10
247782.767
  20
4534242.793
  0
POLYLINE
  8
PNOA-H_AMS_1956-57_33k_ES_PAN_21mic_H50_0477_fot_56A-04374_W_tif
  70
9
  66
1
  0
VERTEX
  8
PNOA-H_AMS_1956-57_33k_ES_PAN_21mic_H50_0477_fot_56A-04374_W_tif
  70
32
  10
249242.000
  20
4532947.793
  30
809
  0
VERTEX
  8
PNOA-H_AMS_1956-57_33k_ES_PAN_21mic_H50_0477_fot_56A-04374_W_tif
  70
32
  10
249389.000
  20
4536407.793
  30
804
  0
VERTEX
  8
PNOA-H_AMS_1956-57_33k_ES_PAN_21mic_H50_0477_fot_56A-04374_W_tif
  70
32
  10
249926.500
  20
4536654.293
  30
799
  0
VERTEX
  8
PNOA-H_AMS_1956-57_33k_ES_PAN_21mic_H50_0477_fot_56A-04374_W_tif
  70
32
  10
249930.000
  20
4536654.293
  30
799
  0
VERTEX
  8
PNOA-H_AMS_1956-57_33k_ES_PAN_21mic_H50_0477_fot_56A-04374_W_tif
  70
32
  10
252367.000
  20
4536399.293
  30
813
  0
VERTEX
  8
PNOA-H_AMS_1956-57_33k_ES_PAN_21mic_H50_0477_fot_56A-04374_W_tif
  70
32
  10
252176.500
  20
4531691.293
  30
821
  0
VERTEX
  8
PNOA-H_AMS_1956-57_33k_ES_PAN_21mic_H50_0477_fot_56A-04374_W_tif
  70
32
  10
249525.500
  20
4531583.293
  30
799
  0
VERTEX
  8
PNOA-H_AMS_1956-57_33k_ES_PAN_21mic_H50_0477_fot_56A-04374_W_tif
  70
32
  10
249193.000
  20
4531789.293
  30
797
  0
VERTEX
  8
PNOA-H_AMS_1956-57_33k_ES_PAN_21mic_H50_0477_fot_56A-04374_W_tif
  70
32
  10
249242.000
  20
4532935.793
  30
809
  0
VERTEX
  8
PNOA-H_AMS_1956-57_33k_ES_PAN_21mic_H50_0477_fot_56A-04374_W_tif
  70
32
  10
249242.000
  20
4532947.793
  30
809
  0
SEQEND
  8
PNOA-H_AMS_1956-57_33k_ES_PAN_21mic_H50_0477_fot_56A-04374_W_tif
  0
TEXT
  8
PNOA-H_AMS_1956-57_33k_ES_PAN_21mic_H50_0477_fot_56A-04374_W_tif
 62
0
  1
PNOA-H_AMS_1956-57_33k_ES_PAN_21mic_H50_0477_fot_56A-04374_W.tif
 40
41.63504
  10
250783.237
  20
4534118.793
  0
POLYLINE
  8
PNOA-H_AMS_1956-57_33k_ES_PAN_21mic_H50_0477_fot_57B-04727_W_tif
  70
9
  66
1
  0
VERTEX
  8
PNOA-H_AMS_1956-57_33k_ES_PAN_21mic_H50_0477_fot_57B-04727_W_tif
  70
32
  10
252169.000
  20
4531691.293
  30
821
  0
VERTEX
  8
PNOA-H_AMS_1956-57_33k_ES_PAN_21mic_H50_0477_fot_57B-04727_W_tif
  70
32
  10
252178.000
  20
4531690.793
  30
821
  0
VERTEX
  8
PNOA-H_AMS_1956-57_33k_ES_PAN_21mic_H50_0477_fot_57B-04727_W_tif
  70
32
  10
252569.500
  20
4531456.293
  30
824
  0
VERTEX
  8
PNOA-H_AMS_1956-57_33k_ES_PAN_21mic_H50_0477_fot_57B-04727_W_tif
  70
32
  10
252569.500
  20
4531453.793
  30
824
  0
VERTEX
  8
PNOA-H_AMS_1956-57_33k_ES_PAN_21mic_H50_0477_fot_57B-04727_W_tif
  70
32
  10
252276.500
  20
4527307.793
  30
846
  0
VERTEX
  8
PNOA-H_AMS_1956-57_33k_ES_PAN_21mic_H50_0477_fot_57B-04727_W_tif
  70
32
  10
251907.500
  20
4527244.793
  30
834
  0
VERTEX
  8
PNOA-H_AMS_1956-57_33k_ES_PAN_21mic_H50_0477_fot_57B-04727_W_tif
  70
32
  10
249730.500
  20
4527380.793
  30
813
  0
VERTEX
  8
PNOA-H_AMS_1956-57_33k_ES_PAN_21mic_H50_0477_fot_57B-04727_W_tif
  70
32
  10
249727.500
  20
4527381.293
  30
813
  0
VERTEX
  8
PNOA-H_AMS_1956-57_33k_ES_PAN_21mic_H50_0477_fot_57B-04727_W_tif
  70
32
  10
249692.500
  20
4527398.793
  30
811
  0
VERTEX
  8
PNOA-H_AMS_1956-57_33k_ES_PAN_21mic_H50_0477_fot_57B-04727_W_tif
  70
32
  10
249358.500
  20
4527568.293
  30
822
  0
VERTEX
  8
PNOA-H_AMS_1956-57_33k_ES_PAN_21mic_H50_0477_fot_57B-04727_W_tif
  70
32
  10
249525.500
  20
4531581.293
  30
799
  0
VERTEX
  8
PNOA-H_AMS_1956-57_33k_ES_PAN_21mic_H50_0477_fot_57B-04727_W_tif
  70
32
  10
249526.000
  20
4531583.293
  30
799
  0
VERTEX
  8
PNOA-H_AMS_1956-57_33k_ES_PAN_21mic_H50_0477_fot_57B-04727_W_tif
  70
32
  10
249530.500
  20
4531583.793
  30
799
  0
VERTEX
  8
PNOA-H_AMS_1956-57_33k_ES_PAN_21mic_H50_0477_fot_57B-04727_W_tif
  70
32
  10
252156.500
  20
4531690.793
  30
821
  0
VERTEX
  8
PNOA-H_AMS_1956-57_33k_ES_PAN_21mic_H50_0477_fot_57B-04727_W_tif
  70
32
  10
252169.000
  20
4531691.293
  30
821
  0
SEQEND
  8
PNOA-H_AMS_1956-57_33k_ES_PAN_21mic_H50_0477_fot_57B-04727_W_tif
  0
TEXT
  8
PNOA-H_AMS_1956-57_33k_ES_PAN_21mic_H50_0477_fot_57B-04727_W_tif
 62
0
  1
PNOA-H_AMS_1956-57_33k_ES_PAN_21mic_H50_0477_fot_57B-04727_W.tif
 40
41.63504
  10
250933.362
  20
4529468.043
  0
POLYLINE
  8
PNOA-H_AMS_1956-57_33k_ES_PAN_21mic_H50_0477_fot_57B-04726_W_tif
  70
9
  66
1
  0
VERTEX
  8
PNOA-H_AMS_1956-57_33k_ES_PAN_21mic_H50_0477_fot_57B-04726_W_tif
  70
32
  10
253327.500
  20
4531468.793
  30
823
  0
VERTEX
  8
PNOA-H_AMS_1956-57_33k_ES_PAN_21mic_H50_0477_fot_57B-04726_W_tif
  70
32
  10
255121.000
  20
4531498.293
  30
814.96
  0
VERTEX
  8
PNOA-H_AMS_1956-57_33k_ES_PAN_21mic_H50_0477_fot_57B-04726_W_tif
  70
32
  10
255710.500
  20
4531144.293
  30
814
  0
VERTEX
  8
PNOA-H_AMS_1956-57_33k_ES_PAN_21mic_H50_0477_fot_57B-04726_W_tif
  70
32
  10
255396.500
  20
4527269.293
  30
853
  0
VERTEX
  8
PNOA-H_AMS_1956-57_33k_ES_PAN_21mic_H50_0477_fot_57B-04726_W_tif
  70
32
  10
255396.000
  20
4527266.293
  30
853
  0
VERTEX
  8
PNOA-H_AMS_1956-57_33k_ES_PAN_21mic_H50_0477_fot_57B-04726_W_tif
  70
32
  10
255392.000
  20
4527263.293
  30
853
  0
VERTEX
  8
PNOA-H_AMS_1956-57_33k_ES_PAN_21mic_H50_0477_fot_57B-04726_W_tif
  70
32
  10
255210.500
  20
4527140.793
  30
853
  0
VERTEX
  8
PNOA-H_AMS_1956-57_33k_ES_PAN_21mic_H50_0477_fot_57B-04726_W_tif
  70
32
  10
255160.000
  20
4527131.793
  30
852
  0
VERTEX
  8
PNOA-H_AMS_1956-57_33k_ES_PAN_21mic_H50_0477_fot_57B-04726_W_tif
  70
32
  10
252481.000
  20
4527196.793
  30
846
  0
VERTEX
  8
PNOA-H_AMS_1956-57_33k_ES_PAN_21mic_H50_0477_fot_57B-04726_W_tif
  70
32
  10
252276.500
  20
4527307.293
  30
846
  0
VERTEX
  8
PNOA-H_AMS_1956-57_33k_ES_PAN_21mic_H50_0477_fot_57B-04726_W_tif
  70
32
  10
252569.000
  20
4531453.793
  30
824
  0
VERTEX
  8
PNOA-H_AMS_1956-57_33k_ES_PAN_21mic_H50_0477_fot_57B-04726_W_tif
  70
32
  10
252569.500
  20
4531455.793
  30
824
  0
VERTEX
  8
PNOA-H_AMS_1956-57_33k_ES_PAN_21mic_H50_0477_fot_57B-04726_W_tif
  70
32
  10
252571.500
  20
4531456.293
  30
824
  0
VERTEX
  8
PNOA-H_AMS_1956-57_33k_ES_PAN_21mic_H50_0477_fot_57B-04726_W_tif
  70
32
  10
253297.500
  20
4531468.293
  30
822.8
  0
VERTEX
  8
PNOA-H_AMS_1956-57_33k_ES_PAN_21mic_H50_0477_fot_57B-04726_W_tif
  70
32
  10
253327.500
  20
4531468.793
  30
823
  0
SEQEND
  8
PNOA-H_AMS_1956-57_33k_ES_PAN_21mic_H50_0477_fot_57B-04726_W_tif
  0
TEXT
  8
PNOA-H_AMS_1956-57_33k_ES_PAN_21mic_H50_0477_fot_57B-04726_W_tif
 62
0
  1
PNOA-H_AMS_1956-57_33k_ES_PAN_21mic_H50_0477_fot_57B-04726_W.tif
 40
41.63504
  10
253990.201
  20
4529315.043
  0
POLYLINE
  8
PNOA-H_AMS_1956-57_33k_ES_PAN_21mic_H50_0477_fot_57B-04728_W_tif
  70
9
  66
1
  0
VERTEX
  8
PNOA-H_AMS_1956-57_33k_ES_PAN_21mic_H50_0477_fot_57B-04728_W_tif
  70
32
  10
247171.500
  20
4531753.293
  30
807.14
  0
VERTEX
  8
PNOA-H_AMS_1956-57_33k_ES_PAN_21mic_H50_0477_fot_57B-04728_W_tif
  70
32
  10
249194.000
  20
4531789.293
  30
797
  0
VERTEX
  8
PNOA-H_AMS_1956-57_33k_ES_PAN_21mic_H50_0477_fot_57B-04728_W_tif
  70
32
  10
249526.000
  20
4531583.293
  30
799
  0
VERTEX
  8
PNOA-H_AMS_1956-57_33k_ES_PAN_21mic_H50_0477_fot_57B-04728_W_tif
  70
32
  10
249358.500
  20
4527568.293
  30
822
  0
VERTEX
  8
PNOA-H_AMS_1956-57_33k_ES_PAN_21mic_H50_0477_fot_57B-04728_W_tif
  70
32
  10
248608.000
  20
4527372.793
  30
794
  0
VERTEX
  8
PNOA-H_AMS_1956-57_33k_ES_PAN_21mic_H50_0477_fot_57B-04728_W_tif
  70
32
  10
246921.500
  20
4527467.293
  30
794
  0
VERTEX
  8
PNOA-H_AMS_1956-57_33k_ES_PAN_21mic_H50_0477_fot_57B-04728_W_tif
  70
32
  10
246329.000
  20
4527729.293
  30
795.48
  0
VERTEX
  8
PNOA-H_AMS_1956-57_33k_ES_PAN_21mic_H50_0477_fot_57B-04728_W_tif
  70
32
  10
246445.500
  20
4531739.793
  30
812.55
  0
VERTEX
  8
PNOA-H_AMS_1956-57_33k_ES_PAN_21mic_H50_0477_fot_57B-04728_W_tif
  70
32
  10
247143.500
  20
4531752.793
  30
808
  0
VERTEX
  8
PNOA-H_AMS_1956-57_33k_ES_PAN_21mic_H50_0477_fot_57B-04728_W_tif
  70
32
  10
247171.500
  20
4531753.293
  30
807.14
  0
SEQEND
  8
PNOA-H_AMS_1956-57_33k_ES_PAN_21mic_H50_0477_fot_57B-04728_W_tif
  0
TEXT
  8
PNOA-H_AMS_1956-57_33k_ES_PAN_21mic_H50_0477_fot_57B-04728_W_tif
 62
0
  1
PNOA-H_AMS_1956-57_33k_ES_PAN_21mic_H50_0477_fot_57B-04728_W.tif
 40
41.63504
  10
247912.630
  20
4529581.043
  0
POLYLINE
  8
PNOA-H_AMS_1956-57_33k_ES_PAN_21mic_H50_0477_fot_58A-40154_W_tif
  70
9
  66
1
  0
VERTEX
  8
PNOA-H_AMS_1956-57_33k_ES_PAN_21mic_H50_0477_fot_58A-40154_W_tif
  70
32
  10
252526.343
  20
4524402.217
  30
842.244
  0
VERTEX
  8
PNOA-H_AMS_1956-57_33k_ES_PAN_21mic_H50_0477_fot_58A-40154_W_tif
  70
32
  10
252314.566
  20
4524409.272
  30
850.494
  0
VERTEX
  8
PNOA-H_AMS_1956-57_33k_ES_PAN_21mic_H50_0477_fot_58A-40154_W_tif
  70
32
  10
250945.057
  20
4524455.549
  30
833.02
  0
VERTEX
  8
PNOA-H_AMS_1956-57_33k_ES_PAN_21mic_H50_0477_fot_58A-40154_W_tif
  70
32
  10
251905.000
  20
4527243.793
  30
834
  0
VERTEX
  8
PNOA-H_AMS_1956-57_33k_ES_PAN_21mic_H50_0477_fot_58A-40154_W_tif
  70
32
  10
251907.500
  20
4527245.293
  30
834
  0
VERTEX
  8
PNOA-H_AMS_1956-57_33k_ES_PAN_21mic_H50_0477_fot_58A-40154_W_tif
  70
32
  10
252273.000
  20
4527307.293
  30
846
  0
VERTEX
  8
PNOA-H_AMS_1956-57_33k_ES_PAN_21mic_H50_0477_fot_58A-40154_W_tif
  70
32
  10
252276.000
  20
4527307.793
  30
846
  0
VERTEX
  8
PNOA-H_AMS_1956-57_33k_ES_PAN_21mic_H50_0477_fot_58A-40154_W_tif
  70
32
  10
252479.500
  20
4527198.293
  30
846
  0
VERTEX
  8
PNOA-H_AMS_1956-57_33k_ES_PAN_21mic_H50_0477_fot_58A-40154_W_tif
  70
32
  10
252482.000
  20
4527195.293
  30
846
  0
VERTEX
  8
PNOA-H_AMS_1956-57_33k_ES_PAN_21mic_H50_0477_fot_58A-40154_W_tif
  70
32
  10
252771.500
  20
4524699.793
  30
845
  0
SEQEND
  8
PNOA-H_AMS_1956-57_33k_ES_PAN_21mic_H50_0477_fot_58A-40154_W_tif
  0
TEXT
  8
PNOA-H_AMS_1956-57_33k_ES_PAN_21mic_H50_0477_fot_58A-40154_W_tif
 62
0
  1
PNOA-H_AMS_1956-57_33k_ES_PAN_21mic_H50_0477_fot_58A-40154_W.tif
 40
41.63504
  10
252013.216
  20
4525688.897
  0
POLYLINE
  8
PNOA-H_AMS_1956-57_33k_ES_PAN_21mic_H50_0477_fot_58A-40155_W_tif
  70
9
  66
1
  0
VERTEX
  8
PNOA-H_AMS_1956-57_33k_ES_PAN_21mic_H50_0477_fot_58A-40155_W_tif
  70
32
  10
249764.086
  20
4524495.455
  30
824.181
  0
VERTEX
  8
PNOA-H_AMS_1956-57_33k_ES_PAN_21mic_H50_0477_fot_58A-40155_W_tif
  70
32
  10
248800.837
  20
4524528.004
  30
828.434
  0
VERTEX
  8
PNOA-H_AMS_1956-57_33k_ES_PAN_21mic_H50_0477_fot_58A-40155_W_tif
  70
32
  10
248196.005
  20
4524548.730
  30
820.336
  0
VERTEX
  8
PNOA-H_AMS_1956-57_33k_ES_PAN_21mic_H50_0477_fot_58A-40155_W_tif
  70
32
  10
248607.500
  20
4527372.293
  30
794
  0
VERTEX
  8
PNOA-H_AMS_1956-57_33k_ES_PAN_21mic_H50_0477_fot_58A-40155_W_tif
  70
32
  10
248608.000
  20
4527373.293
  30
794
  0
VERTEX
  8
PNOA-H_AMS_1956-57_33k_ES_PAN_21mic_H50_0477_fot_58A-40155_W_tif
  70
32
  10
248615.500
  20
4527375.293
  30
794
  0
VERTEX
  8
PNOA-H_AMS_1956-57_33k_ES_PAN_21mic_H50_0477_fot_58A-40155_W_tif
  70
32
  10
249355.500
  20
4527567.793
  30
822
  0
VERTEX
  8
PNOA-H_AMS_1956-57_33k_ES_PAN_21mic_H50_0477_fot_58A-40155_W_tif
  70
32
  10
249357.500
  20
4527568.293
  30
822
  0
VERTEX
  8
PNOA-H_AMS_1956-57_33k_ES_PAN_21mic_H50_0477_fot_58A-40155_W_tif
  70
32
  10
249382.000
  20
4527556.793
  30
821
  0
VERTEX
  8
PNOA-H_AMS_1956-57_33k_ES_PAN_21mic_H50_0477_fot_58A-40155_W_tif
  70
32
  10
249728.000
  20
4527381.293
  30
813
  0
VERTEX
  8
PNOA-H_AMS_1956-57_33k_ES_PAN_21mic_H50_0477_fot_58A-40155_W_tif
  70
32
  10
249884.000
  20
4524594.793
  30
821.9
  0
SEQEND
  8
PNOA-H_AMS_1956-57_33k_ES_PAN_21mic_H50_0477_fot_58A-40155_W_tif
  0
TEXT
  8
PNOA-H_AMS_1956-57_33k_ES_PAN_21mic_H50_0477_fot_58A-40155_W_tif
 62
0
  1
PNOA-H_AMS_1956-57_33k_ES_PAN_21mic_H50_0477_fot_58A-40155_W.tif
 40
41.63504
  10
249103.464
  20
4525934.147
  0
POLYLINE
  8
PNOA-H_AMS_1956-57_33k_ES_PAN_21mic_H50_0502_fot_000-36786_R_tif
  70
9
  66
1
  0
VERTEX
  8
PNOA-H_AMS_1956-57_33k_ES_PAN_21mic_H50_0502_fot_000-36786_R_tif
  70
32
  10
253881.698
  20
4524357.065
  30
860.719
  0
VERTEX
  8
PNOA-H_AMS_1956-57_33k_ES_PAN_21mic_H50_0502_fot_000-36786_R_tif
  70
32
  10
252525.731
  20
4524402.238
  30
842.255
  0
VERTEX
  8
PNOA-H_AMS_1956-57_33k_ES_PAN_21mic_H50_0502_fot_000-36786_R_tif
  70
32
  10
252770.000
  20
4524698.793
  30
845
  0
VERTEX
  8
PNOA-H_AMS_1956-57_33k_ES_PAN_21mic_H50_0502_fot_000-36786_R_tif
  70
32
  10
252771.000
  20
4524699.793
  30
845
  0
VERTEX
  8
PNOA-H_AMS_1956-57_33k_ES_PAN_21mic_H50_0502_fot_000-36786_R_tif
  70
32
  10
252774.500
  20
4524699.293
  30
845
  0
VERTEX
  8
PNOA-H_AMS_1956-57_33k_ES_PAN_21mic_H50_0502_fot_000-36786_R_tif
  70
32
  10
253336.500
  20
4524545.793
  30
860
  0
VERTEX
  8
PNOA-H_AMS_1956-57_33k_ES_PAN_21mic_H50_0502_fot_000-36786_R_tif
  70
32
  10
253338.500
  20
4524545.293
  30
860
  0
VERTEX
  8
PNOA-H_AMS_1956-57_33k_ES_PAN_21mic_H50_0502_fot_000-36786_R_tif
  70
32
  10
253829.500
  20
4524411.793
  30
860.1
  0
SEQEND
  8
PNOA-H_AMS_1956-57_33k_ES_PAN_21mic_H50_0502_fot_000-36786_R_tif
  0
TEXT
  8
PNOA-H_AMS_1956-57_33k_ES_PAN_21mic_H50_0502_fot_000-36786_R_tif
 62
0
  1
PNOA-H_AMS_1956-57_33k_ES_PAN_21mic_H50_0502_fot_000-36786_R.tif
 40
41.63504
  10
253183.300
  20
4524384.897
  0
POLYLINE
  8
PNOA-H_AMS_1956-57_33k_ES_PAN_21mic_H50_0502_fot_000-36787_R_tif
  70
9
  66
1
  0
VERTEX
  8
PNOA-H_AMS_1956-57_33k_ES_PAN_21mic_H50_0502_fot_000-36787_R_tif
  70
32
  10
250542.917
  20
4524469.138
  30
829.102
  0
VERTEX
  8
PNOA-H_AMS_1956-57_33k_ES_PAN_21mic_H50_0502_fot_000-36787_R_tif
  70
32
  10
249763.519
  20
4524495.474
  30
824.171
  0
VERTEX
  8
PNOA-H_AMS_1956-57_33k_ES_PAN_21mic_H50_0502_fot_000-36787_R_tif
  70
32
  10
249884.000
  20
4524595.293
  30
821.88
  0
SEQEND
  8
PNOA-H_AMS_1956-57_33k_ES_PAN_21mic_H50_0502_fot_000-36787_R_tif
  0
TEXT
  8
PNOA-H_AMS_1956-57_33k_ES_PAN_21mic_H50_0502_fot_000-36787_R_tif
 62
0
  1
PNOA-H_AMS_1956-57_33k_ES_PAN_21mic_H50_0502_fot_000-36787_R.tif
 40
41.63504
  10
250153.218
  20
4524532.216
  0
POLYLINE
  8
PNOA-H_AMS_1956-57_33k_ES_PAN_21mic_H50_0502_fot_000-39640_R_tif
  70
9
  66
1
  0
VERTEX
  8
PNOA-H_AMS_1956-57_33k_ES_PAN_21mic_H50_0502_fot_000-39640_R_tif
  70
32
  10
248196.166
  20
4524548.725
  30
820.327
  0
VERTEX
  8
PNOA-H_AMS_1956-57_33k_ES_PAN_21mic_H50_0502_fot_000-39640_R_tif
  70
32
  10
246917.081
  20
4524592.556
  30
807.715
  0
VERTEX
  8
PNOA-H_AMS_1956-57_33k_ES_PAN_21mic_H50_0502_fot_000-39640_R_tif
  70
32
  10
246921.000
  20
4527467.793
  30
794
  0
VERTEX
  8
PNOA-H_AMS_1956-57_33k_ES_PAN_21mic_H50_0502_fot_000-39640_R_tif
  70
32
  10
247189.000
  20
4527452.293
  30
794
  0
VERTEX
  8
PNOA-H_AMS_1956-57_33k_ES_PAN_21mic_H50_0502_fot_000-39640_R_tif
  70
32
  10
247194.500
  20
4527452.293
  30
794
  0
VERTEX
  8
PNOA-H_AMS_1956-57_33k_ES_PAN_21mic_H50_0502_fot_000-39640_R_tif
  70
32
  10
248608.000
  20
4527372.793
  30
794
  0
SEQEND
  8
PNOA-H_AMS_1956-57_33k_ES_PAN_21mic_H50_0502_fot_000-39640_R_tif
  0
TEXT
  8
PNOA-H_AMS_1956-57_33k_ES_PAN_21mic_H50_0502_fot_000-39640_R_tif
 62
0
  1
PNOA-H_AMS_1956-57_33k_ES_PAN_21mic_H50_0502_fot_000-39640_R.tif
 40
41.63504
  10
247657.408
  20
4525918.543
  0
POLYLINE
  8
PNOA-H_AMS_1956-57_33k_ES_PAN_21mic_H50_0502_fot_000-39641_R_tif
  70
9
  66
1
  0
VERTEX
  8
PNOA-H_AMS_1956-57_33k_ES_PAN_21mic_H50_0502_fot_000-39641_R_tif
  70
32
  10
250945.342
  20
4524455.540
  30
831.771
  0
VERTEX
  8
PNOA-H_AMS_1956-57_33k_ES_PAN_21mic_H50_0502_fot_000-39641_R_tif
  70
32
  10
250543.388
  20
4524469.122
  30
829.159
  0
VERTEX
  8
PNOA-H_AMS_1956-57_33k_ES_PAN_21mic_H50_0502_fot_000-39641_R_tif
  70
32
  10
249884.000
  20
4524595.293
  30
821.88
  0
VERTEX
  8
PNOA-H_AMS_1956-57_33k_ES_PAN_21mic_H50_0502_fot_000-39641_R_tif
  70
32
  10
249728.000
  20
4527381.293
  30
813
  0
VERTEX
  8
PNOA-H_AMS_1956-57_33k_ES_PAN_21mic_H50_0502_fot_000-39641_R_tif
  70
32
  10
251905.500
  20
4527244.793
  30
834
  0
VERTEX
  8
PNOA-H_AMS_1956-57_33k_ES_PAN_21mic_H50_0502_fot_000-39641_R_tif
  70
32
  10
250972.500
  20
4524535.293
  30
830.3
  0
VERTEX
  8
PNOA-H_AMS_1956-57_33k_ES_PAN_21mic_H50_0502_fot_000-39641_R_tif
  70
32
  10
250972.000
  20
4524533.793
  30
830.12
  0
SEQEND
  8
PNOA-H_AMS_1956-57_33k_ES_PAN_21mic_H50_0502_fot_000-39641_R_tif
  0
TEXT
  8
PNOA-H_AMS_1956-57_33k_ES_PAN_21mic_H50_0502_fot_000-39641_R_tif
 62
0
  1
PNOA-H_AMS_1956-57_33k_ES_PAN_21mic_H50_0502_fot_000-39641_R.tif
 40
41.63504
  10
250625.070
  20
4525888.793
  0
POLYLINE
  8
PNOA-H_AMS_1956-57_33k_ES_PAN_21mic_H50_0502_fot_000-39642_R_tif
  70
9
  66
1
  0
VERTEX
  8
PNOA-H_AMS_1956-57_33k_ES_PAN_21mic_H50_0502_fot_000-39642_R_tif
  70
32
  10
252481.500
  20
4527196.793
  30
846
  0
VERTEX
  8
PNOA-H_AMS_1956-57_33k_ES_PAN_21mic_H50_0502_fot_000-39642_R_tif
  70
32
  10
255159.000
  20
4527131.793
  30
852
  0
VERTEX
  8
PNOA-H_AMS_1956-57_33k_ES_PAN_21mic_H50_0502_fot_000-39642_R_tif
  70
32
  10
253828.500
  20
4524411.793
  30
860.1
  0
VERTEX
  8
PNOA-H_AMS_1956-57_33k_ES_PAN_21mic_H50_0502_fot_000-39642_R_tif
  70
32
  10
252771.000
  20
4524700.293
  30
845
  0
VERTEX
  8
PNOA-H_AMS_1956-57_33k_ES_PAN_21mic_H50_0502_fot_000-39642_R_tif
  70
32
  10
252481.500
  20
4527195.293
  30
846
  0
SEQEND
  8
PNOA-H_AMS_1956-57_33k_ES_PAN_21mic_H50_0502_fot_000-39642_R_tif
  0
TEXT
  8
PNOA-H_AMS_1956-57_33k_ES_PAN_21mic_H50_0502_fot_000-39642_R_tif
 62
0
  1
PNOA-H_AMS_1956-57_33k_ES_PAN_21mic_H50_0502_fot_000-39642_R.tif
 40
41.63504
  10
253576.274
  20
4525804.293
  0
POLYLINE
  8
PNOA-H_AMS_1956-57_33k_ES_PAN_21mic_H50_0477_fot_55A-03727_W_tif
  70
9
  66
1
  0
VERTEX
  8
PNOA-H_AMS_1956-57_33k_ES_PAN_21mic_H50_0477_fot_55A-03727_W_tif
  70
32
  10
257427.000
  20
4541162.293
  30
818
  0
VERTEX
  8
PNOA-H_AMS_1956-57_33k_ES_PAN_21mic_H50_0477_fot_55A-03727_W_tif
  70
32
  10
257431.500
  20
4541162.793
  30
817.7
  0
VERTEX
  8
PNOA-H_AMS_1956-57_33k_ES_PAN_21mic_H50_0477_fot_55A-03727_W_tif
  70
32
  10
258071.000
  20
4541240.293
  30
810.32
  0
VERTEX
  8
PNOA-H_AMS_1956-57_33k_ES_PAN_21mic_H50_0477_fot_55A-03727_W_tif
  70
32
  10
258730.500
  20
4540832.793
  30
815.09
  0
VERTEX
  8
PNOA-H_AMS_1956-57_33k_ES_PAN_21mic_H50_0477_fot_55A-03727_W_tif
  70
32
  10
258633.000
  20
4536484.793
  30
798
  0
VERTEX
  8
PNOA-H_AMS_1956-57_33k_ES_PAN_21mic_H50_0477_fot_55A-03727_W_tif
  70
32
  10
258628.000
  20
4536481.293
  30
798
  0
VERTEX
  8
PNOA-H_AMS_1956-57_33k_ES_PAN_21mic_H50_0477_fot_55A-03727_W_tif
  70
32
  10
258359.000
  20
4536357.293
  30
796
  0
VERTEX
  8
PNOA-H_AMS_1956-57_33k_ES_PAN_21mic_H50_0477_fot_55A-03727_W_tif
  70
32
  10
255744.500
  20
4536602.793
  30
799
  0
VERTEX
  8
PNOA-H_AMS_1956-57_33k_ES_PAN_21mic_H50_0477_fot_55A-03727_W_tif
  70
32
  10
255694.000
  20
4540950.793
  30
784
  0
SEQEND
  8
PNOA-H_AMS_1956-57_33k_ES_PAN_21mic_H50_0477_fot_55A-03727_W_tif
  0
TEXT
  8
PNOA-H_AMS_1956-57_33k_ES_PAN_21mic_H50_0477_fot_55A-03727_W_tif
 62
0
  1
PNOA-H_AMS_1956-57_33k_ES_PAN_21mic_H50_0477_fot_55A-03727_W.tif
 40
41.63504
  10
257201.942
  20
4538798.793
  0
POLYLINE
  8
PNOA-H_AMS_1956-57_33k_ES_PAN_21mic_H50_0478_fot_55A-03726_W_tif
  70
9
  66
1
  0
VERTEX
  8
PNOA-H_AMS_1956-57_33k_ES_PAN_21mic_H50_0478_fot_55A-03726_W_tif
  70
32
  10
259892.641
  20
4541043.251
  30
821.827
  0
VERTEX
  8
PNOA-H_AMS_1956-57_33k_ES_PAN_21mic_H50_0478_fot_55A-03726_W_tif
  70
32
  10
259870.570
  20
4540368.349
  30
818.395
  0
VERTEX
  8
PNOA-H_AMS_1956-57_33k_ES_PAN_21mic_H50_0478_fot_55A-03726_W_tif
  70
32
  10
259794.960
  20
4538055.257
  30
799.269
  0
VERTEX
  8
PNOA-H_AMS_1956-57_33k_ES_PAN_21mic_H50_0478_fot_55A-03726_W_tif
  70
32
  10
259740.839
  20
4536398.879
  30
808.223
  0
VERTEX
  8
PNOA-H_AMS_1956-57_33k_ES_PAN_21mic_H50_0478_fot_55A-03726_W_tif
  70
32
  10
258632.500
  20
4536483.793
  30
798
  0
VERTEX
  8
PNOA-H_AMS_1956-57_33k_ES_PAN_21mic_H50_0478_fot_55A-03726_W_tif
  70
32
  10
258730.500
  20
4540832.793
  30
815.09
  0
SEQEND
  8
PNOA-H_AMS_1956-57_33k_ES_PAN_21mic_H50_0478_fot_55A-03726_W_tif
  0
TEXT
  8
PNOA-H_AMS_1956-57_33k_ES_PAN_21mic_H50_0478_fot_55A-03726_W_tif
 62
0
  1
PNOA-H_AMS_1956-57_33k_ES_PAN_21mic_H50_0478_fot_55A-03726_W.tif
 40
41.63504
  10
259366.549
  20
4538729.217
  0
POLYLINE
  8
PNOA-H_AMS_1956-57_33k_ES_PAN_21mic_H50_0477_fot_56A-04372_W_tif
  70
9
  66
1
  0
VERTEX
  8
PNOA-H_AMS_1956-57_33k_ES_PAN_21mic_H50_0477_fot_56A-04372_W_tif
  70
32
  10
255386.000
  20
4536439.793
  30
798
  0
VERTEX
  8
PNOA-H_AMS_1956-57_33k_ES_PAN_21mic_H50_0477_fot_56A-04372_W_tif
  70
32
  10
255739.000
  20
4536600.793
  30
799
  0
VERTEX
  8
PNOA-H_AMS_1956-57_33k_ES_PAN_21mic_H50_0477_fot_56A-04372_W_tif
  70
32
  10
255743.500
  20
4536602.793
  30
799
  0
VERTEX
  8
PNOA-H_AMS_1956-57_33k_ES_PAN_21mic_H50_0477_fot_56A-04372_W_tif
  70
32
  10
255748.500
  20
4536602.793
  30
799
  0
VERTEX
  8
PNOA-H_AMS_1956-57_33k_ES_PAN_21mic_H50_0477_fot_56A-04372_W_tif
  70
32
  10
258358.500
  20
4536357.293
  30
796
  0
VERTEX
  8
PNOA-H_AMS_1956-57_33k_ES_PAN_21mic_H50_0477_fot_56A-04372_W_tif
  70
32
  10
258113.500
  20
4531397.293
  30
813
  0
VERTEX
  8
PNOA-H_AMS_1956-57_33k_ES_PAN_21mic_H50_0477_fot_56A-04372_W_tif
  70
32
  10
255710.500
  20
4531143.793
  30
814
  0
VERTEX
  8
PNOA-H_AMS_1956-57_33k_ES_PAN_21mic_H50_0477_fot_56A-04372_W_tif
  70
32
  10
255121.000
  20
4531497.793
  30
814.98
  0
VERTEX
  8
PNOA-H_AMS_1956-57_33k_ES_PAN_21mic_H50_0477_fot_56A-04372_W_tif
  70
32
  10
255338.000
  20
4536413.293
  30
799.4
  0
VERTEX
  8
PNOA-H_AMS_1956-57_33k_ES_PAN_21mic_H50_0477_fot_56A-04372_W_tif
  70
32
  10
255338.500
  20
4536418.293
  30
799.44
  0
VERTEX
  8
PNOA-H_AMS_1956-57_33k_ES_PAN_21mic_H50_0477_fot_56A-04372_W_tif
  70
32
  10
255385.000
  20
4536439.293
  30
798
  0
VERTEX
  8
PNOA-H_AMS_1956-57_33k_ES_PAN_21mic_H50_0477_fot_56A-04372_W_tif
  70
32
  10
255386.000
  20
4536439.793
  30
798
  0
SEQEND
  8
PNOA-H_AMS_1956-57_33k_ES_PAN_21mic_H50_0477_fot_56A-04372_W_tif
  0
TEXT
  8
PNOA-H_AMS_1956-57_33k_ES_PAN_21mic_H50_0477_fot_56A-04372_W_tif
 62
0
  1
PNOA-H_AMS_1956-57_33k_ES_PAN_21mic_H50_0477_fot_56A-04372_W.tif
 40
41.63504
  10
256730.836
  20
4533873.293
  0
POLYLINE
  8
PNOA-H_AMS_1956-57_33k_ES_PAN_21mic_H50_0478_fot_56A-04371_W_tif
  70
9
  66
1
  0
VERTEX
  8
PNOA-H_AMS_1956-57_33k_ES_PAN_21mic_H50_0478_fot_56A-04371_W_tif
  70
32
  10
259740.842
  20
4536398.983
  30
811.104
  0
VERTEX
  8
PNOA-H_AMS_1956-57_33k_ES_PAN_21mic_H50_0478_fot_56A-04371_W_tif
  70
32
  10
259719.381
  20
4535742.171
  30
816.874
  0
VERTEX
  8
PNOA-H_AMS_1956-57_33k_ES_PAN_21mic_H50_0478_fot_56A-04371_W_tif
  70
32
  10
259643.834
  20
4533429.092
  30
836.672
  0
VERTEX
  8
PNOA-H_AMS_1956-57_33k_ES_PAN_21mic_H50_0478_fot_56A-04371_W_tif
  70
32
  10
259568.320
  20
4531116.018
  30
836.06
  0
VERTEX
  8
PNOA-H_AMS_1956-57_33k_ES_PAN_21mic_H50_0478_fot_56A-04371_W_tif
  70
32
  10
259567.138
  20
4531079.822
  30
836.024
  0
VERTEX
  8
PNOA-H_AMS_1956-57_33k_ES_PAN_21mic_H50_0478_fot_56A-04371_W_tif
  70
32
  10
258813.000
  20
4531033.293
  30
828
  0
VERTEX
  8
PNOA-H_AMS_1956-57_33k_ES_PAN_21mic_H50_0478_fot_56A-04371_W_tif
  70
32
  10
258806.000
  20
4531033.293
  30
827.36
  0
VERTEX
  8
PNOA-H_AMS_1956-57_33k_ES_PAN_21mic_H50_0478_fot_56A-04371_W_tif
  70
32
  10
258113.500
  20
4531397.293
  30
813
  0
VERTEX
  8
PNOA-H_AMS_1956-57_33k_ES_PAN_21mic_H50_0478_fot_56A-04371_W_tif
  70
32
  10
258358.500
  20
4536357.293
  30
796
  0
VERTEX
  8
PNOA-H_AMS_1956-57_33k_ES_PAN_21mic_H50_0478_fot_56A-04371_W_tif
  70
32
  10
258632.000
  20
4536483.793
  30
798
  0
VERTEX
  8
PNOA-H_AMS_1956-57_33k_ES_PAN_21mic_H50_0478_fot_56A-04371_W_tif
  70
32
  10
259478.000
  20
4536418.793
  30
810
  0
VERTEX
  8
PNOA-H_AMS_1956-57_33k_ES_PAN_21mic_H50_0478_fot_56A-04371_W_tif
  70
32
  10
259482.500
  20
4536418.793
  30
810
  0
SEQEND
  8
PNOA-H_AMS_1956-57_33k_ES_PAN_21mic_H50_0478_fot_56A-04371_W_tif
  0
TEXT
  8
PNOA-H_AMS_1956-57_33k_ES_PAN_21mic_H50_0478_fot_56A-04371_W_tif
 62
0
  1
PNOA-H_AMS_1956-57_33k_ES_PAN_21mic_H50_0478_fot_56A-04371_W.tif
 40
41.63504
  10
259065.067
  20
4533758.543
  0
POLYLINE
  8
PNOA-H_AMS_1956-57_33k_ES_PAN_21mic_H50_0477_fot_56A-04373_W_tif
  70
9
  66
1
  0
VERTEX
  8
PNOA-H_AMS_1956-57_33k_ES_PAN_21mic_H50_0477_fot_56A-04373_W_tif
  70
32
  10
254762.000
  20
4531889.293
  30
825.24
  0
VERTEX
  8
PNOA-H_AMS_1956-57_33k_ES_PAN_21mic_H50_0477_fot_56A-04373_W_tif
  70
32
  10
254763.000
  20
4531888.793
  30
825.12
  0
VERTEX
  8
PNOA-H_AMS_1956-57_33k_ES_PAN_21mic_H50_0477_fot_56A-04373_W_tif
  70
32
  10
254771.500
  20
4531880.293
  30
816.54
  0
VERTEX
  8
PNOA-H_AMS_1956-57_33k_ES_PAN_21mic_H50_0477_fot_56A-04373_W_tif
  70
32
  10
254772.000
  20
4531875.293
  30
811.36
  0
VERTEX
  8
PNOA-H_AMS_1956-57_33k_ES_PAN_21mic_H50_0477_fot_56A-04373_W_tif
  70
32
  10
254767.000
  20
4531870.293
  30
804.28
  0
VERTEX
  8
PNOA-H_AMS_1956-57_33k_ES_PAN_21mic_H50_0477_fot_56A-04373_W_tif
  70
32
  10
254757.000
  20
4531870.793
  30
796.64
  0
VERTEX
  8
PNOA-H_AMS_1956-57_33k_ES_PAN_21mic_H50_0477_fot_56A-04373_W_tif
  70
32
  10
254753.000
  20
4531875.793
  30
795.8
  0
VERTEX
  8
PNOA-H_AMS_1956-57_33k_ES_PAN_21mic_H50_0477_fot_56A-04373_W_tif
  70
32
  10
254753.000
  20
4531883.793
  30
809.92
  0
VERTEX
  8
PNOA-H_AMS_1956-57_33k_ES_PAN_21mic_H50_0477_fot_56A-04373_W_tif
  70
32
  10
254758.000
  20
4531889.293
  30
822.76
  0
VERTEX
  8
PNOA-H_AMS_1956-57_33k_ES_PAN_21mic_H50_0477_fot_56A-04373_W_tif
  70
32
  10
254762.000
  20
4531889.293
  30
825.24
  0
SEQEND
  8
PNOA-H_AMS_1956-57_33k_ES_PAN_21mic_H50_0477_fot_56A-04373_W_tif
  0
TEXT
  8
PNOA-H_AMS_1956-57_33k_ES_PAN_21mic_H50_0477_fot_56A-04373_W_tif
 62
0
  1
PNOA-H_AMS_1956-57_33k_ES_PAN_21mic_H50_0477_fot_56A-04373_W.tif
 40
41.63504
  10
254762.275
  20
4531879.793
  0
POLYLINE
  8
PNOA-H_AMS_1956-57_33k_ES_PAN_21mic_H50_0477_fot_56A-04372_W_tif
  70
9
  66
1
  0
VERTEX
  8
PNOA-H_AMS_1956-57_33k_ES_PAN_21mic_H50_0477_fot_56A-04372_W_tif
  70
32
  10
254758.000
  20
4531889.293
  30
822.76
  0
VERTEX
  8
PNOA-H_AMS_1956-57_33k_ES_PAN_21mic_H50_0477_fot_56A-04372_W_tif
  70
32
  10
254763.000
  20
4531888.793
  30
825.12
  0
VERTEX
  8
PNOA-H_AMS_1956-57_33k_ES_PAN_21mic_H50_0477_fot_56A-04372_W_tif
  70
32
  10
254772.000
  20
4531879.293
  30
815.68
  0
VERTEX
  8
PNOA-H_AMS_1956-57_33k_ES_PAN_21mic_H50_0477_fot_56A-04372_W_tif
  70
32
  10
254772.000
  20
4531875.293
  30
811.36
  0
VERTEX
  8
PNOA-H_AMS_1956-57_33k_ES_PAN_21mic_H50_0477_fot_56A-04372_W_tif
  70
32
  10
254768.000
  20
4531870.793
  30
804.74
  0
VERTEX
  8
PNOA-H_AMS_1956-57_33k_ES_PAN_21mic_H50_0477_fot_56A-04372_W_tif
  70
32
  10
254762.000
  20
4531870.293
  30
799.68
  0
VERTEX
  8
PNOA-H_AMS_1956-57_33k_ES_PAN_21mic_H50_0477_fot_56A-04372_W_tif
  70
32
  10
254766.500
  20
4531874.293
  30
802.86
  0
VERTEX
  8
PNOA-H_AMS_1956-57_33k_ES_PAN_21mic_H50_0477_fot_56A-04372_W_tif
  70
32
  10
254767.000
  20
4531879.293
  30
808.52
  0
VERTEX
  8
PNOA-H_AMS_1956-57_33k_ES_PAN_21mic_H50_0477_fot_56A-04372_W_tif
  70
32
  10
254758.000
  20
4531888.293
  30
822.48
  0
VERTEX
  8
PNOA-H_AMS_1956-57_33k_ES_PAN_21mic_H50_0477_fot_56A-04372_W_tif
  70
32
  10
254758.000
  20
4531889.293
  30
822.76
  0
SEQEND
  8
PNOA-H_AMS_1956-57_33k_ES_PAN_21mic_H50_0477_fot_56A-04372_W_tif
  0
TEXT
  8
PNOA-H_AMS_1956-57_33k_ES_PAN_21mic_H50_0477_fot_56A-04372_W_tif
 62
0
  1
PNOA-H_AMS_1956-57_33k_ES_PAN_21mic_H50_0477_fot_56A-04372_W.tif
 40
41.63504
  10
254769.013
  20
4531879.793
  0
POLYLINE
  8
PNOA-H_AMS_1956-57_33k_ES_PAN_21mic_H50_0477_fot_57B-04725_W_tif
  70
9
  66
1
  0
VERTEX
  8
PNOA-H_AMS_1956-57_33k_ES_PAN_21mic_H50_0477_fot_57B-04725_W_tif
  70
32
  10
255710.500
  20
4531143.793
  30
814
  0
VERTEX
  8
PNOA-H_AMS_1956-57_33k_ES_PAN_21mic_H50_0477_fot_57B-04725_W_tif
  70
32
  10
258105.000
  20
4531396.793
  30
813
  0
VERTEX
  8
PNOA-H_AMS_1956-57_33k_ES_PAN_21mic_H50_0477_fot_57B-04725_W_tif
  70
32
  10
258109.500
  20
4531397.293
  30
813
  0
VERTEX
  8
PNOA-H_AMS_1956-57_33k_ES_PAN_21mic_H50_0477_fot_57B-04725_W_tif
  70
32
  10
258116.500
  20
4531396.293
  30
813
  0
VERTEX
  8
PNOA-H_AMS_1956-57_33k_ES_PAN_21mic_H50_0477_fot_57B-04725_W_tif
  70
32
  10
258807.000
  20
4531033.293
  30
827.52
  0
VERTEX
  8
PNOA-H_AMS_1956-57_33k_ES_PAN_21mic_H50_0477_fot_57B-04725_W_tif
  70
32
  10
258536.500
  20
4527037.293
  30
852
  0
VERTEX
  8
PNOA-H_AMS_1956-57_33k_ES_PAN_21mic_H50_0477_fot_57B-04725_W_tif
  70
32
  10
258118.000
  20
4526815.293
  30
848
  0
VERTEX
  8
PNOA-H_AMS_1956-57_33k_ES_PAN_21mic_H50_0477_fot_57B-04725_W_tif
  70
32
  10
257634.000
  20
4526800.293
  30
853
  0
VERTEX
  8
PNOA-H_AMS_1956-57_33k_ES_PAN_21mic_H50_0477_fot_57B-04725_W_tif
  70
32
  10
255396.000
  20
4527266.293
  30
853
  0
SEQEND
  8
PNOA-H_AMS_1956-57_33k_ES_PAN_21mic_H50_0477_fot_57B-04725_W_tif
  0
TEXT
  8
PNOA-H_AMS_1956-57_33k_ES_PAN_21mic_H50_0477_fot_57B-04725_W_tif
 62
0
  1
PNOA-H_AMS_1956-57_33k_ES_PAN_21mic_H50_0477_fot_57B-04725_W.tif
 40
41.63504
  10
257110.340
  20
4529098.793
  0
POLYLINE
  8
PNOA-H_AMS_1956-57_33k_ES_PAN_21mic_H50_0477_fot_57B-04726_W_tif
  70
9
  66
1
  0
VERTEX
  8
PNOA-H_AMS_1956-57_33k_ES_PAN_21mic_H50_0477_fot_57B-04726_W_tif
  70
32
  10
254757.500
  20
4531888.793
  30
821.95
  0
VERTEX
  8
PNOA-H_AMS_1956-57_33k_ES_PAN_21mic_H50_0477_fot_57B-04726_W_tif
  70
32
  10
254767.000
  20
4531879.293
  30
808.52
  0
VERTEX
  8
PNOA-H_AMS_1956-57_33k_ES_PAN_21mic_H50_0477_fot_57B-04726_W_tif
  70
32
  10
254767.000
  20
4531875.293
  30
803.72
  0
VERTEX
  8
PNOA-H_AMS_1956-57_33k_ES_PAN_21mic_H50_0477_fot_57B-04726_W_tif
  70
32
  10
254763.000
  20
4531870.793
  30
800.54
  0
VERTEX
  8
PNOA-H_AMS_1956-57_33k_ES_PAN_21mic_H50_0477_fot_57B-04726_W_tif
  70
32
  10
254757.000
  20
4531870.793
  30
796.64
  0
VERTEX
  8
PNOA-H_AMS_1956-57_33k_ES_PAN_21mic_H50_0477_fot_57B-04726_W_tif
  70
32
  10
254753.500
  20
4531874.293
  30
795.6
  0
VERTEX
  8
PNOA-H_AMS_1956-57_33k_ES_PAN_21mic_H50_0477_fot_57B-04726_W_tif
  70
32
  10
254753.000
  20
4531883.793
  30
809.92
  0
VERTEX
  8
PNOA-H_AMS_1956-57_33k_ES_PAN_21mic_H50_0477_fot_57B-04726_W_tif
  70
32
  10
254756.500
  20
4531888.293
  30
820.44
  0
VERTEX
  8
PNOA-H_AMS_1956-57_33k_ES_PAN_21mic_H50_0477_fot_57B-04726_W_tif
  70
32
  10
254757.500
  20
4531888.793
  30
821.95
  0
SEQEND
  8
PNOA-H_AMS_1956-57_33k_ES_PAN_21mic_H50_0477_fot_57B-04726_W_tif
  0
TEXT
  8
PNOA-H_AMS_1956-57_33k_ES_PAN_21mic_H50_0477_fot_57B-04726_W_tif
 62
0
  1
PNOA-H_AMS_1956-57_33k_ES_PAN_21mic_H50_0477_fot_57B-04726_W.tif
 40
41.63504
  10
254759.855
  20
4531879.793
  0
POLYLINE
  8
PNOA-H_AMS_1956-57_33k_ES_PAN_21mic_H50_0478_fot_57B-04724_W_tif
  70
9
  66
1
  0
VERTEX
  8
PNOA-H_AMS_1956-57_33k_ES_PAN_21mic_H50_0478_fot_57B-04724_W_tif
  70
32
  10
259567.151
  20
4531080.210
  30
842.398
  0
VERTEX
  8
PNOA-H_AMS_1956-57_33k_ES_PAN_21mic_H50_0478_fot_57B-04724_W_tif
  70
32
  10
259492.837
  20
4528802.951
  30
847.051
  0
VERTEX
  8
PNOA-H_AMS_1956-57_33k_ES_PAN_21mic_H50_0478_fot_57B-04724_W_tif
  70
32
  10
259428.369
  20
4526826.594
  30
864.682
  0
VERTEX
  8
PNOA-H_AMS_1956-57_33k_ES_PAN_21mic_H50_0478_fot_57B-04724_W_tif
  70
32
  10
258536.500
  20
4527037.293
  30
852
  0
VERTEX
  8
PNOA-H_AMS_1956-57_33k_ES_PAN_21mic_H50_0478_fot_57B-04724_W_tif
  70
32
  10
258807.000
  20
4531033.293
  30
827.52
  0
VERTEX
  8
PNOA-H_AMS_1956-57_33k_ES_PAN_21mic_H50_0478_fot_57B-04724_W_tif
  70
32
  10
259471.000
  20
4531074.293
  30
843
  0
VERTEX
  8
PNOA-H_AMS_1956-57_33k_ES_PAN_21mic_H50_0478_fot_57B-04724_W_tif
  70
32
  10
259479.000
  20
4531074.793
  30
842.6
  0
SEQEND
  8
PNOA-H_AMS_1956-57_33k_ES_PAN_21mic_H50_0478_fot_57B-04724_W_tif
  0
TEXT
  8
PNOA-H_AMS_1956-57_33k_ES_PAN_21mic_H50_0478_fot_57B-04724_W_tif
 62
0
  1
PNOA-H_AMS_1956-57_33k_ES_PAN_21mic_H50_0478_fot_57B-04724_W.tif
 40
41.63504
  10
259207.607
  20
4528938.747
  0
POLYLINE
  8
PNOA-H_AMS_1956-57_33k_ES_PAN_21mic_H50_0477_fot_58A-40152_W_tif
  70
9
  66
1
  0
VERTEX
  8
PNOA-H_AMS_1956-57_33k_ES_PAN_21mic_H50_0477_fot_58A-40152_W_tif
  70
32
  10
258227.825
  20
4524213.422
  30
889.592
  0
VERTEX
  8
PNOA-H_AMS_1956-57_33k_ES_PAN_21mic_H50_0477_fot_58A-40152_W_tif
  70
32
  10
256869.157
  20
4524258.037
  30
862.637
  0
VERTEX
  8
PNOA-H_AMS_1956-57_33k_ES_PAN_21mic_H50_0477_fot_58A-40152_W_tif
  70
32
  10
256688.000
  20
4524453.293
  30
850
  0
VERTEX
  8
PNOA-H_AMS_1956-57_33k_ES_PAN_21mic_H50_0477_fot_58A-40152_W_tif
  70
32
  10
257635.000
  20
4526800.293
  30
853
  0
VERTEX
  8
PNOA-H_AMS_1956-57_33k_ES_PAN_21mic_H50_0477_fot_58A-40152_W_tif
  70
32
  10
258088.500
  20
4526814.793
  30
844.85
  0
VERTEX
  8
PNOA-H_AMS_1956-57_33k_ES_PAN_21mic_H50_0477_fot_58A-40152_W_tif
  70
32
  10
258104.000
  20
4526815.293
  30
846.8
  0
VERTEX
  8
PNOA-H_AMS_1956-57_33k_ES_PAN_21mic_H50_0477_fot_58A-40152_W_tif
  70
32
  10
258118.000
  20
4526814.793
  30
848
  0
VERTEX
  8
PNOA-H_AMS_1956-57_33k_ES_PAN_21mic_H50_0477_fot_58A-40152_W_tif
  70
32
  10
258324.000
  20
4524423.793
  30
886.7
  0
SEQEND
  8
PNOA-H_AMS_1956-57_33k_ES_PAN_21mic_H50_0477_fot_58A-40152_W_tif
  0
TEXT
  8
PNOA-H_AMS_1956-57_33k_ES_PAN_21mic_H50_0477_fot_58A-40152_W_tif
 62
0
  1
PNOA-H_AMS_1956-57_33k_ES_PAN_21mic_H50_0477_fot_58A-40152_W.tif
 40
41.63504
  10
257661.709
  20
4525442.647
  0
POLYLINE
  8
PNOA-H_AMS_1956-57_33k_ES_PAN_21mic_H50_0477_fot_58A-40153_W_tif
  70
9
  66
1
  0
VERTEX
  8
PNOA-H_AMS_1956-57_33k_ES_PAN_21mic_H50_0477_fot_58A-40153_W_tif
  70
32
  10
255394.501
  20
4524306.667
  30
872.278
  0
VERTEX
  8
PNOA-H_AMS_1956-57_33k_ES_PAN_21mic_H50_0477_fot_58A-40153_W_tif
  70
32
  10
253880.765
  20
4524357.096
  30
860.887
  0
VERTEX
  8
PNOA-H_AMS_1956-57_33k_ES_PAN_21mic_H50_0477_fot_58A-40153_W_tif
  70
32
  10
253829.500
  20
4524410.793
  30
860.3
  0
VERTEX
  8
PNOA-H_AMS_1956-57_33k_ES_PAN_21mic_H50_0477_fot_58A-40153_W_tif
  70
32
  10
253829.000
  20
4524412.793
  30
860
  0
VERTEX
  8
PNOA-H_AMS_1956-57_33k_ES_PAN_21mic_H50_0477_fot_58A-40153_W_tif
  70
32
  10
253831.500
  20
4524418.293
  30
860
  0
VERTEX
  8
PNOA-H_AMS_1956-57_33k_ES_PAN_21mic_H50_0477_fot_58A-40153_W_tif
  70
32
  10
253888.000
  20
4524532.293
  30
863
  0
VERTEX
  8
PNOA-H_AMS_1956-57_33k_ES_PAN_21mic_H50_0477_fot_58A-40153_W_tif
  70
32
  10
253888.000
  20
4524533.793
  30
863.18
  0
VERTEX
  8
PNOA-H_AMS_1956-57_33k_ES_PAN_21mic_H50_0477_fot_58A-40153_W_tif
  70
32
  10
255159.000
  20
4527131.793
  30
852
  0
VERTEX
  8
PNOA-H_AMS_1956-57_33k_ES_PAN_21mic_H50_0477_fot_58A-40153_W_tif
  70
32
  10
255209.000
  20
4527140.793
  30
853
  0
VERTEX
  8
PNOA-H_AMS_1956-57_33k_ES_PAN_21mic_H50_0477_fot_58A-40153_W_tif
  70
32
  10
255210.000
  20
4527140.793
  30
853
  0
VERTEX
  8
PNOA-H_AMS_1956-57_33k_ES_PAN_21mic_H50_0477_fot_58A-40153_W_tif
  70
32
  10
255210.500
  20
4527138.293
  30
853
  0
VERTEX
  8
PNOA-H_AMS_1956-57_33k_ES_PAN_21mic_H50_0477_fot_58A-40153_W_tif
  70
32
  10
255214.000
  20
4527114.293
  30
852
  0
VERTEX
  8
PNOA-H_AMS_1956-57_33k_ES_PAN_21mic_H50_0477_fot_58A-40153_W_tif
  70
32
  10
255576.000
  20
4524605.793
  30
872
  0
VERTEX
  8
PNOA-H_AMS_1956-57_33k_ES_PAN_21mic_H50_0477_fot_58A-40153_W_tif
  70
32
  10
255576.000
  20
4524601.793
  30
872
  0
VERTEX
  8
PNOA-H_AMS_1956-57_33k_ES_PAN_21mic_H50_0477_fot_58A-40153_W_tif
  70
32
  10
255574.000
  20
4524598.293
  30
872
  0
SEQEND
  8
PNOA-H_AMS_1956-57_33k_ES_PAN_21mic_H50_0477_fot_58A-40153_W_tif
  0
TEXT
  8
PNOA-H_AMS_1956-57_33k_ES_PAN_21mic_H50_0477_fot_58A-40153_W_tif
 62
0
  1
PNOA-H_AMS_1956-57_33k_ES_PAN_21mic_H50_0477_fot_58A-40153_W.tif
 40
41.63504
  10
254922.000
  20
4525605.397
  0
POLYLINE
  8
PNOA-H_AMS_1956-57_33k_ES_PAN_21mic_H50_0502_fot_000-36784_R_tif
  70
9
  66
1
  0
VERTEX
  8
PNOA-H_AMS_1956-57_33k_ES_PAN_21mic_H50_0502_fot_000-36784_R_tif
  70
32
  10
259351.025
  20
4524454.654
  30
896.906
  0
VERTEX
  8
PNOA-H_AMS_1956-57_33k_ES_PAN_21mic_H50_0502_fot_000-36784_R_tif
  70
32
  10
259341.967
  20
4524176.836
  30
902.577
  0
VERTEX
  8
PNOA-H_AMS_1956-57_33k_ES_PAN_21mic_H50_0502_fot_000-36784_R_tif
  70
32
  10
258227.416
  20
4524213.435
  30
889.476
  0
VERTEX
  8
PNOA-H_AMS_1956-57_33k_ES_PAN_21mic_H50_0502_fot_000-36784_R_tif
  70
32
  10
258324.000
  20
4524424.793
  30
886.5
  0
SEQEND
  8
PNOA-H_AMS_1956-57_33k_ES_PAN_21mic_H50_0502_fot_000-36784_R_tif
  0
TEXT
  8
PNOA-H_AMS_1956-57_33k_ES_PAN_21mic_H50_0502_fot_000-36784_R_tif
 62
0
  1
PNOA-H_AMS_1956-57_33k_ES_PAN_21mic_H50_0502_fot_000-36784_R.tif
 40
41.63504
  10
258925.705
  20
4524265.941
  0
POLYLINE
  8
PNOA-H_AMS_1956-57_33k_ES_PAN_21mic_H50_0502_fot_000-36785_R_tif
  70
9
  66
1
  0
VERTEX
  8
PNOA-H_AMS_1956-57_33k_ES_PAN_21mic_H50_0502_fot_000-36785_R_tif
  70
32
  10
256869.171
  20
4524258.036
  30
862.168
  0
VERTEX
  8
PNOA-H_AMS_1956-57_33k_ES_PAN_21mic_H50_0502_fot_000-36785_R_tif
  70
32
  10
255828.276
  20
4524292.217
  30
872.951
  0
VERTEX
  8
PNOA-H_AMS_1956-57_33k_ES_PAN_21mic_H50_0502_fot_000-36785_R_tif
  70
32
  10
255394.040
  20
4524306.683
  30
872.281
  0
VERTEX
  8
PNOA-H_AMS_1956-57_33k_ES_PAN_21mic_H50_0502_fot_000-36785_R_tif
  70
32
  10
255576.000
  20
4524602.293
  30
872
  0
VERTEX
  8
PNOA-H_AMS_1956-57_33k_ES_PAN_21mic_H50_0502_fot_000-36785_R_tif
  70
32
  10
256688.000
  20
4524453.293
  30
850
  0
SEQEND
  8
PNOA-H_AMS_1956-57_33k_ES_PAN_21mic_H50_0502_fot_000-36785_R_tif
  0
TEXT
  8
PNOA-H_AMS_1956-57_33k_ES_PAN_21mic_H50_0502_fot_000-36785_R_tif
 62
0
  1
PNOA-H_AMS_1956-57_33k_ES_PAN_21mic_H50_0502_fot_000-36785_R.tif
 40
41.63504
  10
256104.436
  20
4524336.147
  0
POLYLINE
  8
PNOA-H_AMS_1956-57_33k_ES_PAN_21mic_H50_0502_fot_000-39644_R_tif
  70
9
  66
1
  0
VERTEX
  8
PNOA-H_AMS_1956-57_33k_ES_PAN_21mic_H50_0502_fot_000-39644_R_tif
  70
32
  10
259351.012
  20
4524454.239
  30
896.948
  0
VERTEX
  8
PNOA-H_AMS_1956-57_33k_ES_PAN_21mic_H50_0502_fot_000-39644_R_tif
  70
32
  10
258324.000
  20
4524424.793
  30
886.5
  0
VERTEX
  8
PNOA-H_AMS_1956-57_33k_ES_PAN_21mic_H50_0502_fot_000-39644_R_tif
  70
32
  10
258117.500
  20
4526815.293
  30
848
  0
VERTEX
  8
PNOA-H_AMS_1956-57_33k_ES_PAN_21mic_H50_0502_fot_000-39644_R_tif
  70
32
  10
258537.000
  20
4527037.293
  30
852
  0
VERTEX
  8
PNOA-H_AMS_1956-57_33k_ES_PAN_21mic_H50_0502_fot_000-39644_R_tif
  70
32
  10
259428.366
  20
4526826.504
  30
855.403
  0
VERTEX
  8
PNOA-H_AMS_1956-57_33k_ES_PAN_21mic_H50_0502_fot_000-39644_R_tif
  70
32
  10
259417.386
  20
4526489.891
  30
869.342
  0
SEQEND
  8
PNOA-H_AMS_1956-57_33k_ES_PAN_21mic_H50_0502_fot_000-39644_R_tif
  0
TEXT
  8
PNOA-H_AMS_1956-57_33k_ES_PAN_21mic_H50_0502_fot_000-39644_R_tif
 62
0
  1
PNOA-H_AMS_1956-57_33k_ES_PAN_21mic_H50_0502_fot_000-39644_R.tif
 40
41.63504
  10
258905.581
  20
4525731.043
  0
POLYLINE
  8
PNOA-H_AMS_1956-57_33k_ES_PAN_21mic_H50_0502_fot_000-39643_R_tif
  70
9
  66
1
  0
VERTEX
  8
PNOA-H_AMS_1956-57_33k_ES_PAN_21mic_H50_0502_fot_000-39643_R_tif
  70
32
  10
255393.000
  20
4527264.793
  30
853
  0
VERTEX
  8
PNOA-H_AMS_1956-57_33k_ES_PAN_21mic_H50_0502_fot_000-39643_R_tif
  70
32
  10
255398.000
  20
4527266.293
  30
853
  0
VERTEX
  8
PNOA-H_AMS_1956-57_33k_ES_PAN_21mic_H50_0502_fot_000-39643_R_tif
  70
32
  10
257432.500
  20
4526842.293
  30
852
  0
VERTEX
  8
PNOA-H_AMS_1956-57_33k_ES_PAN_21mic_H50_0502_fot_000-39643_R_tif
  70
32
  10
257434.500
  20
4526841.793
  30
852
  0
VERTEX
  8
PNOA-H_AMS_1956-57_33k_ES_PAN_21mic_H50_0502_fot_000-39643_R_tif
  70
32
  10
257627.000
  20
4526802.293
  30
853.6
  0
VERTEX
  8
PNOA-H_AMS_1956-57_33k_ES_PAN_21mic_H50_0502_fot_000-39643_R_tif
  70
32
  10
257634.000
  20
4526800.793
  30
853
  0
VERTEX
  8
PNOA-H_AMS_1956-57_33k_ES_PAN_21mic_H50_0502_fot_000-39643_R_tif
  70
32
  10
257635.000
  20
4526799.293
  30
853
  0
VERTEX
  8
PNOA-H_AMS_1956-57_33k_ES_PAN_21mic_H50_0502_fot_000-39643_R_tif
  70
32
  10
256688.500
  20
4524453.293
  30
850
  0
VERTEX
  8
PNOA-H_AMS_1956-57_33k_ES_PAN_21mic_H50_0502_fot_000-39643_R_tif
  70
32
  10
255576.000
  20
4524602.293
  30
872
  0
VERTEX
  8
PNOA-H_AMS_1956-57_33k_ES_PAN_21mic_H50_0502_fot_000-39643_R_tif
  70
32
  10
255210.000
  20
4527140.793
  30
853
  0
SEQEND
  8
PNOA-H_AMS_1956-57_33k_ES_PAN_21mic_H50_0502_fot_000-39643_R_tif
  0
TEXT
  8
PNOA-H_AMS_1956-57_33k_ES_PAN_21mic_H50_0502_fot_000-39643_R_tif
 62
0
  1
PNOA-H_AMS_1956-57_33k_ES_PAN_21mic_H50_0502_fot_000-39643_R.tif
 40
41.63504
  10
256325.325
  20
4525859.793
  0
ENDSEC
  0
EOF
