  0
SECTION
  2
HEADER
  9
$ACADVER
  1
AC1009
  9
$LUNITS
  70
2
  9
$LIMMIN
  10
203120.499
  20
4525146.806
  9
$LIMMAX
  10
231906.879
  20
4544730.415
  9
$EXTMIN
  10
203120.499
  20
4525146.806
  9
$EXTMAX
  10
231906.879
  20
4544730.415
  999
Created by Global Mapper
  999
Projection: UTM
  999
Datum: ETRS89
  999
Ground Units: meters
  999
ZONE: 30
  0
ENDSEC
  0
SECTION
  2
TABLES
  0
ENDSEC
  0
SECTION
  2
BLOCKS
  0
ENDSEC
  0
SECTION
  2
ENTITIES
  0
POLYLINE
  8
PNOA-H_AMS_1956-57_33k_ES_PAN_21mic_H50_0449_fot_54A-29174_W_tif
  70
9
  66
1
  0
VERTEX
  8
PNOA-H_AMS_1956-57_33k_ES_PAN_21mic_H50_0449_fot_54A-29174_W_tif
  70
32
  10
205213.372
  20
4544676.360
  30
723.633
  0
VERTEX
  8
PNOA-H_AMS_1956-57_33k_ES_PAN_21mic_H50_0449_fot_54A-29174_W_tif
  70
32
  10
205126.500
  20
4542687.793
  30
719
  0
VERTEX
  8
PNOA-H_AMS_1956-57_33k_ES_PAN_21mic_H50_0449_fot_54A-29174_W_tif
  70
32
  10
205125.500
  20
4542685.793
  30
719
  0
VERTEX
  8
PNOA-H_AMS_1956-57_33k_ES_PAN_21mic_H50_0449_fot_54A-29174_W_tif
  70
32
  10
204176.500
  20
4542386.793
  30
699.3
  0
VERTEX
  8
PNOA-H_AMS_1956-57_33k_ES_PAN_21mic_H50_0449_fot_54A-29174_W_tif
  70
32
  10
203776.336
  20
4542501.831
  30
697.926
  0
VERTEX
  8
PNOA-H_AMS_1956-57_33k_ES_PAN_21mic_H50_0449_fot_54A-29174_W_tif
  70
32
  10
203866.276
  20
4544730.415
  30
723.622
  0
SEQEND
  8
PNOA-H_AMS_1956-57_33k_ES_PAN_21mic_H50_0449_fot_54A-29174_W_tif
  0
TEXT
  8
PNOA-H_AMS_1956-57_33k_ES_PAN_21mic_H50_0449_fot_54A-29174_W_tif
 62
0
  1
PNOA-H_AMS_1956-57_33k_ES_PAN_21mic_H50_0449_fot_54A-29174_W.tif
 40
41.77954
  10
204494.854
  20
4543558.604
  0
POLYLINE
  8
PNOA-H_AMS_1956-57_33k_ES_PAN_21mic_H50_0450_fot_54A-29171_W_tif
  70
9
  66
1
  0
VERTEX
  8
PNOA-H_AMS_1956-57_33k_ES_PAN_21mic_H50_0450_fot_54A-29171_W_tif
  70
32
  10
213630.307
  20
4544342.933
  30
781.814
  0
VERTEX
  8
PNOA-H_AMS_1956-57_33k_ES_PAN_21mic_H50_0450_fot_54A-29171_W_tif
  70
32
  10
213554.000
  20
4542973.293
  30
788
  0
VERTEX
  8
PNOA-H_AMS_1956-57_33k_ES_PAN_21mic_H50_0450_fot_54A-29171_W_tif
  70
32
  10
213554.000
  20
4542965.793
  30
788
  0
VERTEX
  8
PNOA-H_AMS_1956-57_33k_ES_PAN_21mic_H50_0450_fot_54A-29171_W_tif
  70
32
  10
213505.500
  20
4542098.293
  30
770.28
  0
VERTEX
  8
PNOA-H_AMS_1956-57_33k_ES_PAN_21mic_H50_0450_fot_54A-29171_W_tif
  70
32
  10
212608.500
  20
4541807.793
  30
777
  0
VERTEX
  8
PNOA-H_AMS_1956-57_33k_ES_PAN_21mic_H50_0450_fot_54A-29171_W_tif
  70
32
  10
212603.500
  20
4541807.293
  30
777
  0
VERTEX
  8
PNOA-H_AMS_1956-57_33k_ES_PAN_21mic_H50_0450_fot_54A-29171_W_tif
  70
32
  10
212590.000
  20
4541810.293
  30
777
  0
VERTEX
  8
PNOA-H_AMS_1956-57_33k_ES_PAN_21mic_H50_0450_fot_54A-29171_W_tif
  70
32
  10
210795.000
  20
4542215.793
  30
775
  0
VERTEX
  8
PNOA-H_AMS_1956-57_33k_ES_PAN_21mic_H50_0450_fot_54A-29171_W_tif
  70
32
  10
210847.135
  20
4544451.961
  30
783.812
  0
VERTEX
  8
PNOA-H_AMS_1956-57_33k_ES_PAN_21mic_H50_0450_fot_54A-29171_W_tif
  70
32
  10
210876.553
  20
4544450.795
  30
783.81
  0
SEQEND
  8
PNOA-H_AMS_1956-57_33k_ES_PAN_21mic_H50_0450_fot_54A-29171_W_tif
  0
TEXT
  8
PNOA-H_AMS_1956-57_33k_ES_PAN_21mic_H50_0450_fot_54A-29171_W_tif
 62
0
  1
PNOA-H_AMS_1956-57_33k_ES_PAN_21mic_H50_0450_fot_54A-29171_W.tif
 40
41.77954
  10
212212.654
  20
4543129.627
  0
POLYLINE
  8
PNOA-H_AMS_1956-57_33k_ES_PAN_21mic_H50_0450_fot_54A-29173_W_tif
  70
9
  66
1
  0
VERTEX
  8
PNOA-H_AMS_1956-57_33k_ES_PAN_21mic_H50_0450_fot_54A-29173_W_tif
  70
32
  10
208067.077
  20
4544562.184
  30
748.252
  0
VERTEX
  8
PNOA-H_AMS_1956-57_33k_ES_PAN_21mic_H50_0450_fot_54A-29173_W_tif
  70
32
  10
207962.000
  20
4542406.793
  30
742
  0
VERTEX
  8
PNOA-H_AMS_1956-57_33k_ES_PAN_21mic_H50_0450_fot_54A-29173_W_tif
  70
32
  10
207056.500
  20
4542142.793
  30
731.7
  0
VERTEX
  8
PNOA-H_AMS_1956-57_33k_ES_PAN_21mic_H50_0450_fot_54A-29173_W_tif
  70
32
  10
205126.000
  20
4542686.293
  30
719
  0
VERTEX
  8
PNOA-H_AMS_1956-57_33k_ES_PAN_21mic_H50_0450_fot_54A-29173_W_tif
  70
32
  10
205213.140
  20
4544676.370
  30
723.635
  0
VERTEX
  8
PNOA-H_AMS_1956-57_33k_ES_PAN_21mic_H50_0450_fot_54A-29173_W_tif
  70
32
  10
207371.425
  20
4544589.765
  30
748.233
  0
SEQEND
  8
PNOA-H_AMS_1956-57_33k_ES_PAN_21mic_H50_0450_fot_54A-29173_W_tif
  0
TEXT
  8
PNOA-H_AMS_1956-57_33k_ES_PAN_21mic_H50_0450_fot_54A-29173_W_tif
 62
0
  1
PNOA-H_AMS_1956-57_33k_ES_PAN_21mic_H50_0450_fot_54A-29173_W.tif
 40
41.77954
  10
206596.538
  20
4543409.582
  0
POLYLINE
  8
PNOA-H_AMS_1956-57_33k_ES_PAN_21mic_H50_0450_fot_54A-29172_W_tif
  70
9
  66
1
  0
VERTEX
  8
PNOA-H_AMS_1956-57_33k_ES_PAN_21mic_H50_0450_fot_54A-29172_W_tif
  70
32
  10
210847.058
  20
4544451.964
  30
780.185
  0
VERTEX
  8
PNOA-H_AMS_1956-57_33k_ES_PAN_21mic_H50_0450_fot_54A-29172_W_tif
  70
32
  10
210812.500
  20
4542971.793
  30
772.05
  0
VERTEX
  8
PNOA-H_AMS_1956-57_33k_ES_PAN_21mic_H50_0450_fot_54A-29172_W_tif
  70
32
  10
210812.500
  20
4542965.793
  30
772.5
  0
VERTEX
  8
PNOA-H_AMS_1956-57_33k_ES_PAN_21mic_H50_0450_fot_54A-29172_W_tif
  70
32
  10
210795.000
  20
4542215.793
  30
775
  0
VERTEX
  8
PNOA-H_AMS_1956-57_33k_ES_PAN_21mic_H50_0450_fot_54A-29172_W_tif
  70
32
  10
209817.500
  20
4541926.293
  30
745.5
  0
VERTEX
  8
PNOA-H_AMS_1956-57_33k_ES_PAN_21mic_H50_0450_fot_54A-29172_W_tif
  70
32
  10
207962.000
  20
4542406.793
  30
742
  0
VERTEX
  8
PNOA-H_AMS_1956-57_33k_ES_PAN_21mic_H50_0450_fot_54A-29172_W_tif
  70
32
  10
208066.860
  20
4544562.193
  30
748.253
  0
SEQEND
  8
PNOA-H_AMS_1956-57_33k_ES_PAN_21mic_H50_0450_fot_54A-29172_W_tif
  0
TEXT
  8
PNOA-H_AMS_1956-57_33k_ES_PAN_21mic_H50_0450_fot_54A-29172_W_tif
 62
0
  1
PNOA-H_AMS_1956-57_33k_ES_PAN_21mic_H50_0450_fot_54A-29172_W.tif
 40
41.77954
  10
209404.529
  20
4543244.243
  0
POLYLINE
  8
PNOA-H_AMS_1956-57_33k_ES_PAN_21mic_H50_0450_fot_54A-29169_W_tif
  70
9
  66
1
  0
VERTEX
  8
PNOA-H_AMS_1956-57_33k_ES_PAN_21mic_H50_0450_fot_54A-29169_W_tif
  70
32
  10
219261.760
  20
4544125.350
  30
808.494
  0
VERTEX
  8
PNOA-H_AMS_1956-57_33k_ES_PAN_21mic_H50_0450_fot_54A-29169_W_tif
  70
32
  10
219219.500
  20
4541834.793
  30
832
  0
VERTEX
  8
PNOA-H_AMS_1956-57_33k_ES_PAN_21mic_H50_0450_fot_54A-29169_W_tif
  70
32
  10
218435.500
  20
4541539.293
  30
826.4
  0
VERTEX
  8
PNOA-H_AMS_1956-57_33k_ES_PAN_21mic_H50_0450_fot_54A-29169_W_tif
  70
32
  10
216295.500
  20
4541934.793
  30
801
  0
VERTEX
  8
PNOA-H_AMS_1956-57_33k_ES_PAN_21mic_H50_0450_fot_54A-29169_W_tif
  70
32
  10
216432.449
  20
4544234.158
  30
767.242
  0
VERTEX
  8
PNOA-H_AMS_1956-57_33k_ES_PAN_21mic_H50_0450_fot_54A-29169_W_tif
  70
32
  10
217886.744
  20
4544177.891
  30
808.216
  0
SEQEND
  8
PNOA-H_AMS_1956-57_33k_ES_PAN_21mic_H50_0450_fot_54A-29169_W_tif
  0
TEXT
  8
PNOA-H_AMS_1956-57_33k_ES_PAN_21mic_H50_0450_fot_54A-29169_W_tif
 62
0
  1
PNOA-H_AMS_1956-57_33k_ES_PAN_21mic_H50_0450_fot_54A-29169_W.tif
 40
41.77954
  10
217845.500
  20
4544167.293
  0
POLYLINE
  8
PNOA-H_AMS_1956-57_33k_ES_PAN_21mic_H50_0450_fot_54A-29170_W_tif
  70
9
  66
1
  0
VERTEX
  8
PNOA-H_AMS_1956-57_33k_ES_PAN_21mic_H50_0450_fot_54A-29170_W_tif
  70
32
  10
216432.521
  20
4544234.155
  30
783.971
  0
VERTEX
  8
PNOA-H_AMS_1956-57_33k_ES_PAN_21mic_H50_0450_fot_54A-29170_W_tif
  70
32
  10
216297.000
  20
4541954.293
  30
799.6
  0
VERTEX
  8
PNOA-H_AMS_1956-57_33k_ES_PAN_21mic_H50_0450_fot_54A-29170_W_tif
  70
32
  10
216295.000
  20
4541934.293
  30
801
  0
VERTEX
  8
PNOA-H_AMS_1956-57_33k_ES_PAN_21mic_H50_0450_fot_54A-29170_W_tif
  70
32
  10
215512.500
  20
4541667.793
  30
774.55
  0
VERTEX
  8
PNOA-H_AMS_1956-57_33k_ES_PAN_21mic_H50_0450_fot_54A-29170_W_tif
  70
32
  10
213505.500
  20
4542098.293
  30
770.28
  0
VERTEX
  8
PNOA-H_AMS_1956-57_33k_ES_PAN_21mic_H50_0450_fot_54A-29170_W_tif
  70
32
  10
213630.434
  20
4544342.928
  30
770.781
  0
VERTEX
  8
PNOA-H_AMS_1956-57_33k_ES_PAN_21mic_H50_0450_fot_54A-29170_W_tif
  70
32
  10
214381.659
  20
4544313.503
  30
770.784
  0
SEQEND
  8
PNOA-H_AMS_1956-57_33k_ES_PAN_21mic_H50_0450_fot_54A-29170_W_tif
  0
TEXT
  8
PNOA-H_AMS_1956-57_33k_ES_PAN_21mic_H50_0450_fot_54A-29170_W_tif
 62
0
  1
PNOA-H_AMS_1956-57_33k_ES_PAN_21mic_H50_0450_fot_54A-29170_W.tif
 40
41.77954
  10
214969.010
  20
4543005.361
  0
POLYLINE
  8
PNOA-H_AMS_1956-57_33k_ES_PAN_21mic_H50_0450_fot_54A-29166_W_tif
  70
9
  66
1
  0
VERTEX
  8
PNOA-H_AMS_1956-57_33k_ES_PAN_21mic_H50_0450_fot_54A-29166_W_tif
  70
32
  10
227638.582
  20
4543809.563
  30
819.549
  0
VERTEX
  8
PNOA-H_AMS_1956-57_33k_ES_PAN_21mic_H50_0450_fot_54A-29166_W_tif
  70
32
  10
227540.500
  20
4541438.293
  30
818
  0
VERTEX
  8
PNOA-H_AMS_1956-57_33k_ES_PAN_21mic_H50_0450_fot_54A-29166_W_tif
  70
32
  10
226954.500
  20
4541219.793
  30
810
  0
VERTEX
  8
PNOA-H_AMS_1956-57_33k_ES_PAN_21mic_H50_0450_fot_54A-29166_W_tif
  70
32
  10
224746.000
  20
4541550.293
  30
795
  0
VERTEX
  8
PNOA-H_AMS_1956-57_33k_ES_PAN_21mic_H50_0450_fot_54A-29166_W_tif
  70
32
  10
224880.233
  20
4543912.330
  30
806.695
  0
VERTEX
  8
PNOA-H_AMS_1956-57_33k_ES_PAN_21mic_H50_0450_fot_54A-29166_W_tif
  70
32
  10
224896.853
  20
4543911.703
  30
806.696
  0
SEQEND
  8
PNOA-H_AMS_1956-57_33k_ES_PAN_21mic_H50_0450_fot_54A-29166_W_tif
  0
TEXT
  8
PNOA-H_AMS_1956-57_33k_ES_PAN_21mic_H50_0450_fot_54A-29166_W_tif
 62
0
  1
PNOA-H_AMS_1956-57_33k_ES_PAN_21mic_H50_0450_fot_54A-29166_W.tif
 40
41.77954
  10
226253.713
  20
4543753.043
  0
POLYLINE
  8
PNOA-H_AMS_1956-57_33k_ES_PAN_21mic_H50_0450_fot_54A-29168_W_tif
  70
9
  66
1
  0
VERTEX
  8
PNOA-H_AMS_1956-57_33k_ES_PAN_21mic_H50_0450_fot_54A-29168_W_tif
  70
32
  10
222098.676
  20
4544017.286
  30
820.363
  0
VERTEX
  8
PNOA-H_AMS_1956-57_33k_ES_PAN_21mic_H50_0450_fot_54A-29168_W_tif
  70
32
  10
222012.500
  20
4541693.293
  30
848
  0
VERTEX
  8
PNOA-H_AMS_1956-57_33k_ES_PAN_21mic_H50_0450_fot_54A-29168_W_tif
  70
32
  10
221397.500
  20
4541457.293
  30
842
  0
VERTEX
  8
PNOA-H_AMS_1956-57_33k_ES_PAN_21mic_H50_0450_fot_54A-29168_W_tif
  70
32
  10
219219.500
  20
4541834.793
  30
832
  0
VERTEX
  8
PNOA-H_AMS_1956-57_33k_ES_PAN_21mic_H50_0450_fot_54A-29168_W_tif
  70
32
  10
219261.760
  20
4544125.350
  30
808.494
  0
VERTEX
  8
PNOA-H_AMS_1956-57_33k_ES_PAN_21mic_H50_0450_fot_54A-29168_W_tif
  70
32
  10
221391.809
  20
4544043.958
  30
820.358
  0
SEQEND
  8
PNOA-H_AMS_1956-57_33k_ES_PAN_21mic_H50_0450_fot_54A-29168_W_tif
  0
TEXT
  8
PNOA-H_AMS_1956-57_33k_ES_PAN_21mic_H50_0450_fot_54A-29168_W_tif
 62
0
  1
PNOA-H_AMS_1956-57_33k_ES_PAN_21mic_H50_0450_fot_54A-29168_W.tif
 40
41.77954
  10
220680.332
  20
4544057.293
  0
POLYLINE
  8
PNOA-H_AMS_1956-57_33k_ES_PAN_21mic_H50_0450_fot_54A-29167_W_tif
  70
9
  66
1
  0
VERTEX
  8
PNOA-H_AMS_1956-57_33k_ES_PAN_21mic_H50_0450_fot_54A-29167_W_tif
  70
32
  10
224880.233
  20
4543912.330
  30
806.695
  0
VERTEX
  8
PNOA-H_AMS_1956-57_33k_ES_PAN_21mic_H50_0450_fot_54A-29167_W_tif
  70
32
  10
224746.000
  20
4541550.293
  30
795
  0
VERTEX
  8
PNOA-H_AMS_1956-57_33k_ES_PAN_21mic_H50_0450_fot_54A-29167_W_tif
  70
32
  10
224275.000
  20
4541376.293
  30
803.8
  0
VERTEX
  8
PNOA-H_AMS_1956-57_33k_ES_PAN_21mic_H50_0450_fot_54A-29167_W_tif
  70
32
  10
224265.500
  20
4541373.793
  30
803.93
  0
VERTEX
  8
PNOA-H_AMS_1956-57_33k_ES_PAN_21mic_H50_0450_fot_54A-29167_W_tif
  70
32
  10
222012.500
  20
4541693.293
  30
848
  0
VERTEX
  8
PNOA-H_AMS_1956-57_33k_ES_PAN_21mic_H50_0450_fot_54A-29167_W_tif
  70
32
  10
222098.481
  20
4544017.293
  30
820.345
  0
SEQEND
  8
PNOA-H_AMS_1956-57_33k_ES_PAN_21mic_H50_0450_fot_54A-29167_W_tif
  0
TEXT
  8
PNOA-H_AMS_1956-57_33k_ES_PAN_21mic_H50_0450_fot_54A-29167_W_tif
 62
0
  1
PNOA-H_AMS_1956-57_33k_ES_PAN_21mic_H50_0450_fot_54A-29167_W.tif
 40
41.77954
  10
223488.258
  20
4543930.293
  0
POLYLINE
  8
PNOA-H_AMS_1956-57_33k_ES_PAN_21mic_H50_0450_fot_54A-29164_W_tif
  70
9
  66
1
  0
VERTEX
  8
PNOA-H_AMS_1956-57_33k_ES_PAN_21mic_H50_0450_fot_54A-29164_W_tif
  70
32
  10
231816.077
  20
4541166.358
  30
806.068
  0
VERTEX
  8
PNOA-H_AMS_1956-57_33k_ES_PAN_21mic_H50_0450_fot_54A-29164_W_tif
  70
32
  10
230324.000
  20
4541401.293
  30
809
  0
VERTEX
  8
PNOA-H_AMS_1956-57_33k_ES_PAN_21mic_H50_0450_fot_54A-29164_W_tif
  70
32
  10
230407.140
  20
4543707.383
  30
821.471
  0
VERTEX
  8
PNOA-H_AMS_1956-57_33k_ES_PAN_21mic_H50_0450_fot_54A-29164_W_tif
  70
32
  10
231906.879
  20
4543652.229
  30
811.364
  0
VERTEX
  8
PNOA-H_AMS_1956-57_33k_ES_PAN_21mic_H50_0450_fot_54A-29164_W_tif
  70
32
  10
231822.382
  20
4541339.031
  30
806.108
  0
SEQEND
  8
PNOA-H_AMS_1956-57_33k_ES_PAN_21mic_H50_0450_fot_54A-29164_W_tif
  0
TEXT
  8
PNOA-H_AMS_1956-57_33k_ES_PAN_21mic_H50_0450_fot_54A-29164_W_tif
 62
0
  1
PNOA-H_AMS_1956-57_33k_ES_PAN_21mic_H50_0450_fot_54A-29164_W.tif
 40
41.77954
  10
231800.830
  20
4543495.793
  0
POLYLINE
  8
PNOA-H_AMS_1956-57_33k_ES_PAN_21mic_H50_0476_fot_57A-36831_E_tif
  70
9
  66
1
  0
VERTEX
  8
PNOA-H_AMS_1956-57_33k_ES_PAN_21mic_H50_0476_fot_57A-36831_E_tif
  70
32
  10
227080.500
  20
4530677.793
  30
741.91
  0
VERTEX
  8
PNOA-H_AMS_1956-57_33k_ES_PAN_21mic_H50_0476_fot_57A-36831_E_tif
  70
32
  10
225539.500
  20
4528739.793
  30
739.5
  0
VERTEX
  8
PNOA-H_AMS_1956-57_33k_ES_PAN_21mic_H50_0476_fot_57A-36831_E_tif
  70
32
  10
225536.000
  20
4528736.793
  30
739.08
  0
VERTEX
  8
PNOA-H_AMS_1956-57_33k_ES_PAN_21mic_H50_0476_fot_57A-36831_E_tif
  70
32
  10
224839.000
  20
4532187.293
  30
772
  0
VERTEX
  8
PNOA-H_AMS_1956-57_33k_ES_PAN_21mic_H50_0476_fot_57A-36831_E_tif
  70
32
  10
224849.500
  20
4532658.293
  30
765
  0
VERTEX
  8
PNOA-H_AMS_1956-57_33k_ES_PAN_21mic_H50_0476_fot_57A-36831_E_tif
  70
32
  10
225153.500
  20
4532829.293
  30
774
  0
VERTEX
  8
PNOA-H_AMS_1956-57_33k_ES_PAN_21mic_H50_0476_fot_57A-36831_E_tif
  70
32
  10
225155.500
  20
4532830.293
  30
774
  0
VERTEX
  8
PNOA-H_AMS_1956-57_33k_ES_PAN_21mic_H50_0476_fot_57A-36831_E_tif
  70
32
  10
225163.500
  20
4532829.793
  30
774.7
  0
VERTEX
  8
PNOA-H_AMS_1956-57_33k_ES_PAN_21mic_H50_0476_fot_57A-36831_E_tif
  70
32
  10
228058.500
  20
4532544.293
  30
764
  0
VERTEX
  8
PNOA-H_AMS_1956-57_33k_ES_PAN_21mic_H50_0476_fot_57A-36831_E_tif
  70
32
  10
228042.500
  20
4531886.293
  30
758
  0
VERTEX
  8
PNOA-H_AMS_1956-57_33k_ES_PAN_21mic_H50_0476_fot_57A-36831_E_tif
  70
32
  10
227081.500
  20
4530678.293
  30
741.86
  0
VERTEX
  8
PNOA-H_AMS_1956-57_33k_ES_PAN_21mic_H50_0476_fot_57A-36831_E_tif
  70
32
  10
227080.500
  20
4530677.793
  30
741.91
  0
SEQEND
  8
PNOA-H_AMS_1956-57_33k_ES_PAN_21mic_H50_0476_fot_57A-36831_E_tif
  0
TEXT
  8
PNOA-H_AMS_1956-57_33k_ES_PAN_21mic_H50_0476_fot_57A-36831_E_tif
 62
0
  1
PNOA-H_AMS_1956-57_33k_ES_PAN_21mic_H50_0476_fot_57A-36831_E.tif
 40
41.77954
  10
226143.893
  20
4530783.543
  0
POLYLINE
  8
PNOA-H_AMS_1956-57_33k_ES_PAN_21mic_H50_0477_fot_57A-36833_E_tif
  70
9
  66
1
  0
VERTEX
  8
PNOA-H_AMS_1956-57_33k_ES_PAN_21mic_H50_0477_fot_57A-36833_E_tif
  70
32
  10
231499.935
  20
4532502.761
  30
781.41
  0
VERTEX
  8
PNOA-H_AMS_1956-57_33k_ES_PAN_21mic_H50_0477_fot_57A-36833_E_tif
  70
32
  10
231484.748
  20
4532086.296
  30
773.939
  0
VERTEX
  8
PNOA-H_AMS_1956-57_33k_ES_PAN_21mic_H50_0477_fot_57A-36833_E_tif
  70
32
  10
231405.511
  20
4529912.559
  30
776.823
  0
VERTEX
  8
PNOA-H_AMS_1956-57_33k_ES_PAN_21mic_H50_0477_fot_57A-36833_E_tif
  70
32
  10
231227.500
  20
4531233.793
  30
761
  0
VERTEX
  8
PNOA-H_AMS_1956-57_33k_ES_PAN_21mic_H50_0477_fot_57A-36833_E_tif
  70
32
  10
231285.500
  20
4532500.293
  30
780
  0
SEQEND
  8
PNOA-H_AMS_1956-57_33k_ES_PAN_21mic_H50_0477_fot_57A-36833_E_tif
  0
TEXT
  8
PNOA-H_AMS_1956-57_33k_ES_PAN_21mic_H50_0477_fot_57A-36833_E_tif
 62
0
  1
PNOA-H_AMS_1956-57_33k_ES_PAN_21mic_H50_0477_fot_57A-36833_E.tif
 40
41.77954
  10
231363.717
  20
4531207.660
  0
POLYLINE
  8
PNOA-H_AMS_1956-57_33k_ES_PAN_21mic_H50_0476_fot_57A-36832_E_tif
  70
9
  66
1
  0
VERTEX
  8
PNOA-H_AMS_1956-57_33k_ES_PAN_21mic_H50_0476_fot_57A-36832_E_tif
  70
32
  10
228058.000
  20
4532543.793
  30
764
  0
VERTEX
  8
PNOA-H_AMS_1956-57_33k_ES_PAN_21mic_H50_0476_fot_57A-36832_E_tif
  70
32
  10
228067.000
  20
4532550.293
  30
763.16
  0
VERTEX
  8
PNOA-H_AMS_1956-57_33k_ES_PAN_21mic_H50_0476_fot_57A-36832_E_tif
  70
32
  10
228212.000
  20
4532639.793
  30
764
  0
VERTEX
  8
PNOA-H_AMS_1956-57_33k_ES_PAN_21mic_H50_0476_fot_57A-36832_E_tif
  70
32
  10
228212.500
  20
4532640.793
  30
764
  0
VERTEX
  8
PNOA-H_AMS_1956-57_33k_ES_PAN_21mic_H50_0476_fot_57A-36832_E_tif
  70
32
  10
231169.500
  20
4532579.793
  30
777
  0
VERTEX
  8
PNOA-H_AMS_1956-57_33k_ES_PAN_21mic_H50_0476_fot_57A-36832_E_tif
  70
32
  10
231285.500
  20
4532500.293
  30
780
  0
VERTEX
  8
PNOA-H_AMS_1956-57_33k_ES_PAN_21mic_H50_0476_fot_57A-36832_E_tif
  70
32
  10
231227.500
  20
4531234.293
  30
761
  0
VERTEX
  8
PNOA-H_AMS_1956-57_33k_ES_PAN_21mic_H50_0476_fot_57A-36832_E_tif
  70
32
  10
228516.000
  20
4529048.293
  30
766
  0
VERTEX
  8
PNOA-H_AMS_1956-57_33k_ES_PAN_21mic_H50_0476_fot_57A-36832_E_tif
  70
32
  10
228042.500
  20
4531886.793
  30
758
  0
SEQEND
  8
PNOA-H_AMS_1956-57_33k_ES_PAN_21mic_H50_0476_fot_57A-36832_E_tif
  0
TEXT
  8
PNOA-H_AMS_1956-57_33k_ES_PAN_21mic_H50_0476_fot_57A-36832_E_tif
 62
0
  1
PNOA-H_AMS_1956-57_33k_ES_PAN_21mic_H50_0476_fot_57A-36832_E.tif
 40
41.77954
  10
229480.209
  20
4530844.543
  0
POLYLINE
  8
PNOA-H_AMS_1956-57_33k_ES_PAN_21mic_H50_0476_fot_58A-40163_W_tif
  70
9
  66
1
  0
VERTEX
  8
PNOA-H_AMS_1956-57_33k_ES_PAN_21mic_H50_0476_fot_58A-40163_W_tif
  70
32
  10
226069.990
  20
4525336.787
  30
759.027
  0
VERTEX
  8
PNOA-H_AMS_1956-57_33k_ES_PAN_21mic_H50_0476_fot_58A-40163_W_tif
  70
32
  10
225259.671
  20
4525366.874
  30
764.295
  0
VERTEX
  8
PNOA-H_AMS_1956-57_33k_ES_PAN_21mic_H50_0476_fot_58A-40163_W_tif
  70
32
  10
224789.000
  20
4527210.793
  30
786
  0
VERTEX
  8
PNOA-H_AMS_1956-57_33k_ES_PAN_21mic_H50_0476_fot_58A-40163_W_tif
  70
32
  10
224787.000
  20
4527843.293
  30
790
  0
VERTEX
  8
PNOA-H_AMS_1956-57_33k_ES_PAN_21mic_H50_0476_fot_58A-40163_W_tif
  70
32
  10
225526.000
  20
4528272.793
  30
752
  0
VERTEX
  8
PNOA-H_AMS_1956-57_33k_ES_PAN_21mic_H50_0476_fot_58A-40163_W_tif
  70
32
  10
225526.500
  20
4528273.793
  30
752
  0
VERTEX
  8
PNOA-H_AMS_1956-57_33k_ES_PAN_21mic_H50_0476_fot_58A-40163_W_tif
  70
32
  10
227816.500
  20
4527845.793
  30
763
  0
VERTEX
  8
PNOA-H_AMS_1956-57_33k_ES_PAN_21mic_H50_0476_fot_58A-40163_W_tif
  70
32
  10
227784.500
  20
4526548.293
  30
757
  0
SEQEND
  8
PNOA-H_AMS_1956-57_33k_ES_PAN_21mic_H50_0476_fot_58A-40163_W_tif
  0
TEXT
  8
PNOA-H_AMS_1956-57_33k_ES_PAN_21mic_H50_0476_fot_58A-40163_W_tif
 62
0
  1
PNOA-H_AMS_1956-57_33k_ES_PAN_21mic_H50_0476_fot_58A-40163_W.tif
 40
41.77954
  10
226358.782
  20
4526656.897
  0
POLYLINE
  8
PNOA-H_AMS_1956-57_33k_ES_PAN_21mic_H50_0476_fot_58A-40162_W_tif
  70
9
  66
1
  0
VERTEX
  8
PNOA-H_AMS_1956-57_33k_ES_PAN_21mic_H50_0476_fot_58A-40162_W_tif
  70
32
  10
229013.938
  20
4525228.099
  30
770.241
  0
VERTEX
  8
PNOA-H_AMS_1956-57_33k_ES_PAN_21mic_H50_0476_fot_58A-40162_W_tif
  70
32
  10
228254.311
  20
4525255.941
  30
767.178
  0
VERTEX
  8
PNOA-H_AMS_1956-57_33k_ES_PAN_21mic_H50_0476_fot_58A-40162_W_tif
  70
32
  10
227784.500
  20
4526548.793
  30
757
  0
VERTEX
  8
PNOA-H_AMS_1956-57_33k_ES_PAN_21mic_H50_0476_fot_58A-40162_W_tif
  70
32
  10
227816.500
  20
4527842.293
  30
763
  0
VERTEX
  8
PNOA-H_AMS_1956-57_33k_ES_PAN_21mic_H50_0476_fot_58A-40162_W_tif
  70
32
  10
227817.000
  20
4527845.793
  30
763
  0
VERTEX
  8
PNOA-H_AMS_1956-57_33k_ES_PAN_21mic_H50_0476_fot_58A-40162_W_tif
  70
32
  10
227818.500
  20
4527846.793
  30
763
  0
VERTEX
  8
PNOA-H_AMS_1956-57_33k_ES_PAN_21mic_H50_0476_fot_58A-40162_W_tif
  70
32
  10
228497.500
  20
4528240.293
  30
774.7
  0
VERTEX
  8
PNOA-H_AMS_1956-57_33k_ES_PAN_21mic_H50_0476_fot_58A-40162_W_tif
  70
32
  10
228498.500
  20
4528240.793
  30
774.79
  0
VERTEX
  8
PNOA-H_AMS_1956-57_33k_ES_PAN_21mic_H50_0476_fot_58A-40162_W_tif
  70
32
  10
230716.000
  20
4527759.293
  30
789
  0
VERTEX
  8
PNOA-H_AMS_1956-57_33k_ES_PAN_21mic_H50_0476_fot_58A-40162_W_tif
  70
32
  10
230720.000
  20
4527758.293
  30
789
  0
VERTEX
  8
PNOA-H_AMS_1956-57_33k_ES_PAN_21mic_H50_0476_fot_58A-40162_W_tif
  70
32
  10
230720.000
  20
4527743.293
  30
789
  0
VERTEX
  8
PNOA-H_AMS_1956-57_33k_ES_PAN_21mic_H50_0476_fot_58A-40162_W_tif
  70
32
  10
230668.000
  20
4526169.793
  30
772
  0
SEQEND
  8
PNOA-H_AMS_1956-57_33k_ES_PAN_21mic_H50_0476_fot_58A-40162_W_tif
  0
TEXT
  8
PNOA-H_AMS_1956-57_33k_ES_PAN_21mic_H50_0476_fot_58A-40162_W_tif
 62
0
  1
PNOA-H_AMS_1956-57_33k_ES_PAN_21mic_H50_0476_fot_58A-40162_W.tif
 40
41.77954
  10
229235.159
  20
4526640.397
  0
POLYLINE
  8
PNOA-H_AMS_1956-57_33k_ES_PAN_21mic_H50_0476_fot_58A-40164_W_tif
  70
9
  66
1
  0
VERTEX
  8
PNOA-H_AMS_1956-57_33k_ES_PAN_21mic_H50_0476_fot_58A-40164_W_tif
  70
32
  10
223214.241
  20
4525443.291
  30
764.893
  0
VERTEX
  8
PNOA-H_AMS_1956-57_33k_ES_PAN_21mic_H50_0476_fot_58A-40164_W_tif
  70
32
  10
222158.076
  20
4525483.010
  30
757.089
  0
VERTEX
  8
PNOA-H_AMS_1956-57_33k_ES_PAN_21mic_H50_0476_fot_58A-40164_W_tif
  70
32
  10
221863.000
  20
4527958.793
  30
754.6
  0
VERTEX
  8
PNOA-H_AMS_1956-57_33k_ES_PAN_21mic_H50_0476_fot_58A-40164_W_tif
  70
32
  10
222502.500
  20
4528333.793
  30
765
  0
VERTEX
  8
PNOA-H_AMS_1956-57_33k_ES_PAN_21mic_H50_0476_fot_58A-40164_W_tif
  70
32
  10
222515.500
  20
4528341.293
  30
764
  0
VERTEX
  8
PNOA-H_AMS_1956-57_33k_ES_PAN_21mic_H50_0476_fot_58A-40164_W_tif
  70
32
  10
222518.500
  20
4528341.293
  30
764
  0
VERTEX
  8
PNOA-H_AMS_1956-57_33k_ES_PAN_21mic_H50_0476_fot_58A-40164_W_tif
  70
32
  10
224787.000
  20
4527843.293
  30
790
  0
VERTEX
  8
PNOA-H_AMS_1956-57_33k_ES_PAN_21mic_H50_0476_fot_58A-40164_W_tif
  70
32
  10
224789.000
  20
4527212.293
  30
786
  0
SEQEND
  8
PNOA-H_AMS_1956-57_33k_ES_PAN_21mic_H50_0476_fot_58A-40164_W_tif
  0
TEXT
  8
PNOA-H_AMS_1956-57_33k_ES_PAN_21mic_H50_0476_fot_58A-40164_W_tif
 62
0
  1
PNOA-H_AMS_1956-57_33k_ES_PAN_21mic_H50_0476_fot_58A-40164_W.tif
 40
41.77954
  10
223219.504
  20
4526820.647
  0
POLYLINE
  8
PNOA-H_AMS_1956-57_33k_ES_PAN_21mic_H50_0477_fot_58A-40161_W_tif
  70
9
  66
1
  0
VERTEX
  8
PNOA-H_AMS_1956-57_33k_ES_PAN_21mic_H50_0477_fot_58A-40161_W_tif
  70
32
  10
231339.002
  20
4528087.305
  30
778.32
  0
VERTEX
  8
PNOA-H_AMS_1956-57_33k_ES_PAN_21mic_H50_0477_fot_58A-40161_W_tif
  70
32
  10
231316.144
  20
4527459.964
  30
783.114
  0
VERTEX
  8
PNOA-H_AMS_1956-57_33k_ES_PAN_21mic_H50_0477_fot_58A-40161_W_tif
  70
32
  10
231231.896
  20
4525146.806
  30
769.363
  0
VERTEX
  8
PNOA-H_AMS_1956-57_33k_ES_PAN_21mic_H50_0477_fot_58A-40161_W_tif
  70
32
  10
231155.648
  20
4525149.601
  30
769.443
  0
VERTEX
  8
PNOA-H_AMS_1956-57_33k_ES_PAN_21mic_H50_0477_fot_58A-40161_W_tif
  70
32
  10
230668.000
  20
4526169.293
  30
772
  0
VERTEX
  8
PNOA-H_AMS_1956-57_33k_ES_PAN_21mic_H50_0477_fot_58A-40161_W_tif
  70
32
  10
230720.000
  20
4527758.293
  30
789
  0
SEQEND
  8
PNOA-H_AMS_1956-57_33k_ES_PAN_21mic_H50_0477_fot_58A-40161_W_tif
  0
TEXT
  8
PNOA-H_AMS_1956-57_33k_ES_PAN_21mic_H50_0477_fot_58A-40161_W_tif
 62
0
  1
PNOA-H_AMS_1956-57_33k_ES_PAN_21mic_H50_0477_fot_58A-40161_W.tif
 40
41.77954
  10
231003.501
  20
4526617.056
  0
POLYLINE
  8
PNOA-H_AMS_1956-57_33k_ES_PAN_21mic_H50_0476_fot_57B-04735_W_tif
  70
9
  66
1
  0
VERTEX
  8
PNOA-H_AMS_1956-57_33k_ES_PAN_21mic_H50_0476_fot_57B-04735_W_tif
  70
32
  10
228042.500
  20
4531886.793
  30
758
  0
VERTEX
  8
PNOA-H_AMS_1956-57_33k_ES_PAN_21mic_H50_0476_fot_57B-04735_W_tif
  70
32
  10
228516.000
  20
4529050.293
  30
766
  0
VERTEX
  8
PNOA-H_AMS_1956-57_33k_ES_PAN_21mic_H50_0476_fot_57B-04735_W_tif
  70
32
  10
228499.500
  20
4528241.293
  30
774.92
  0
VERTEX
  8
PNOA-H_AMS_1956-57_33k_ES_PAN_21mic_H50_0476_fot_57B-04735_W_tif
  70
32
  10
227816.500
  20
4527845.293
  30
763
  0
VERTEX
  8
PNOA-H_AMS_1956-57_33k_ES_PAN_21mic_H50_0476_fot_57B-04735_W_tif
  70
32
  10
225527.500
  20
4528273.793
  30
752
  0
VERTEX
  8
PNOA-H_AMS_1956-57_33k_ES_PAN_21mic_H50_0476_fot_57B-04735_W_tif
  70
32
  10
225536.000
  20
4528730.293
  30
740.2
  0
VERTEX
  8
PNOA-H_AMS_1956-57_33k_ES_PAN_21mic_H50_0476_fot_57B-04735_W_tif
  70
32
  10
225537.500
  20
4528738.293
  30
739.2
  0
VERTEX
  8
PNOA-H_AMS_1956-57_33k_ES_PAN_21mic_H50_0476_fot_57B-04735_W_tif
  70
32
  10
228042.000
  20
4531885.793
  30
758
  0
VERTEX
  8
PNOA-H_AMS_1956-57_33k_ES_PAN_21mic_H50_0476_fot_57B-04735_W_tif
  70
32
  10
228042.500
  20
4531886.793
  30
758
  0
SEQEND
  8
PNOA-H_AMS_1956-57_33k_ES_PAN_21mic_H50_0476_fot_57B-04735_W_tif
  0
TEXT
  8
PNOA-H_AMS_1956-57_33k_ES_PAN_21mic_H50_0476_fot_57B-04735_W_tif
 62
0
  1
PNOA-H_AMS_1956-57_33k_ES_PAN_21mic_H50_0476_fot_57B-04735_W.tif
 40
41.77954
  10
227407.344
  20
4529866.043
  0
POLYLINE
  8
PNOA-H_AMS_1956-57_33k_ES_PAN_21mic_H50_0476_fot_57B-04734_W_tif
  70
9
  66
1
  0
VERTEX
  8
PNOA-H_AMS_1956-57_33k_ES_PAN_21mic_H50_0476_fot_57B-04734_W_tif
  70
32
  10
231405.592
  20
4529914.781
  30
776.685
  0
VERTEX
  8
PNOA-H_AMS_1956-57_33k_ES_PAN_21mic_H50_0476_fot_57B-04734_W_tif
  70
32
  10
231400.428
  20
4529773.127
  30
778.331
  0
VERTEX
  8
PNOA-H_AMS_1956-57_33k_ES_PAN_21mic_H50_0476_fot_57B-04734_W_tif
  70
32
  10
231338.982
  20
4528086.730
  30
778.381
  0
VERTEX
  8
PNOA-H_AMS_1956-57_33k_ES_PAN_21mic_H50_0476_fot_57B-04734_W_tif
  70
32
  10
230734.500
  20
4527765.293
  30
789
  0
VERTEX
  8
PNOA-H_AMS_1956-57_33k_ES_PAN_21mic_H50_0476_fot_57B-04734_W_tif
  70
32
  10
230721.000
  20
4527758.293
  30
789
  0
VERTEX
  8
PNOA-H_AMS_1956-57_33k_ES_PAN_21mic_H50_0476_fot_57B-04734_W_tif
  70
32
  10
230718.000
  20
4527758.293
  30
789
  0
VERTEX
  8
PNOA-H_AMS_1956-57_33k_ES_PAN_21mic_H50_0476_fot_57B-04734_W_tif
  70
32
  10
228499.000
  20
4528240.793
  30
774.86
  0
VERTEX
  8
PNOA-H_AMS_1956-57_33k_ES_PAN_21mic_H50_0476_fot_57B-04734_W_tif
  70
32
  10
228516.000
  20
4529048.293
  30
766
  0
VERTEX
  8
PNOA-H_AMS_1956-57_33k_ES_PAN_21mic_H50_0476_fot_57B-04734_W_tif
  70
32
  10
228761.500
  20
4529245.793
  30
762.51
  0
VERTEX
  8
PNOA-H_AMS_1956-57_33k_ES_PAN_21mic_H50_0476_fot_57B-04734_W_tif
  70
32
  10
228762.000
  20
4529246.793
  30
762.46
  0
VERTEX
  8
PNOA-H_AMS_1956-57_33k_ES_PAN_21mic_H50_0476_fot_57B-04734_W_tif
  70
32
  10
231227.500
  20
4531234.293
  30
761
  0
SEQEND
  8
PNOA-H_AMS_1956-57_33k_ES_PAN_21mic_H50_0476_fot_57B-04734_W_tif
  0
TEXT
  8
PNOA-H_AMS_1956-57_33k_ES_PAN_21mic_H50_0476_fot_57B-04734_W_tif
 62
0
  1
PNOA-H_AMS_1956-57_33k_ES_PAN_21mic_H50_0476_fot_57B-04734_W.tif
 40
41.77954
  10
230266.790
  20
4529496.293
  0
POLYLINE
  8
PNOA-H_AMS_1956-57_33k_ES_PAN_21mic_H50_0476_fot_085-04736_X_tif
  70
9
  66
1
  0
VERTEX
  8
PNOA-H_AMS_1956-57_33k_ES_PAN_21mic_H50_0476_fot_085-04736_X_tif
  70
32
  10
225534.500
  20
4528629.793
  30
744
  0
VERTEX
  8
PNOA-H_AMS_1956-57_33k_ES_PAN_21mic_H50_0476_fot_085-04736_X_tif
  70
32
  10
225527.500
  20
4528273.793
  30
752
  0
VERTEX
  8
PNOA-H_AMS_1956-57_33k_ES_PAN_21mic_H50_0476_fot_085-04736_X_tif
  70
32
  10
224788.000
  20
4527843.293
  30
790
  0
VERTEX
  8
PNOA-H_AMS_1956-57_33k_ES_PAN_21mic_H50_0476_fot_085-04736_X_tif
  70
32
  10
222516.500
  20
4528341.293
  30
764
  0
VERTEX
  8
PNOA-H_AMS_1956-57_33k_ES_PAN_21mic_H50_0476_fot_085-04736_X_tif
  70
32
  10
222516.500
  20
4528357.293
  30
764
  0
VERTEX
  8
PNOA-H_AMS_1956-57_33k_ES_PAN_21mic_H50_0476_fot_085-04736_X_tif
  70
32
  10
222525.500
  20
4528372.293
  30
764
  0
VERTEX
  8
PNOA-H_AMS_1956-57_33k_ES_PAN_21mic_H50_0476_fot_085-04736_X_tif
  70
32
  10
224838.500
  20
4532187.793
  30
772
  0
VERTEX
  8
PNOA-H_AMS_1956-57_33k_ES_PAN_21mic_H50_0476_fot_085-04736_X_tif
  70
32
  10
224840.500
  20
4532182.793
  30
772
  0
VERTEX
  8
PNOA-H_AMS_1956-57_33k_ES_PAN_21mic_H50_0476_fot_085-04736_X_tif
  70
32
  10
225536.500
  20
4528736.793
  30
739.07
  0
VERTEX
  8
PNOA-H_AMS_1956-57_33k_ES_PAN_21mic_H50_0476_fot_085-04736_X_tif
  70
32
  10
225534.500
  20
4528654.293
  30
743
  0
VERTEX
  8
PNOA-H_AMS_1956-57_33k_ES_PAN_21mic_H50_0476_fot_085-04736_X_tif
  70
32
  10
225534.500
  20
4528629.793
  30
744
  0
SEQEND
  8
PNOA-H_AMS_1956-57_33k_ES_PAN_21mic_H50_0476_fot_085-04736_X_tif
  0
TEXT
  8
PNOA-H_AMS_1956-57_33k_ES_PAN_21mic_H50_0476_fot_085-04736_X_tif
 62
0
  1
PNOA-H_AMS_1956-57_33k_ES_PAN_21mic_H50_0476_fot_085-04736_X.tif
 40
41.77954
  10
224399.942
  20
4530015.543
  0
POLYLINE
  8
PNOA-H_AMS_1956-57_33k_ES_PAN_21mic_H50_0501_fot_000-36795_R_tif
  70
9
  66
1
  0
VERTEX
  8
PNOA-H_AMS_1956-57_33k_ES_PAN_21mic_H50_0501_fot_000-36795_R_tif
  70
32
  10
228254.854
  20
4525255.921
  30
767.234
  0
VERTEX
  8
PNOA-H_AMS_1956-57_33k_ES_PAN_21mic_H50_0501_fot_000-36795_R_tif
  70
32
  10
227718.047
  20
4525275.596
  30
766.59
  0
VERTEX
  8
PNOA-H_AMS_1956-57_33k_ES_PAN_21mic_H50_0501_fot_000-36795_R_tif
  70
32
  10
226070.135
  20
4525336.782
  30
754.463
  0
VERTEX
  8
PNOA-H_AMS_1956-57_33k_ES_PAN_21mic_H50_0501_fot_000-36795_R_tif
  70
32
  10
226713.500
  20
4525791.293
  30
748
  0
VERTEX
  8
PNOA-H_AMS_1956-57_33k_ES_PAN_21mic_H50_0501_fot_000-36795_R_tif
  70
32
  10
226714.000
  20
4525792.293
  30
748
  0
VERTEX
  8
PNOA-H_AMS_1956-57_33k_ES_PAN_21mic_H50_0501_fot_000-36795_R_tif
  70
32
  10
227785.000
  20
4526548.793
  30
757
  0
SEQEND
  8
PNOA-H_AMS_1956-57_33k_ES_PAN_21mic_H50_0501_fot_000-36795_R_tif
  0
TEXT
  8
PNOA-H_AMS_1956-57_33k_ES_PAN_21mic_H50_0501_fot_000-36795_R_tif
 62
0
  1
PNOA-H_AMS_1956-57_33k_ES_PAN_21mic_H50_0501_fot_000-36795_R.tif
 40
41.77954
  10
227388.070
  20
4525794.397
  0
POLYLINE
  8
PNOA-H_AMS_1956-57_33k_ES_PAN_21mic_H50_0501_fot_000-36794_R_tif
  70
9
  66
1
  0
VERTEX
  8
PNOA-H_AMS_1956-57_33k_ES_PAN_21mic_H50_0501_fot_000-36794_R_tif
  70
32
  10
231155.953
  20
4525149.590
  30
768.335
  0
VERTEX
  8
PNOA-H_AMS_1956-57_33k_ES_PAN_21mic_H50_0501_fot_000-36794_R_tif
  70
32
  10
229012.960
  20
4525228.135
  30
770.255
  0
VERTEX
  8
PNOA-H_AMS_1956-57_33k_ES_PAN_21mic_H50_0501_fot_000-36794_R_tif
  70
32
  10
230667.500
  20
4526169.793
  30
772
  0
VERTEX
  8
PNOA-H_AMS_1956-57_33k_ES_PAN_21mic_H50_0501_fot_000-36794_R_tif
  70
32
  10
230672.500
  20
4526161.293
  30
772
  0
VERTEX
  8
PNOA-H_AMS_1956-57_33k_ES_PAN_21mic_H50_0501_fot_000-36794_R_tif
  70
32
  10
230810.500
  20
4525872.293
  30
768.1
  0
VERTEX
  8
PNOA-H_AMS_1956-57_33k_ES_PAN_21mic_H50_0501_fot_000-36794_R_tif
  70
32
  10
230810.500
  20
4525871.293
  30
768.08
  0
SEQEND
  8
PNOA-H_AMS_1956-57_33k_ES_PAN_21mic_H50_0501_fot_000-36794_R_tif
  0
TEXT
  8
PNOA-H_AMS_1956-57_33k_ES_PAN_21mic_H50_0501_fot_000-36794_R_tif
 62
0
  1
PNOA-H_AMS_1956-57_33k_ES_PAN_21mic_H50_0501_fot_000-36794_R.tif
 40
41.77954
  10
230226.582
  20
4525479.897
  0
POLYLINE
  8
PNOA-H_AMS_1956-57_33k_ES_PAN_21mic_H50_0501_fot_000-36796_R_tif
  70
9
  66
1
  0
VERTEX
  8
PNOA-H_AMS_1956-57_33k_ES_PAN_21mic_H50_0501_fot_000-36796_R_tif
  70
32
  10
225259.957
  20
4525366.863
  30
764.287
  0
VERTEX
  8
PNOA-H_AMS_1956-57_33k_ES_PAN_21mic_H50_0501_fot_000-36796_R_tif
  70
32
  10
224204.176
  20
4525406.063
  30
760.372
  0
VERTEX
  8
PNOA-H_AMS_1956-57_33k_ES_PAN_21mic_H50_0501_fot_000-36796_R_tif
  70
32
  10
223214.373
  20
4525443.286
  30
762.635
  0
VERTEX
  8
PNOA-H_AMS_1956-57_33k_ES_PAN_21mic_H50_0501_fot_000-36796_R_tif
  70
32
  10
224789.000
  20
4527212.293
  30
786
  0
SEQEND
  8
PNOA-H_AMS_1956-57_33k_ES_PAN_21mic_H50_0501_fot_000-36796_R_tif
  0
TEXT
  8
PNOA-H_AMS_1956-57_33k_ES_PAN_21mic_H50_0501_fot_000-36796_R_tif
 62
0
  1
PNOA-H_AMS_1956-57_33k_ES_PAN_21mic_H50_0501_fot_000-36796_R.tif
 40
41.77954
  10
224444.193
  20
4526126.147
  0
POLYLINE
  8
PNOA-H_AMS_1956-57_33k_ES_PAN_21mic_H50_0476_fot_55A-03736_W_tif
  70
9
  66
1
  0
VERTEX
  8
PNOA-H_AMS_1956-57_33k_ES_PAN_21mic_H50_0476_fot_55A-03736_W_tif
  70
32
  10
231651.486
  20
4536657.617
  30
828.471
  0
VERTEX
  8
PNOA-H_AMS_1956-57_33k_ES_PAN_21mic_H50_0476_fot_55A-03736_W_tif
  70
32
  10
231233.000
  20
4536477.793
  30
827
  0
VERTEX
  8
PNOA-H_AMS_1956-57_33k_ES_PAN_21mic_H50_0476_fot_55A-03736_W_tif
  70
32
  10
229634.500
  20
4537007.793
  30
769.1
  0
VERTEX
  8
PNOA-H_AMS_1956-57_33k_ES_PAN_21mic_H50_0476_fot_55A-03736_W_tif
  70
32
  10
229631.000
  20
4541135.793
  30
779
  0
VERTEX
  8
PNOA-H_AMS_1956-57_33k_ES_PAN_21mic_H50_0476_fot_55A-03736_W_tif
  70
32
  10
230322.000
  20
4541400.793
  30
809
  0
VERTEX
  8
PNOA-H_AMS_1956-57_33k_ES_PAN_21mic_H50_0476_fot_55A-03736_W_tif
  70
32
  10
230323.500
  20
4541401.293
  30
809
  0
VERTEX
  8
PNOA-H_AMS_1956-57_33k_ES_PAN_21mic_H50_0476_fot_55A-03736_W_tif
  70
32
  10
231816.087
  20
4541166.624
  30
806.071
  0
VERTEX
  8
PNOA-H_AMS_1956-57_33k_ES_PAN_21mic_H50_0476_fot_55A-03736_W_tif
  70
32
  10
231737.920
  20
4539025.839
  30
817.978
  0
VERTEX
  8
PNOA-H_AMS_1956-57_33k_ES_PAN_21mic_H50_0476_fot_55A-03736_W_tif
  70
32
  10
231653.493
  20
4536712.652
  30
828.547
  0
SEQEND
  8
PNOA-H_AMS_1956-57_33k_ES_PAN_21mic_H50_0476_fot_55A-03736_W_tif
  0
TEXT
  8
PNOA-H_AMS_1956-57_33k_ES_PAN_21mic_H50_0476_fot_55A-03736_W_tif
 62
0
  1
PNOA-H_AMS_1956-57_33k_ES_PAN_21mic_H50_0476_fot_55A-03736_W.tif
 40
41.77954
  10
230999.773
  20
4538939.543
  0
POLYLINE
  8
PNOA-H_AMS_1956-57_33k_ES_PAN_21mic_H50_0477_fot_56A-04380_W_tif
  70
9
  66
1
  0
VERTEX
  8
PNOA-H_AMS_1956-57_33k_ES_PAN_21mic_H50_0477_fot_56A-04380_W_tif
  70
32
  10
231499.934
  20
4532502.731
  30
781.323
  0
VERTEX
  8
PNOA-H_AMS_1956-57_33k_ES_PAN_21mic_H50_0477_fot_56A-04380_W_tif
  70
32
  10
231285.000
  20
4532500.293
  30
780
  0
VERTEX
  8
PNOA-H_AMS_1956-57_33k_ES_PAN_21mic_H50_0477_fot_56A-04380_W_tif
  70
32
  10
231169.500
  20
4532579.293
  30
777
  0
VERTEX
  8
PNOA-H_AMS_1956-57_33k_ES_PAN_21mic_H50_0477_fot_56A-04380_W_tif
  70
32
  10
231232.000
  20
4536477.793
  30
827
  0
VERTEX
  8
PNOA-H_AMS_1956-57_33k_ES_PAN_21mic_H50_0477_fot_56A-04380_W_tif
  70
32
  10
231651.498
  20
4536657.947
  30
828.475
  0
VERTEX
  8
PNOA-H_AMS_1956-57_33k_ES_PAN_21mic_H50_0477_fot_56A-04380_W_tif
  70
32
  10
231569.103
  20
4534399.471
  30
800.421
  0
SEQEND
  8
PNOA-H_AMS_1956-57_33k_ES_PAN_21mic_H50_0477_fot_56A-04380_W_tif
  0
TEXT
  8
PNOA-H_AMS_1956-57_33k_ES_PAN_21mic_H50_0477_fot_56A-04380_W_tif
 62
0
  1
PNOA-H_AMS_1956-57_33k_ES_PAN_21mic_H50_0477_fot_56A-04380_W.tif
 40
41.77954
  10
231410.499
  20
4534579.120
  0
POLYLINE
  8
PNOA-H_AMS_1956-57_33k_ES_PAN_21mic_H50_0450_fot_54A-29165_W_tif
  70
9
  66
1
  0
VERTEX
  8
PNOA-H_AMS_1956-57_33k_ES_PAN_21mic_H50_0450_fot_54A-29165_W_tif
  70
32
  10
230407.296
  20
4543707.377
  30
821.456
  0
VERTEX
  8
PNOA-H_AMS_1956-57_33k_ES_PAN_21mic_H50_0450_fot_54A-29165_W_tif
  70
32
  10
230324.000
  20
4541401.293
  30
809
  0
VERTEX
  8
PNOA-H_AMS_1956-57_33k_ES_PAN_21mic_H50_0450_fot_54A-29165_W_tif
  70
32
  10
229631.000
  20
4541135.293
  30
779
  0
VERTEX
  8
PNOA-H_AMS_1956-57_33k_ES_PAN_21mic_H50_0450_fot_54A-29165_W_tif
  70
32
  10
227540.500
  20
4541438.293
  30
818
  0
VERTEX
  8
PNOA-H_AMS_1956-57_33k_ES_PAN_21mic_H50_0450_fot_54A-29165_W_tif
  70
32
  10
227638.346
  20
4543809.572
  30
819.549
  0
VERTEX
  8
PNOA-H_AMS_1956-57_33k_ES_PAN_21mic_H50_0450_fot_54A-29165_W_tif
  70
32
  10
228401.876
  20
4543781.127
  30
819.551
  0
SEQEND
  8
PNOA-H_AMS_1956-57_33k_ES_PAN_21mic_H50_0450_fot_54A-29165_W_tif
  0
TEXT
  8
PNOA-H_AMS_1956-57_33k_ES_PAN_21mic_H50_0450_fot_54A-29165_W_tif
 62
0
  1
PNOA-H_AMS_1956-57_33k_ES_PAN_21mic_H50_0450_fot_54A-29165_W.tif
 40
41.77954
  10
229017.759
  20
4543631.043
  0
POLYLINE
  8
PNOA-H_AMS_1956-57_33k_ES_PAN_21mic_H50_0475_fot_55A-03746_W_tif
  70
9
  66
1
  0
VERTEX
  8
PNOA-H_AMS_1956-57_33k_ES_PAN_21mic_H50_0475_fot_55A-03746_W_tif
  70
32
  10
203776.355
  20
4542502.324
  30
698.229
  0
VERTEX
  8
PNOA-H_AMS_1956-57_33k_ES_PAN_21mic_H50_0475_fot_55A-03746_W_tif
  70
32
  10
204176.500
  20
4542387.293
  30
699.3
  0
VERTEX
  8
PNOA-H_AMS_1956-57_33k_ES_PAN_21mic_H50_0475_fot_55A-03746_W_tif
  70
32
  10
203604.500
  20
4537989.793
  30
701
  0
VERTEX
  8
PNOA-H_AMS_1956-57_33k_ES_PAN_21mic_H50_0475_fot_55A-03746_W_tif
  70
32
  10
203594.321
  20
4537989.053
  30
700.978
  0
VERTEX
  8
PNOA-H_AMS_1956-57_33k_ES_PAN_21mic_H50_0475_fot_55A-03746_W_tif
  70
32
  10
203679.596
  20
4540103.803
  30
700.193
  0
VERTEX
  8
PNOA-H_AMS_1956-57_33k_ES_PAN_21mic_H50_0475_fot_55A-03746_W_tif
  70
32
  10
203772.916
  20
4542417.106
  30
698.281
  0
SEQEND
  8
PNOA-H_AMS_1956-57_33k_ES_PAN_21mic_H50_0475_fot_55A-03746_W_tif
  0
TEXT
  8
PNOA-H_AMS_1956-57_33k_ES_PAN_21mic_H50_0475_fot_55A-03746_W_tif
 62
0
  1
PNOA-H_AMS_1956-57_33k_ES_PAN_21mic_H50_0475_fot_55A-03746_W.tif
 40
41.77954
  10
203885.411
  20
4540245.689
  0
POLYLINE
  8
PNOA-H_AMS_1956-57_33k_ES_PAN_21mic_H50_0476_fot_55A-03745_W_tif
  70
9
  66
1
  0
VERTEX
  8
PNOA-H_AMS_1956-57_33k_ES_PAN_21mic_H50_0476_fot_55A-03745_W_tif
  70
32
  10
204176.000
  20
4542383.793
  30
699.2
  0
VERTEX
  8
PNOA-H_AMS_1956-57_33k_ES_PAN_21mic_H50_0476_fot_55A-03745_W_tif
  70
32
  10
204177.000
  20
4542387.293
  30
699.4
  0
VERTEX
  8
PNOA-H_AMS_1956-57_33k_ES_PAN_21mic_H50_0476_fot_55A-03745_W_tif
  70
32
  10
204183.000
  20
4542389.293
  30
700
  0
VERTEX
  8
PNOA-H_AMS_1956-57_33k_ES_PAN_21mic_H50_0476_fot_55A-03745_W_tif
  70
32
  10
204185.000
  20
4542389.793
  30
700
  0
VERTEX
  8
PNOA-H_AMS_1956-57_33k_ES_PAN_21mic_H50_0476_fot_55A-03745_W_tif
  70
32
  10
205127.000
  20
4542686.293
  30
719
  0
VERTEX
  8
PNOA-H_AMS_1956-57_33k_ES_PAN_21mic_H50_0476_fot_55A-03745_W_tif
  70
32
  10
207057.000
  20
4542142.793
  30
731.6
  0
VERTEX
  8
PNOA-H_AMS_1956-57_33k_ES_PAN_21mic_H50_0476_fot_55A-03745_W_tif
  70
32
  10
206472.500
  20
4537767.293
  30
715.5
  0
VERTEX
  8
PNOA-H_AMS_1956-57_33k_ES_PAN_21mic_H50_0476_fot_55A-03745_W_tif
  70
32
  10
204463.000
  20
4537526.793
  30
655.84
  0
VERTEX
  8
PNOA-H_AMS_1956-57_33k_ES_PAN_21mic_H50_0476_fot_55A-03745_W_tif
  70
32
  10
203604.500
  20
4537989.293
  30
701
  0
SEQEND
  8
PNOA-H_AMS_1956-57_33k_ES_PAN_21mic_H50_0476_fot_55A-03745_W_tif
  0
TEXT
  8
PNOA-H_AMS_1956-57_33k_ES_PAN_21mic_H50_0476_fot_55A-03745_W_tif
 62
0
  1
PNOA-H_AMS_1956-57_33k_ES_PAN_21mic_H50_0476_fot_55A-03745_W.tif
 40
41.77954
  10
205332.417
  20
4540106.543
  0
POLYLINE
  8
PNOA-H_AMS_1956-57_33k_ES_PAN_21mic_H50_0475_fot_56A-04390_W_tif
  70
9
  66
1
  0
VERTEX
  8
PNOA-H_AMS_1956-57_33k_ES_PAN_21mic_H50_0475_fot_56A-04390_W_tif
  70
32
  10
203594.321
  20
4537989.056
  30
700.839
  0
VERTEX
  8
PNOA-H_AMS_1956-57_33k_ES_PAN_21mic_H50_0475_fot_56A-04390_W_tif
  70
32
  10
203604.500
  20
4537989.793
  30
701
  0
VERTEX
  8
PNOA-H_AMS_1956-57_33k_ES_PAN_21mic_H50_0475_fot_56A-04390_W_tif
  70
32
  10
204463.500
  20
4537526.793
  30
655.83
  0
VERTEX
  8
PNOA-H_AMS_1956-57_33k_ES_PAN_21mic_H50_0475_fot_56A-04390_W_tif
  70
32
  10
204297.000
  20
4533916.793
  30
672.06
  0
VERTEX
  8
PNOA-H_AMS_1956-57_33k_ES_PAN_21mic_H50_0475_fot_56A-04390_W_tif
  70
32
  10
204051.500
  20
4533734.293
  30
682.18
  0
VERTEX
  8
PNOA-H_AMS_1956-57_33k_ES_PAN_21mic_H50_0475_fot_56A-04390_W_tif
  70
32
  10
203426.369
  20
4533821.607
  30
693.514
  0
VERTEX
  8
PNOA-H_AMS_1956-57_33k_ES_PAN_21mic_H50_0475_fot_56A-04390_W_tif
  70
32
  10
203493.073
  20
4535477.212
  30
665.226
  0
VERTEX
  8
PNOA-H_AMS_1956-57_33k_ES_PAN_21mic_H50_0475_fot_56A-04390_W_tif
  70
32
  10
203586.315
  20
4537790.505
  30
697.364
  0
SEQEND
  8
PNOA-H_AMS_1956-57_33k_ES_PAN_21mic_H50_0475_fot_56A-04390_W_tif
  0
TEXT
  8
PNOA-H_AMS_1956-57_33k_ES_PAN_21mic_H50_0475_fot_56A-04390_W_tif
 62
0
  1
PNOA-H_AMS_1956-57_33k_ES_PAN_21mic_H50_0475_fot_56A-04390_W.tif
 40
41.77954
  10
203944.934
  20
4535862.043
  0
POLYLINE
  8
PNOA-H_AMS_1956-57_33k_ES_PAN_21mic_H50_0475_fot_57A-36823_E_tif
  70
9
  66
1
  0
VERTEX
  8
PNOA-H_AMS_1956-57_33k_ES_PAN_21mic_H50_0475_fot_57A-36823_E_tif
  70
32
  10
203426.371
  20
4533821.660
  30
699.717
  0
VERTEX
  8
PNOA-H_AMS_1956-57_33k_ES_PAN_21mic_H50_0475_fot_57A-36823_E_tif
  70
32
  10
204051.000
  20
4533734.293
  30
682.12
  0
VERTEX
  8
PNOA-H_AMS_1956-57_33k_ES_PAN_21mic_H50_0475_fot_57A-36823_E_tif
  70
32
  10
203569.500
  20
4529898.793
  30
796.27
  0
VERTEX
  8
PNOA-H_AMS_1956-57_33k_ES_PAN_21mic_H50_0475_fot_57A-36823_E_tif
  70
32
  10
203267.204
  20
4529869.350
  30
785.798
  0
VERTEX
  8
PNOA-H_AMS_1956-57_33k_ES_PAN_21mic_H50_0475_fot_57A-36823_E_tif
  70
32
  10
203306.707
  20
4530850.642
  30
769.348
  0
VERTEX
  8
PNOA-H_AMS_1956-57_33k_ES_PAN_21mic_H50_0475_fot_57A-36823_E_tif
  70
32
  10
203399.871
  20
4533163.924
  30
701.227
  0
SEQEND
  8
PNOA-H_AMS_1956-57_33k_ES_PAN_21mic_H50_0475_fot_57A-36823_E_tif
  0
TEXT
  8
PNOA-H_AMS_1956-57_33k_ES_PAN_21mic_H50_0475_fot_57A-36823_E_tif
 62
0
  1
PNOA-H_AMS_1956-57_33k_ES_PAN_21mic_H50_0475_fot_57A-36823_E.tif
 40
41.77954
  10
203659.102
  20
4531845.505
  0
POLYLINE
  8
PNOA-H_AMS_1956-57_33k_ES_PAN_21mic_H50_0501_fot_000-36803_R_tif
  70
9
  66
1
  0
VERTEX
  8
PNOA-H_AMS_1956-57_33k_ES_PAN_21mic_H50_0501_fot_000-36803_R_tif
  70
32
  10
203966.859
  20
4526190.244
  30
756.609
  0
VERTEX
  8
PNOA-H_AMS_1956-57_33k_ES_PAN_21mic_H50_0501_fot_000-36803_R_tif
  70
32
  10
203120.499
  20
4526224.092
  30
757.184
  0
VERTEX
  8
PNOA-H_AMS_1956-57_33k_ES_PAN_21mic_H50_0501_fot_000-36803_R_tif
  70
32
  10
203213.584
  20
4528537.364
  30
758.159
  0
VERTEX
  8
PNOA-H_AMS_1956-57_33k_ES_PAN_21mic_H50_0501_fot_000-36803_R_tif
  70
32
  10
203267.202
  20
4529869.285
  30
785.866
  0
VERTEX
  8
PNOA-H_AMS_1956-57_33k_ES_PAN_21mic_H50_0501_fot_000-36803_R_tif
  70
32
  10
203570.000
  20
4529898.793
  30
796.3
  0
VERTEX
  8
PNOA-H_AMS_1956-57_33k_ES_PAN_21mic_H50_0501_fot_000-36803_R_tif
  70
32
  10
204322.500
  20
4529531.793
  30
781.9
  0
VERTEX
  8
PNOA-H_AMS_1956-57_33k_ES_PAN_21mic_H50_0501_fot_000-36803_R_tif
  70
32
  10
204008.500
  20
4526583.793
  30
753
  0
VERTEX
  8
PNOA-H_AMS_1956-57_33k_ES_PAN_21mic_H50_0501_fot_000-36803_R_tif
  70
32
  10
204008.500
  20
4526581.793
  30
753
  0
SEQEND
  8
PNOA-H_AMS_1956-57_33k_ES_PAN_21mic_H50_0501_fot_000-36803_R_tif
  0
TEXT
  8
PNOA-H_AMS_1956-57_33k_ES_PAN_21mic_H50_0501_fot_000-36803_R_tif
 62
0
  1
PNOA-H_AMS_1956-57_33k_ES_PAN_21mic_H50_0501_fot_000-36803_R.tif
 40
41.77954
  10
203338.812
  20
4527869.397
  0
POLYLINE
  8
PNOA-H_AMS_1956-57_33k_ES_PAN_21mic_H50_0476_fot_55A-03744_W_tif
  70
9
  66
1
  0
VERTEX
  8
PNOA-H_AMS_1956-57_33k_ES_PAN_21mic_H50_0476_fot_55A-03744_W_tif
  70
32
  10
208282.500
  20
4542323.793
  30
742
  0
VERTEX
  8
PNOA-H_AMS_1956-57_33k_ES_PAN_21mic_H50_0476_fot_55A-03744_W_tif
  70
32
  10
209817.500
  20
4541926.293
  30
745.5
  0
VERTEX
  8
PNOA-H_AMS_1956-57_33k_ES_PAN_21mic_H50_0476_fot_55A-03744_W_tif
  70
32
  10
209438.500
  20
4537524.793
  30
734
  0
VERTEX
  8
PNOA-H_AMS_1956-57_33k_ES_PAN_21mic_H50_0476_fot_55A-03744_W_tif
  70
32
  10
209438.000
  20
4537521.793
  30
734
  0
VERTEX
  8
PNOA-H_AMS_1956-57_33k_ES_PAN_21mic_H50_0476_fot_55A-03744_W_tif
  70
32
  10
209428.000
  20
4537520.293
  30
734
  0
VERTEX
  8
PNOA-H_AMS_1956-57_33k_ES_PAN_21mic_H50_0476_fot_55A-03744_W_tif
  70
32
  10
207491.000
  20
4537236.293
  30
726
  0
VERTEX
  8
PNOA-H_AMS_1956-57_33k_ES_PAN_21mic_H50_0476_fot_55A-03744_W_tif
  70
32
  10
206472.500
  20
4537767.293
  30
715.5
  0
VERTEX
  8
PNOA-H_AMS_1956-57_33k_ES_PAN_21mic_H50_0476_fot_55A-03744_W_tif
  70
32
  10
207056.500
  20
4542142.293
  30
731.7
  0
VERTEX
  8
PNOA-H_AMS_1956-57_33k_ES_PAN_21mic_H50_0476_fot_55A-03744_W_tif
  70
32
  10
207060.500
  20
4542144.293
  30
731
  0
VERTEX
  8
PNOA-H_AMS_1956-57_33k_ES_PAN_21mic_H50_0476_fot_55A-03744_W_tif
  70
32
  10
207960.500
  20
4542406.793
  30
742
  0
VERTEX
  8
PNOA-H_AMS_1956-57_33k_ES_PAN_21mic_H50_0476_fot_55A-03744_W_tif
  70
32
  10
208280.000
  20
4542324.293
  30
742
  0
VERTEX
  8
PNOA-H_AMS_1956-57_33k_ES_PAN_21mic_H50_0476_fot_55A-03744_W_tif
  70
32
  10
208282.500
  20
4542323.793
  30
742
  0
SEQEND
  8
PNOA-H_AMS_1956-57_33k_ES_PAN_21mic_H50_0476_fot_55A-03744_W_tif
  0
TEXT
  8
PNOA-H_AMS_1956-57_33k_ES_PAN_21mic_H50_0476_fot_55A-03744_W_tif
 62
0
  1
PNOA-H_AMS_1956-57_33k_ES_PAN_21mic_H50_0476_fot_55A-03744_W.tif
 40
41.77954
  10
208191.490
  20
4539821.543
  0
POLYLINE
  8
PNOA-H_AMS_1956-57_33k_ES_PAN_21mic_H50_0476_fot_55A-03743_W_tif
  70
9
  66
1
  0
VERTEX
  8
PNOA-H_AMS_1956-57_33k_ES_PAN_21mic_H50_0476_fot_55A-03743_W_tif
  70
32
  10
210329.500
  20
4542078.293
  30
764
  0
VERTEX
  8
PNOA-H_AMS_1956-57_33k_ES_PAN_21mic_H50_0476_fot_55A-03743_W_tif
  70
32
  10
210796.000
  20
4542215.793
  30
775
  0
VERTEX
  8
PNOA-H_AMS_1956-57_33k_ES_PAN_21mic_H50_0476_fot_55A-03743_W_tif
  70
32
  10
212605.500
  20
4541807.293
  30
777
  0
VERTEX
  8
PNOA-H_AMS_1956-57_33k_ES_PAN_21mic_H50_0476_fot_55A-03743_W_tif
  70
32
  10
212413.000
  20
4537422.793
  30
744
  0
VERTEX
  8
PNOA-H_AMS_1956-57_33k_ES_PAN_21mic_H50_0476_fot_55A-03743_W_tif
  70
32
  10
212412.500
  20
4537411.793
  30
744
  0
VERTEX
  8
PNOA-H_AMS_1956-57_33k_ES_PAN_21mic_H50_0476_fot_55A-03743_W_tif
  70
32
  10
212411.000
  20
4537408.293
  30
744
  0
VERTEX
  8
PNOA-H_AMS_1956-57_33k_ES_PAN_21mic_H50_0476_fot_55A-03743_W_tif
  70
32
  10
210348.000
  20
4537058.293
  30
703.32
  0
VERTEX
  8
PNOA-H_AMS_1956-57_33k_ES_PAN_21mic_H50_0476_fot_55A-03743_W_tif
  70
32
  10
209438.000
  20
4537521.793
  30
734
  0
VERTEX
  8
PNOA-H_AMS_1956-57_33k_ES_PAN_21mic_H50_0476_fot_55A-03743_W_tif
  70
32
  10
209817.000
  20
4541925.793
  30
745.4
  0
VERTEX
  8
PNOA-H_AMS_1956-57_33k_ES_PAN_21mic_H50_0476_fot_55A-03743_W_tif
  70
32
  10
209817.500
  20
4541926.793
  30
745.5
  0
VERTEX
  8
PNOA-H_AMS_1956-57_33k_ES_PAN_21mic_H50_0476_fot_55A-03743_W_tif
  70
32
  10
210328.000
  20
4542077.793
  30
764
  0
VERTEX
  8
PNOA-H_AMS_1956-57_33k_ES_PAN_21mic_H50_0476_fot_55A-03743_W_tif
  70
32
  10
210329.500
  20
4542078.293
  30
764
  0
SEQEND
  8
PNOA-H_AMS_1956-57_33k_ES_PAN_21mic_H50_0476_fot_55A-03743_W_tif
  0
TEXT
  8
PNOA-H_AMS_1956-57_33k_ES_PAN_21mic_H50_0476_fot_55A-03743_W_tif
 62
0
  1
PNOA-H_AMS_1956-57_33k_ES_PAN_21mic_H50_0476_fot_55A-03743_W.tif
 40
41.77954
  10
211065.125
  20
4539637.043
  0
POLYLINE
  8
PNOA-H_AMS_1956-57_33k_ES_PAN_21mic_H50_0476_fot_56A-04387_W_tif
  70
9
  66
1
  0
VERTEX
  8
PNOA-H_AMS_1956-57_33k_ES_PAN_21mic_H50_0476_fot_56A-04387_W_tif
  70
32
  10
210330.000
  20
4535939.293
  30
690
  0
VERTEX
  8
PNOA-H_AMS_1956-57_33k_ES_PAN_21mic_H50_0476_fot_56A-04387_W_tif
  70
32
  10
210348.000
  20
4537056.793
  30
703.5
  0
VERTEX
  8
PNOA-H_AMS_1956-57_33k_ES_PAN_21mic_H50_0476_fot_56A-04387_W_tif
  70
32
  10
210349.500
  20
4537058.793
  30
703.07
  0
VERTEX
  8
PNOA-H_AMS_1956-57_33k_ES_PAN_21mic_H50_0476_fot_56A-04387_W_tif
  70
32
  10
212412.500
  20
4537408.793
  30
744
  0
VERTEX
  8
PNOA-H_AMS_1956-57_33k_ES_PAN_21mic_H50_0476_fot_56A-04387_W_tif
  70
32
  10
213318.000
  20
4536945.293
  30
755.24
  0
VERTEX
  8
PNOA-H_AMS_1956-57_33k_ES_PAN_21mic_H50_0476_fot_56A-04387_W_tif
  70
32
  10
213308.500
  20
4533192.793
  30
761
  0
VERTEX
  8
PNOA-H_AMS_1956-57_33k_ES_PAN_21mic_H50_0476_fot_56A-04387_W_tif
  70
32
  10
212979.500
  20
4532976.293
  30
733.98
  0
VERTEX
  8
PNOA-H_AMS_1956-57_33k_ES_PAN_21mic_H50_0476_fot_56A-04387_W_tif
  70
32
  10
210288.500
  20
4533338.793
  30
725
  0
VERTEX
  8
PNOA-H_AMS_1956-57_33k_ES_PAN_21mic_H50_0476_fot_56A-04387_W_tif
  70
32
  10
210330.000
  20
4535908.293
  30
689
  0
VERTEX
  8
PNOA-H_AMS_1956-57_33k_ES_PAN_21mic_H50_0476_fot_56A-04387_W_tif
  70
32
  10
210330.000
  20
4535939.293
  30
690
  0
SEQEND
  8
PNOA-H_AMS_1956-57_33k_ES_PAN_21mic_H50_0476_fot_56A-04387_W_tif
  0
TEXT
  8
PNOA-H_AMS_1956-57_33k_ES_PAN_21mic_H50_0476_fot_56A-04387_W_tif
 62
0
  1
PNOA-H_AMS_1956-57_33k_ES_PAN_21mic_H50_0476_fot_56A-04387_W.tif
 40
41.77954
  10
211816.001
  20
4535192.543
  0
POLYLINE
  8
PNOA-H_AMS_1956-57_33k_ES_PAN_21mic_H50_0476_fot_56A-04389_W_tif
  70
9
  66
1
  0
VERTEX
  8
PNOA-H_AMS_1956-57_33k_ES_PAN_21mic_H50_0476_fot_56A-04389_W_tif
  70
32
  10
204463.500
  20
4537526.793
  30
655.83
  0
VERTEX
  8
PNOA-H_AMS_1956-57_33k_ES_PAN_21mic_H50_0476_fot_56A-04389_W_tif
  70
32
  10
206466.500
  20
4537766.793
  30
715.37
  0
VERTEX
  8
PNOA-H_AMS_1956-57_33k_ES_PAN_21mic_H50_0476_fot_56A-04389_W_tif
  70
32
  10
206470.500
  20
4537767.293
  30
715.9
  0
VERTEX
  8
PNOA-H_AMS_1956-57_33k_ES_PAN_21mic_H50_0476_fot_56A-04389_W_tif
  70
32
  10
206473.000
  20
4537767.293
  30
715.4
  0
VERTEX
  8
PNOA-H_AMS_1956-57_33k_ES_PAN_21mic_H50_0476_fot_56A-04389_W_tif
  70
32
  10
206490.500
  20
4537758.293
  30
716
  0
VERTEX
  8
PNOA-H_AMS_1956-57_33k_ES_PAN_21mic_H50_0476_fot_56A-04389_W_tif
  70
32
  10
207491.500
  20
4537236.293
  30
726
  0
VERTEX
  8
PNOA-H_AMS_1956-57_33k_ES_PAN_21mic_H50_0476_fot_56A-04389_W_tif
  70
32
  10
207278.500
  20
4533607.293
  30
686.3
  0
VERTEX
  8
PNOA-H_AMS_1956-57_33k_ES_PAN_21mic_H50_0476_fot_56A-04389_W_tif
  70
32
  10
207278.000
  20
4533604.793
  30
686.4
  0
VERTEX
  8
PNOA-H_AMS_1956-57_33k_ES_PAN_21mic_H50_0476_fot_56A-04389_W_tif
  70
32
  10
207270.000
  20
4533599.293
  30
687.4
  0
VERTEX
  8
PNOA-H_AMS_1956-57_33k_ES_PAN_21mic_H50_0476_fot_56A-04389_W_tif
  70
32
  10
207014.000
  20
4533426.793
  30
706.3
  0
VERTEX
  8
PNOA-H_AMS_1956-57_33k_ES_PAN_21mic_H50_0476_fot_56A-04389_W_tif
  70
32
  10
204297.000
  20
4533916.793
  30
672.06
  0
SEQEND
  8
PNOA-H_AMS_1956-57_33k_ES_PAN_21mic_H50_0476_fot_56A-04389_W_tif
  0
TEXT
  8
PNOA-H_AMS_1956-57_33k_ES_PAN_21mic_H50_0476_fot_56A-04389_W_tif
 62
0
  1
PNOA-H_AMS_1956-57_33k_ES_PAN_21mic_H50_0476_fot_56A-04389_W.tif
 40
41.77954
  10
205884.891
  20
4535597.043
  0
POLYLINE
  8
PNOA-H_AMS_1956-57_33k_ES_PAN_21mic_H50_0476_fot_56A-04388_W_tif
  70
9
  66
1
  0
VERTEX
  8
PNOA-H_AMS_1956-57_33k_ES_PAN_21mic_H50_0476_fot_56A-04388_W_tif
  70
32
  10
208279.500
  20
4537352.293
  30
683
  0
VERTEX
  8
PNOA-H_AMS_1956-57_33k_ES_PAN_21mic_H50_0476_fot_56A-04388_W_tif
  70
32
  10
209439.000
  20
4537521.793
  30
734
  0
VERTEX
  8
PNOA-H_AMS_1956-57_33k_ES_PAN_21mic_H50_0476_fot_56A-04388_W_tif
  70
32
  10
210348.500
  20
4537058.293
  30
703.24
  0
VERTEX
  8
PNOA-H_AMS_1956-57_33k_ES_PAN_21mic_H50_0476_fot_56A-04388_W_tif
  70
32
  10
210288.500
  20
4533338.793
  30
725
  0
VERTEX
  8
PNOA-H_AMS_1956-57_33k_ES_PAN_21mic_H50_0476_fot_56A-04388_W_tif
  70
32
  10
210029.500
  20
4533174.293
  30
713
  0
VERTEX
  8
PNOA-H_AMS_1956-57_33k_ES_PAN_21mic_H50_0476_fot_56A-04388_W_tif
  70
32
  10
207278.000
  20
4533605.293
  30
686.4
  0
VERTEX
  8
PNOA-H_AMS_1956-57_33k_ES_PAN_21mic_H50_0476_fot_56A-04388_W_tif
  70
32
  10
207491.500
  20
4537236.293
  30
726
  0
VERTEX
  8
PNOA-H_AMS_1956-57_33k_ES_PAN_21mic_H50_0476_fot_56A-04388_W_tif
  70
32
  10
208276.000
  20
4537351.793
  30
682.8
  0
VERTEX
  8
PNOA-H_AMS_1956-57_33k_ES_PAN_21mic_H50_0476_fot_56A-04388_W_tif
  70
32
  10
208279.500
  20
4537352.293
  30
683
  0
SEQEND
  8
PNOA-H_AMS_1956-57_33k_ES_PAN_21mic_H50_0476_fot_56A-04388_W_tif
  0
TEXT
  8
PNOA-H_AMS_1956-57_33k_ES_PAN_21mic_H50_0476_fot_56A-04388_W_tif
 62
0
  1
PNOA-H_AMS_1956-57_33k_ES_PAN_21mic_H50_0476_fot_56A-04388_W.tif
 40
41.77954
  10
208850.692
  20
4535348.043
  0
POLYLINE
  8
PNOA-H_AMS_1956-57_33k_ES_PAN_21mic_H50_0476_fot_57A-36825_E_tif
  70
9
  66
1
  0
VERTEX
  8
PNOA-H_AMS_1956-57_33k_ES_PAN_21mic_H50_0476_fot_57A-36825_E_tif
  70
32
  10
208282.500
  20
4533447.793
  30
675
  0
VERTEX
  8
PNOA-H_AMS_1956-57_33k_ES_PAN_21mic_H50_0476_fot_57A-36825_E_tif
  70
32
  10
210029.000
  20
4533173.793
  30
713
  0
VERTEX
  8
PNOA-H_AMS_1956-57_33k_ES_PAN_21mic_H50_0476_fot_57A-36825_E_tif
  70
32
  10
209498.500
  20
4529357.293
  30
747.3
  0
VERTEX
  8
PNOA-H_AMS_1956-57_33k_ES_PAN_21mic_H50_0476_fot_57A-36825_E_tif
  70
32
  10
208002.500
  20
4529220.293
  30
777
  0
VERTEX
  8
PNOA-H_AMS_1956-57_33k_ES_PAN_21mic_H50_0476_fot_57A-36825_E_tif
  70
32
  10
207214.500
  20
4529251.293
  30
770
  0
VERTEX
  8
PNOA-H_AMS_1956-57_33k_ES_PAN_21mic_H50_0476_fot_57A-36825_E_tif
  70
32
  10
206530.500
  20
4529627.293
  30
751
  0
VERTEX
  8
PNOA-H_AMS_1956-57_33k_ES_PAN_21mic_H50_0476_fot_57A-36825_E_tif
  70
32
  10
206525.000
  20
4529630.793
  30
750.3
  0
VERTEX
  8
PNOA-H_AMS_1956-57_33k_ES_PAN_21mic_H50_0476_fot_57A-36825_E_tif
  70
32
  10
206525.000
  20
4529633.293
  30
750
  0
VERTEX
  8
PNOA-H_AMS_1956-57_33k_ES_PAN_21mic_H50_0476_fot_57A-36825_E_tif
  70
32
  10
207013.500
  20
4533426.793
  30
706.4
  0
VERTEX
  8
PNOA-H_AMS_1956-57_33k_ES_PAN_21mic_H50_0476_fot_57A-36825_E_tif
  70
32
  10
207278.000
  20
4533605.293
  30
686.4
  0
VERTEX
  8
PNOA-H_AMS_1956-57_33k_ES_PAN_21mic_H50_0476_fot_57A-36825_E_tif
  70
32
  10
208281.000
  20
4533447.793
  30
675
  0
VERTEX
  8
PNOA-H_AMS_1956-57_33k_ES_PAN_21mic_H50_0476_fot_57A-36825_E_tif
  70
32
  10
208282.500
  20
4533447.793
  30
675
  0
SEQEND
  8
PNOA-H_AMS_1956-57_33k_ES_PAN_21mic_H50_0476_fot_57A-36825_E_tif
  0
TEXT
  8
PNOA-H_AMS_1956-57_33k_ES_PAN_21mic_H50_0476_fot_57A-36825_E_tif
 62
0
  1
PNOA-H_AMS_1956-57_33k_ES_PAN_21mic_H50_0476_fot_57A-36825_E.tif
 40
41.77954
  10
208269.185
  20
4531412.793
  0
POLYLINE
  8
PNOA-H_AMS_1956-57_33k_ES_PAN_21mic_H50_0476_fot_57A-36826_E_tif
  70
9
  66
1
  0
VERTEX
  8
PNOA-H_AMS_1956-57_33k_ES_PAN_21mic_H50_0476_fot_57A-36826_E_tif
  70
32
  10
210287.500
  20
4533338.793
  30
725
  0
VERTEX
  8
PNOA-H_AMS_1956-57_33k_ES_PAN_21mic_H50_0476_fot_57A-36826_E_tif
  70
32
  10
212979.000
  20
4532976.293
  30
733.96
  0
VERTEX
  8
PNOA-H_AMS_1956-57_33k_ES_PAN_21mic_H50_0476_fot_57A-36826_E_tif
  70
32
  10
212902.000
  20
4531923.293
  30
736
  0
VERTEX
  8
PNOA-H_AMS_1956-57_33k_ES_PAN_21mic_H50_0476_fot_57A-36826_E_tif
  70
32
  10
209942.500
  20
4529133.793
  30
710
  0
VERTEX
  8
PNOA-H_AMS_1956-57_33k_ES_PAN_21mic_H50_0476_fot_57A-36826_E_tif
  70
32
  10
209925.500
  20
4529117.793
  30
711.81
  0
VERTEX
  8
PNOA-H_AMS_1956-57_33k_ES_PAN_21mic_H50_0476_fot_57A-36826_E_tif
  70
32
  10
209923.500
  20
4529116.293
  30
712
  0
VERTEX
  8
PNOA-H_AMS_1956-57_33k_ES_PAN_21mic_H50_0476_fot_57A-36826_E_tif
  70
32
  10
209921.000
  20
4529117.293
  30
712
  0
VERTEX
  8
PNOA-H_AMS_1956-57_33k_ES_PAN_21mic_H50_0476_fot_57A-36826_E_tif
  70
32
  10
209500.500
  20
4529355.793
  30
747.2
  0
VERTEX
  8
PNOA-H_AMS_1956-57_33k_ES_PAN_21mic_H50_0476_fot_57A-36826_E_tif
  70
32
  10
209498.500
  20
4529357.293
  30
747.3
  0
VERTEX
  8
PNOA-H_AMS_1956-57_33k_ES_PAN_21mic_H50_0476_fot_57A-36826_E_tif
  70
32
  10
209498.500
  20
4529359.793
  30
746.8
  0
VERTEX
  8
PNOA-H_AMS_1956-57_33k_ES_PAN_21mic_H50_0476_fot_57A-36826_E_tif
  70
32
  10
210028.500
  20
4533173.793
  30
713
  0
VERTEX
  8
PNOA-H_AMS_1956-57_33k_ES_PAN_21mic_H50_0476_fot_57A-36826_E_tif
  70
32
  10
210287.000
  20
4533337.793
  30
725
  0
VERTEX
  8
PNOA-H_AMS_1956-57_33k_ES_PAN_21mic_H50_0476_fot_57A-36826_E_tif
  70
32
  10
210287.500
  20
4533338.793
  30
725
  0
SEQEND
  8
PNOA-H_AMS_1956-57_33k_ES_PAN_21mic_H50_0476_fot_57A-36826_E_tif
  0
TEXT
  8
PNOA-H_AMS_1956-57_33k_ES_PAN_21mic_H50_0476_fot_57A-36826_E_tif
 62
0
  1
PNOA-H_AMS_1956-57_33k_ES_PAN_21mic_H50_0476_fot_57A-36826_E.tif
 40
41.77954
  10
210960.947
  20
4531227.543
  0
POLYLINE
  8
PNOA-H_AMS_1956-57_33k_ES_PAN_21mic_H50_0476_fot_57A-36824_E_tif
  70
9
  66
1
  0
VERTEX
  8
PNOA-H_AMS_1956-57_33k_ES_PAN_21mic_H50_0476_fot_57A-36824_E_tif
  70
32
  10
204051.000
  20
4533734.293
  30
682.12
  0
VERTEX
  8
PNOA-H_AMS_1956-57_33k_ES_PAN_21mic_H50_0476_fot_57A-36824_E_tif
  70
32
  10
204185.500
  20
4533833.793
  30
679.93
  0
VERTEX
  8
PNOA-H_AMS_1956-57_33k_ES_PAN_21mic_H50_0476_fot_57A-36824_E_tif
  70
32
  10
204186.000
  20
4533834.793
  30
679.9
  0
VERTEX
  8
PNOA-H_AMS_1956-57_33k_ES_PAN_21mic_H50_0476_fot_57A-36824_E_tif
  70
32
  10
204295.500
  20
4533916.293
  30
672.18
  0
VERTEX
  8
PNOA-H_AMS_1956-57_33k_ES_PAN_21mic_H50_0476_fot_57A-36824_E_tif
  70
32
  10
204299.000
  20
4533916.793
  30
672.02
  0
VERTEX
  8
PNOA-H_AMS_1956-57_33k_ES_PAN_21mic_H50_0476_fot_57A-36824_E_tif
  70
32
  10
207013.500
  20
4533426.793
  30
706.4
  0
VERTEX
  8
PNOA-H_AMS_1956-57_33k_ES_PAN_21mic_H50_0476_fot_57A-36824_E_tif
  70
32
  10
206525.000
  20
4529630.793
  30
750.3
  0
VERTEX
  8
PNOA-H_AMS_1956-57_33k_ES_PAN_21mic_H50_0476_fot_57A-36824_E_tif
  70
32
  10
205111.500
  20
4529512.793
  30
764
  0
VERTEX
  8
PNOA-H_AMS_1956-57_33k_ES_PAN_21mic_H50_0476_fot_57A-36824_E_tif
  70
32
  10
204322.000
  20
4529531.793
  30
781.9
  0
VERTEX
  8
PNOA-H_AMS_1956-57_33k_ES_PAN_21mic_H50_0476_fot_57A-36824_E_tif
  70
32
  10
203569.500
  20
4529898.793
  30
796.27
  0
SEQEND
  8
PNOA-H_AMS_1956-57_33k_ES_PAN_21mic_H50_0476_fot_57A-36824_E_tif
  0
TEXT
  8
PNOA-H_AMS_1956-57_33k_ES_PAN_21mic_H50_0476_fot_57A-36824_E_tif
 62
0
  1
PNOA-H_AMS_1956-57_33k_ES_PAN_21mic_H50_0476_fot_57A-36824_E.tif
 40
41.77954
  10
205295.331
  20
4531714.793
  0
POLYLINE
  8
PNOA-H_AMS_1956-57_33k_ES_PAN_21mic_H50_0476_fot_58A-40170_W_tif
  70
9
  66
1
  0
VERTEX
  8
PNOA-H_AMS_1956-57_33k_ES_PAN_21mic_H50_0476_fot_58A-40170_W_tif
  70
32
  10
205585.552
  20
4526125.509
  30
766.537
  0
VERTEX
  8
PNOA-H_AMS_1956-57_33k_ES_PAN_21mic_H50_0476_fot_58A-40170_W_tif
  70
32
  10
203966.930
  20
4526190.242
  30
767.698
  0
VERTEX
  8
PNOA-H_AMS_1956-57_33k_ES_PAN_21mic_H50_0476_fot_58A-40170_W_tif
  70
32
  10
204322.500
  20
4529531.793
  30
781.9
  0
VERTEX
  8
PNOA-H_AMS_1956-57_33k_ES_PAN_21mic_H50_0476_fot_58A-40170_W_tif
  70
32
  10
205106.000
  20
4529512.293
  30
764
  0
VERTEX
  8
PNOA-H_AMS_1956-57_33k_ES_PAN_21mic_H50_0476_fot_58A-40170_W_tif
  70
32
  10
205521.000
  20
4526582.793
  30
770.18
  0
VERTEX
  8
PNOA-H_AMS_1956-57_33k_ES_PAN_21mic_H50_0476_fot_58A-40170_W_tif
  70
32
  10
205521.000
  20
4526581.793
  30
770.2
  0
SEQEND
  8
PNOA-H_AMS_1956-57_33k_ES_PAN_21mic_H50_0476_fot_58A-40170_W_tif
  0
TEXT
  8
PNOA-H_AMS_1956-57_33k_ES_PAN_21mic_H50_0476_fot_58A-40170_W_tif
 62
0
  1
PNOA-H_AMS_1956-57_33k_ES_PAN_21mic_H50_0476_fot_58A-40170_W.tif
 40
41.77954
  10
204745.406
  20
4527685.897
  0
POLYLINE
  8
PNOA-H_AMS_1956-57_33k_ES_PAN_21mic_H50_0476_fot_58A-40168_W_tif
  70
9
  66
1
  0
VERTEX
  8
PNOA-H_AMS_1956-57_33k_ES_PAN_21mic_H50_0476_fot_58A-40168_W_tif
  70
32
  10
211578.151
  20
4525888.894
  30
713.814
  0
VERTEX
  8
PNOA-H_AMS_1956-57_33k_ES_PAN_21mic_H50_0476_fot_58A-40168_W_tif
  70
32
  10
210148.480
  20
4525944.705
  30
743.028
  0
VERTEX
  8
PNOA-H_AMS_1956-57_33k_ES_PAN_21mic_H50_0476_fot_58A-40168_W_tif
  70
32
  10
209817.933
  20
4525957.767
  30
742.142
  0
VERTEX
  8
PNOA-H_AMS_1956-57_33k_ES_PAN_21mic_H50_0476_fot_58A-40168_W_tif
  70
32
  10
210204.500
  20
4528837.793
  30
699.01
  0
VERTEX
  8
PNOA-H_AMS_1956-57_33k_ES_PAN_21mic_H50_0476_fot_58A-40168_W_tif
  70
32
  10
210204.500
  20
4528841.793
  30
699.09
  0
VERTEX
  8
PNOA-H_AMS_1956-57_33k_ES_PAN_21mic_H50_0476_fot_58A-40168_W_tif
  70
32
  10
211153.500
  20
4528569.293
  30
695.72
  0
SEQEND
  8
PNOA-H_AMS_1956-57_33k_ES_PAN_21mic_H50_0476_fot_58A-40168_W_tif
  0
TEXT
  8
PNOA-H_AMS_1956-57_33k_ES_PAN_21mic_H50_0476_fot_58A-40168_W_tif
 62
0
  1
PNOA-H_AMS_1956-57_33k_ES_PAN_21mic_H50_0476_fot_58A-40168_W.tif
 40
41.77954
  10
210677.481
  20
4527205.897
  0
POLYLINE
  8
PNOA-H_AMS_1956-57_33k_ES_PAN_21mic_H50_0476_fot_58A-40169_W_tif
  70
9
  66
1
  0
VERTEX
  8
PNOA-H_AMS_1956-57_33k_ES_PAN_21mic_H50_0476_fot_58A-40169_W_tif
  70
32
  10
208577.977
  20
4526006.763
  30
761.028
  0
VERTEX
  8
PNOA-H_AMS_1956-57_33k_ES_PAN_21mic_H50_0476_fot_58A-40169_W_tif
  70
32
  10
206832.828
  20
4526075.723
  30
773.516
  0
VERTEX
  8
PNOA-H_AMS_1956-57_33k_ES_PAN_21mic_H50_0476_fot_58A-40169_W_tif
  70
32
  10
207215.000
  20
4529251.293
  30
770
  0
VERTEX
  8
PNOA-H_AMS_1956-57_33k_ES_PAN_21mic_H50_0476_fot_58A-40169_W_tif
  70
32
  10
207999.500
  20
4529220.293
  30
777
  0
SEQEND
  8
PNOA-H_AMS_1956-57_33k_ES_PAN_21mic_H50_0476_fot_58A-40169_W_tif
  0
TEXT
  8
PNOA-H_AMS_1956-57_33k_ES_PAN_21mic_H50_0476_fot_58A-40169_W_tif
 62
0
  1
PNOA-H_AMS_1956-57_33k_ES_PAN_21mic_H50_0476_fot_58A-40169_W.tif
 40
41.77954
  10
207655.344
  20
4527545.647
  0
POLYLINE
  8
PNOA-H_AMS_1956-57_33k_ES_PAN_21mic_H50_0476_fot_000-04740_R_tif
  70
9
  66
1
  0
VERTEX
  8
PNOA-H_AMS_1956-57_33k_ES_PAN_21mic_H50_0476_fot_000-04740_R_tif
  70
32
  10
213577.000
  20
4528629.793
  30
762
  0
VERTEX
  8
PNOA-H_AMS_1956-57_33k_ES_PAN_21mic_H50_0476_fot_000-04740_R_tif
  70
32
  10
213574.500
  20
4528564.793
  30
754.95
  0
VERTEX
  8
PNOA-H_AMS_1956-57_33k_ES_PAN_21mic_H50_0476_fot_000-04740_R_tif
  70
32
  10
213243.500
  20
4528394.293
  30
736.6
  0
VERTEX
  8
PNOA-H_AMS_1956-57_33k_ES_PAN_21mic_H50_0476_fot_000-04740_R_tif
  70
32
  10
211153.000
  20
4528569.293
  30
695.76
  0
VERTEX
  8
PNOA-H_AMS_1956-57_33k_ES_PAN_21mic_H50_0476_fot_000-04740_R_tif
  70
32
  10
210205.500
  20
4528841.293
  30
699
  0
VERTEX
  8
PNOA-H_AMS_1956-57_33k_ES_PAN_21mic_H50_0476_fot_000-04740_R_tif
  70
32
  10
209923.500
  20
4529115.793
  30
712
  0
VERTEX
  8
PNOA-H_AMS_1956-57_33k_ES_PAN_21mic_H50_0476_fot_000-04740_R_tif
  70
32
  10
209924.500
  20
4529117.793
  30
711.91
  0
VERTEX
  8
PNOA-H_AMS_1956-57_33k_ES_PAN_21mic_H50_0476_fot_000-04740_R_tif
  70
32
  10
212902.000
  20
4531923.293
  30
736
  0
VERTEX
  8
PNOA-H_AMS_1956-57_33k_ES_PAN_21mic_H50_0476_fot_000-04740_R_tif
  70
32
  10
213616.500
  20
4529675.293
  30
738.3
  0
VERTEX
  8
PNOA-H_AMS_1956-57_33k_ES_PAN_21mic_H50_0476_fot_000-04740_R_tif
  70
32
  10
213577.000
  20
4528635.793
  30
762
  0
VERTEX
  8
PNOA-H_AMS_1956-57_33k_ES_PAN_21mic_H50_0476_fot_000-04740_R_tif
  70
32
  10
213577.000
  20
4528629.793
  30
762
  0
SEQEND
  8
PNOA-H_AMS_1956-57_33k_ES_PAN_21mic_H50_0476_fot_000-04740_R_tif
  0
TEXT
  8
PNOA-H_AMS_1956-57_33k_ES_PAN_21mic_H50_0476_fot_000-04740_R_tif
 62
0
  1
PNOA-H_AMS_1956-57_33k_ES_PAN_21mic_H50_0476_fot_000-04740_R.tif
 40
41.77954
  10
212246.074
  20
4530158.793
  0
POLYLINE
  8
PNOA-H_AMS_1956-57_33k_ES_PAN_21mic_H50_0501_fot_000-36801_R_tif
  70
9
  66
1
  0
VERTEX
  8
PNOA-H_AMS_1956-57_33k_ES_PAN_21mic_H50_0501_fot_000-36801_R_tif
  70
32
  10
209817.804
  20
4525957.772
  30
753.488
  0
VERTEX
  8
PNOA-H_AMS_1956-57_33k_ES_PAN_21mic_H50_0501_fot_000-36801_R_tif
  70
32
  10
208577.656
  20
4526006.776
  30
761.391
  0
VERTEX
  8
PNOA-H_AMS_1956-57_33k_ES_PAN_21mic_H50_0501_fot_000-36801_R_tif
  70
32
  10
207999.500
  20
4529218.793
  30
777
  0
VERTEX
  8
PNOA-H_AMS_1956-57_33k_ES_PAN_21mic_H50_0501_fot_000-36801_R_tif
  70
32
  10
207999.500
  20
4529220.293
  30
777
  0
VERTEX
  8
PNOA-H_AMS_1956-57_33k_ES_PAN_21mic_H50_0501_fot_000-36801_R_tif
  70
32
  10
208002.500
  20
4529220.793
  30
777
  0
VERTEX
  8
PNOA-H_AMS_1956-57_33k_ES_PAN_21mic_H50_0501_fot_000-36801_R_tif
  70
32
  10
209499.000
  20
4529357.293
  30
747.2
  0
VERTEX
  8
PNOA-H_AMS_1956-57_33k_ES_PAN_21mic_H50_0501_fot_000-36801_R_tif
  70
32
  10
209923.000
  20
4529116.793
  30
712
  0
VERTEX
  8
PNOA-H_AMS_1956-57_33k_ES_PAN_21mic_H50_0501_fot_000-36801_R_tif
  70
32
  10
210204.500
  20
4528842.293
  30
699.1
  0
VERTEX
  8
PNOA-H_AMS_1956-57_33k_ES_PAN_21mic_H50_0501_fot_000-36801_R_tif
  70
32
  10
209901.500
  20
4526583.293
  30
759.94
  0
VERTEX
  8
PNOA-H_AMS_1956-57_33k_ES_PAN_21mic_H50_0501_fot_000-36801_R_tif
  70
32
  10
209901.500
  20
4526581.793
  30
760.07
  0
SEQEND
  8
PNOA-H_AMS_1956-57_33k_ES_PAN_21mic_H50_0501_fot_000-36801_R_tif
  0
TEXT
  8
PNOA-H_AMS_1956-57_33k_ES_PAN_21mic_H50_0501_fot_000-36801_R_tif
 62
0
  1
PNOA-H_AMS_1956-57_33k_ES_PAN_21mic_H50_0501_fot_000-36801_R.tif
 40
41.77954
  10
209164.406
  20
4527598.647
  0
POLYLINE
  8
PNOA-H_AMS_1956-57_33k_ES_PAN_21mic_H50_0501_fot_000-36802_R_tif
  70
9
  66
1
  0
VERTEX
  8
PNOA-H_AMS_1956-57_33k_ES_PAN_21mic_H50_0501_fot_000-36802_R_tif
  70
32
  10
206832.970
  20
4526075.717
  30
773.559
  0
VERTEX
  8
PNOA-H_AMS_1956-57_33k_ES_PAN_21mic_H50_0501_fot_000-36802_R_tif
  70
32
  10
206634.501
  20
4526083.560
  30
773.576
  0
VERTEX
  8
PNOA-H_AMS_1956-57_33k_ES_PAN_21mic_H50_0501_fot_000-36802_R_tif
  70
32
  10
205585.259
  20
4526125.521
  30
765.241
  0
VERTEX
  8
PNOA-H_AMS_1956-57_33k_ES_PAN_21mic_H50_0501_fot_000-36802_R_tif
  70
32
  10
205105.500
  20
4529512.793
  30
764
  0
VERTEX
  8
PNOA-H_AMS_1956-57_33k_ES_PAN_21mic_H50_0501_fot_000-36802_R_tif
  70
32
  10
206516.500
  20
4529630.293
  30
750
  0
VERTEX
  8
PNOA-H_AMS_1956-57_33k_ES_PAN_21mic_H50_0501_fot_000-36802_R_tif
  70
32
  10
206522.500
  20
4529630.793
  30
750.15
  0
VERTEX
  8
PNOA-H_AMS_1956-57_33k_ES_PAN_21mic_H50_0501_fot_000-36802_R_tif
  70
32
  10
206525.500
  20
4529630.793
  30
750.3
  0
VERTEX
  8
PNOA-H_AMS_1956-57_33k_ES_PAN_21mic_H50_0501_fot_000-36802_R_tif
  70
32
  10
207215.000
  20
4529251.293
  30
770
  0
SEQEND
  8
PNOA-H_AMS_1956-57_33k_ES_PAN_21mic_H50_0501_fot_000-36802_R_tif
  0
TEXT
  8
PNOA-H_AMS_1956-57_33k_ES_PAN_21mic_H50_0501_fot_000-36802_R_tif
 62
0
  1
PNOA-H_AMS_1956-57_33k_ES_PAN_21mic_H50_0501_fot_000-36802_R.tif
 40
41.77954
  10
206194.938
  20
4527735.397
  0
POLYLINE
  8
PNOA-H_AMS_1956-57_33k_ES_PAN_21mic_H50_0476_fot_55A-03741_W_tif
  70
9
  66
1
  0
VERTEX
  8
PNOA-H_AMS_1956-57_33k_ES_PAN_21mic_H50_0476_fot_55A-03741_W_tif
  70
32
  10
216474.500
  20
4541901.793
  30
807
  0
VERTEX
  8
PNOA-H_AMS_1956-57_33k_ES_PAN_21mic_H50_0476_fot_55A-03741_W_tif
  70
32
  10
218435.500
  20
4541539.793
  30
826.5
  0
VERTEX
  8
PNOA-H_AMS_1956-57_33k_ES_PAN_21mic_H50_0476_fot_55A-03741_W_tif
  70
32
  10
218436.000
  20
4541534.293
  30
826
  0
VERTEX
  8
PNOA-H_AMS_1956-57_33k_ES_PAN_21mic_H50_0476_fot_55A-03741_W_tif
  70
32
  10
218269.500
  20
4537391.793
  30
788
  0
VERTEX
  8
PNOA-H_AMS_1956-57_33k_ES_PAN_21mic_H50_0476_fot_55A-03741_W_tif
  70
32
  10
216335.500
  20
4536875.293
  30
788.6
  0
VERTEX
  8
PNOA-H_AMS_1956-57_33k_ES_PAN_21mic_H50_0476_fot_55A-03741_W_tif
  70
32
  10
216333.500
  20
4536875.293
  30
788.6
  0
VERTEX
  8
PNOA-H_AMS_1956-57_33k_ES_PAN_21mic_H50_0476_fot_55A-03741_W_tif
  70
32
  10
216311.000
  20
4536886.293
  30
789.8
  0
VERTEX
  8
PNOA-H_AMS_1956-57_33k_ES_PAN_21mic_H50_0476_fot_55A-03741_W_tif
  70
32
  10
215351.500
  20
4537359.293
  30
767.3
  0
VERTEX
  8
PNOA-H_AMS_1956-57_33k_ES_PAN_21mic_H50_0476_fot_55A-03741_W_tif
  70
32
  10
215333.500
  20
4537368.293
  30
767
  0
VERTEX
  8
PNOA-H_AMS_1956-57_33k_ES_PAN_21mic_H50_0476_fot_55A-03741_W_tif
  70
32
  10
215333.000
  20
4537370.293
  30
767
  0
VERTEX
  8
PNOA-H_AMS_1956-57_33k_ES_PAN_21mic_H50_0476_fot_55A-03741_W_tif
  70
32
  10
215512.500
  20
4541667.293
  30
774.5
  0
VERTEX
  8
PNOA-H_AMS_1956-57_33k_ES_PAN_21mic_H50_0476_fot_55A-03741_W_tif
  70
32
  10
215529.000
  20
4541673.793
  30
775
  0
VERTEX
  8
PNOA-H_AMS_1956-57_33k_ES_PAN_21mic_H50_0476_fot_55A-03741_W_tif
  70
32
  10
216295.000
  20
4541934.793
  30
801
  0
VERTEX
  8
PNOA-H_AMS_1956-57_33k_ES_PAN_21mic_H50_0476_fot_55A-03741_W_tif
  70
32
  10
216472.500
  20
4541901.793
  30
807
  0
VERTEX
  8
PNOA-H_AMS_1956-57_33k_ES_PAN_21mic_H50_0476_fot_55A-03741_W_tif
  70
32
  10
216474.500
  20
4541901.793
  30
807
  0
SEQEND
  8
PNOA-H_AMS_1956-57_33k_ES_PAN_21mic_H50_0476_fot_55A-03741_W_tif
  0
TEXT
  8
PNOA-H_AMS_1956-57_33k_ES_PAN_21mic_H50_0476_fot_55A-03741_W_tif
 62
0
  1
PNOA-H_AMS_1956-57_33k_ES_PAN_21mic_H50_0476_fot_55A-03741_W.tif
 40
41.77954
  10
216884.209
  20
4539405.043
  0
POLYLINE
  8
PNOA-H_AMS_1956-57_33k_ES_PAN_21mic_H50_0476_fot_55A-03742_W_tif
  70
9
  66
1
  0
VERTEX
  8
PNOA-H_AMS_1956-57_33k_ES_PAN_21mic_H50_0476_fot_55A-03742_W_tif
  70
32
  10
214426.500
  20
4541900.793
  30
781.3
  0
VERTEX
  8
PNOA-H_AMS_1956-57_33k_ES_PAN_21mic_H50_0476_fot_55A-03742_W_tif
  70
32
  10
215513.000
  20
4541667.793
  30
774.46
  0
VERTEX
  8
PNOA-H_AMS_1956-57_33k_ES_PAN_21mic_H50_0476_fot_55A-03742_W_tif
  70
32
  10
215333.500
  20
4537370.293
  30
767
  0
VERTEX
  8
PNOA-H_AMS_1956-57_33k_ES_PAN_21mic_H50_0476_fot_55A-03742_W_tif
  70
32
  10
215332.500
  20
4537368.293
  30
767
  0
VERTEX
  8
PNOA-H_AMS_1956-57_33k_ES_PAN_21mic_H50_0476_fot_55A-03742_W_tif
  70
32
  10
215325.500
  20
4537366.793
  30
766.1
  0
VERTEX
  8
PNOA-H_AMS_1956-57_33k_ES_PAN_21mic_H50_0476_fot_55A-03742_W_tif
  70
32
  10
213320.500
  20
4536945.293
  30
755.46
  0
VERTEX
  8
PNOA-H_AMS_1956-57_33k_ES_PAN_21mic_H50_0476_fot_55A-03742_W_tif
  70
32
  10
213317.000
  20
4536945.293
  30
755.16
  0
VERTEX
  8
PNOA-H_AMS_1956-57_33k_ES_PAN_21mic_H50_0476_fot_55A-03742_W_tif
  70
32
  10
213308.000
  20
4536949.793
  30
755
  0
VERTEX
  8
PNOA-H_AMS_1956-57_33k_ES_PAN_21mic_H50_0476_fot_55A-03742_W_tif
  70
32
  10
212412.000
  20
4537408.793
  30
744
  0
VERTEX
  8
PNOA-H_AMS_1956-57_33k_ES_PAN_21mic_H50_0476_fot_55A-03742_W_tif
  70
32
  10
212605.500
  20
4541807.293
  30
777
  0
VERTEX
  8
PNOA-H_AMS_1956-57_33k_ES_PAN_21mic_H50_0476_fot_55A-03742_W_tif
  70
32
  10
213504.500
  20
4542098.293
  30
770.18
  0
VERTEX
  8
PNOA-H_AMS_1956-57_33k_ES_PAN_21mic_H50_0476_fot_55A-03742_W_tif
  70
32
  10
214425.500
  20
4541900.793
  30
781.1
  0
VERTEX
  8
PNOA-H_AMS_1956-57_33k_ES_PAN_21mic_H50_0476_fot_55A-03742_W_tif
  70
32
  10
214426.500
  20
4541900.793
  30
781.3
  0
SEQEND
  8
PNOA-H_AMS_1956-57_33k_ES_PAN_21mic_H50_0476_fot_55A-03742_W_tif
  0
TEXT
  8
PNOA-H_AMS_1956-57_33k_ES_PAN_21mic_H50_0476_fot_55A-03742_W_tif
 62
0
  1
PNOA-H_AMS_1956-57_33k_ES_PAN_21mic_H50_0476_fot_55A-03742_W.tif
 40
41.77954
  10
213964.160
  20
4539521.793
  0
POLYLINE
  8
PNOA-H_AMS_1956-57_33k_ES_PAN_21mic_H50_0476_fot_56A-04386_W_tif
  70
9
  66
1
  0
VERTEX
  8
PNOA-H_AMS_1956-57_33k_ES_PAN_21mic_H50_0476_fot_56A-04386_W_tif
  70
32
  10
215332.500
  20
4537368.793
  30
767
  0
VERTEX
  8
PNOA-H_AMS_1956-57_33k_ES_PAN_21mic_H50_0476_fot_56A-04386_W_tif
  70
32
  10
216312.500
  20
4536886.293
  30
789.8
  0
VERTEX
  8
PNOA-H_AMS_1956-57_33k_ES_PAN_21mic_H50_0476_fot_56A-04386_W_tif
  70
32
  10
216333.500
  20
4536875.793
  30
788.7
  0
VERTEX
  8
PNOA-H_AMS_1956-57_33k_ES_PAN_21mic_H50_0476_fot_56A-04386_W_tif
  70
32
  10
216334.500
  20
4536872.793
  30
788.1
  0
VERTEX
  8
PNOA-H_AMS_1956-57_33k_ES_PAN_21mic_H50_0476_fot_56A-04386_W_tif
  70
32
  10
216456.000
  20
4533164.793
  30
764.6
  0
VERTEX
  8
PNOA-H_AMS_1956-57_33k_ES_PAN_21mic_H50_0476_fot_56A-04386_W_tif
  70
32
  10
216021.000
  20
4532904.793
  30
740.6
  0
VERTEX
  8
PNOA-H_AMS_1956-57_33k_ES_PAN_21mic_H50_0476_fot_56A-04386_W_tif
  70
32
  10
213308.500
  20
4533192.793
  30
761
  0
VERTEX
  8
PNOA-H_AMS_1956-57_33k_ES_PAN_21mic_H50_0476_fot_56A-04386_W_tif
  70
32
  10
213318.000
  20
4536945.293
  30
755.24
  0
VERTEX
  8
PNOA-H_AMS_1956-57_33k_ES_PAN_21mic_H50_0476_fot_56A-04386_W_tif
  70
32
  10
215330.000
  20
4537368.293
  30
767
  0
VERTEX
  8
PNOA-H_AMS_1956-57_33k_ES_PAN_21mic_H50_0476_fot_56A-04386_W_tif
  70
32
  10
215332.500
  20
4537368.793
  30
767
  0
SEQEND
  8
PNOA-H_AMS_1956-57_33k_ES_PAN_21mic_H50_0476_fot_56A-04386_W_tif
  0
TEXT
  8
PNOA-H_AMS_1956-57_33k_ES_PAN_21mic_H50_0476_fot_56A-04386_W_tif
 62
0
  1
PNOA-H_AMS_1956-57_33k_ES_PAN_21mic_H50_0476_fot_56A-04386_W.tif
 40
41.77954
  10
214852.403
  20
4535136.793
  0
POLYLINE
  8
PNOA-H_AMS_1956-57_33k_ES_PAN_21mic_H50_0476_fot_56A-04385_W_tif
  70
9
  66
1
  0
VERTEX
  8
PNOA-H_AMS_1956-57_33k_ES_PAN_21mic_H50_0476_fot_56A-04385_W_tif
  70
32
  10
216474.000
  20
4536912.793
  30
791.08
  0
VERTEX
  8
PNOA-H_AMS_1956-57_33k_ES_PAN_21mic_H50_0476_fot_56A-04385_W_tif
  70
32
  10
218270.000
  20
4537391.793
  30
788
  0
VERTEX
  8
PNOA-H_AMS_1956-57_33k_ES_PAN_21mic_H50_0476_fot_56A-04385_W_tif
  70
32
  10
219437.000
  20
4536833.793
  30
816.72
  0
VERTEX
  8
PNOA-H_AMS_1956-57_33k_ES_PAN_21mic_H50_0476_fot_56A-04385_W_tif
  70
32
  10
219252.000
  20
4532987.793
  30
724.7
  0
VERTEX
  8
PNOA-H_AMS_1956-57_33k_ES_PAN_21mic_H50_0476_fot_56A-04385_W_tif
  70
32
  10
218937.500
  20
4532823.793
  30
726.7
  0
VERTEX
  8
PNOA-H_AMS_1956-57_33k_ES_PAN_21mic_H50_0476_fot_56A-04385_W_tif
  70
32
  10
216456.000
  20
4533164.793
  30
764.6
  0
VERTEX
  8
PNOA-H_AMS_1956-57_33k_ES_PAN_21mic_H50_0476_fot_56A-04385_W_tif
  70
32
  10
216334.000
  20
4536875.293
  30
788.6
  0
VERTEX
  8
PNOA-H_AMS_1956-57_33k_ES_PAN_21mic_H50_0476_fot_56A-04385_W_tif
  70
32
  10
216472.000
  20
4536912.293
  30
791
  0
VERTEX
  8
PNOA-H_AMS_1956-57_33k_ES_PAN_21mic_H50_0476_fot_56A-04385_W_tif
  70
32
  10
216474.000
  20
4536912.793
  30
791.08
  0
SEQEND
  8
PNOA-H_AMS_1956-57_33k_ES_PAN_21mic_H50_0476_fot_56A-04385_W_tif
  0
TEXT
  8
PNOA-H_AMS_1956-57_33k_ES_PAN_21mic_H50_0476_fot_56A-04385_W_tif
 62
0
  1
PNOA-H_AMS_1956-57_33k_ES_PAN_21mic_H50_0476_fot_56A-04385_W.tif
 40
41.77954
  10
217873.045
  20
4535107.793
  0
POLYLINE
  8
PNOA-H_AMS_1956-57_33k_ES_PAN_21mic_H50_0476_fot_57A-36827_E_tif
  70
9
  66
1
  0
VERTEX
  8
PNOA-H_AMS_1956-57_33k_ES_PAN_21mic_H50_0476_fot_57A-36827_E_tif
  70
32
  10
214426.500
  20
4533074.293
  30
782
  0
VERTEX
  8
PNOA-H_AMS_1956-57_33k_ES_PAN_21mic_H50_0476_fot_57A-36827_E_tif
  70
32
  10
216020.500
  20
4532904.793
  30
740.8
  0
VERTEX
  8
PNOA-H_AMS_1956-57_33k_ES_PAN_21mic_H50_0476_fot_57A-36827_E_tif
  70
32
  10
215931.000
  20
4531620.793
  30
729.86
  0
VERTEX
  8
PNOA-H_AMS_1956-57_33k_ES_PAN_21mic_H50_0476_fot_57A-36827_E_tif
  70
32
  10
213617.500
  20
4529675.293
  30
738.5
  0
VERTEX
  8
PNOA-H_AMS_1956-57_33k_ES_PAN_21mic_H50_0476_fot_57A-36827_E_tif
  70
32
  10
213616.000
  20
4529675.293
  30
738.2
  0
VERTEX
  8
PNOA-H_AMS_1956-57_33k_ES_PAN_21mic_H50_0476_fot_57A-36827_E_tif
  70
32
  10
213613.000
  20
4529684.293
  30
738.6
  0
VERTEX
  8
PNOA-H_AMS_1956-57_33k_ES_PAN_21mic_H50_0476_fot_57A-36827_E_tif
  70
32
  10
212902.000
  20
4531921.793
  30
736
  0
VERTEX
  8
PNOA-H_AMS_1956-57_33k_ES_PAN_21mic_H50_0476_fot_57A-36827_E_tif
  70
32
  10
212979.000
  20
4532976.293
  30
733.96
  0
VERTEX
  8
PNOA-H_AMS_1956-57_33k_ES_PAN_21mic_H50_0476_fot_57A-36827_E_tif
  70
32
  10
213308.000
  20
4533192.793
  30
761
  0
VERTEX
  8
PNOA-H_AMS_1956-57_33k_ES_PAN_21mic_H50_0476_fot_57A-36827_E_tif
  70
32
  10
214423.000
  20
4533074.293
  30
782
  0
VERTEX
  8
PNOA-H_AMS_1956-57_33k_ES_PAN_21mic_H50_0476_fot_57A-36827_E_tif
  70
32
  10
214426.500
  20
4533074.293
  30
782
  0
SEQEND
  8
PNOA-H_AMS_1956-57_33k_ES_PAN_21mic_H50_0476_fot_57A-36827_E_tif
  0
TEXT
  8
PNOA-H_AMS_1956-57_33k_ES_PAN_21mic_H50_0476_fot_57A-36827_E_tif
 62
0
  1
PNOA-H_AMS_1956-57_33k_ES_PAN_21mic_H50_0476_fot_57A-36827_E.tif
 40
41.77954
  10
214382.958
  20
4531434.043
  0
POLYLINE
  8
PNOA-H_AMS_1956-57_33k_ES_PAN_21mic_H50_0476_fot_57A-36828_E_tif
  70
9
  66
1
  0
VERTEX
  8
PNOA-H_AMS_1956-57_33k_ES_PAN_21mic_H50_0476_fot_57A-36828_E_tif
  70
32
  10
216455.500
  20
4533164.793
  30
764.55
  0
VERTEX
  8
PNOA-H_AMS_1956-57_33k_ES_PAN_21mic_H50_0476_fot_57A-36828_E_tif
  70
32
  10
218937.000
  20
4532823.793
  30
726.7
  0
VERTEX
  8
PNOA-H_AMS_1956-57_33k_ES_PAN_21mic_H50_0476_fot_57A-36828_E_tif
  70
32
  10
218865.500
  20
4531633.293
  30
777
  0
VERTEX
  8
PNOA-H_AMS_1956-57_33k_ES_PAN_21mic_H50_0476_fot_57A-36828_E_tif
  70
32
  10
216569.000
  20
4529376.793
  30
751.82
  0
VERTEX
  8
PNOA-H_AMS_1956-57_33k_ES_PAN_21mic_H50_0476_fot_57A-36828_E_tif
  70
32
  10
216556.000
  20
4529365.293
  30
751.52
  0
VERTEX
  8
PNOA-H_AMS_1956-57_33k_ES_PAN_21mic_H50_0476_fot_57A-36828_E_tif
  70
32
  10
215931.000
  20
4531619.293
  30
729.92
  0
VERTEX
  8
PNOA-H_AMS_1956-57_33k_ES_PAN_21mic_H50_0476_fot_57A-36828_E_tif
  70
32
  10
216020.500
  20
4532904.793
  30
740.8
  0
VERTEX
  8
PNOA-H_AMS_1956-57_33k_ES_PAN_21mic_H50_0476_fot_57A-36828_E_tif
  70
32
  10
216455.000
  20
4533163.793
  30
764.7
  0
VERTEX
  8
PNOA-H_AMS_1956-57_33k_ES_PAN_21mic_H50_0476_fot_57A-36828_E_tif
  70
32
  10
216455.500
  20
4533164.793
  30
764.55
  0
SEQEND
  8
PNOA-H_AMS_1956-57_33k_ES_PAN_21mic_H50_0476_fot_57A-36828_E_tif
  0
TEXT
  8
PNOA-H_AMS_1956-57_33k_ES_PAN_21mic_H50_0476_fot_57A-36828_E_tif
 62
0
  1
PNOA-H_AMS_1956-57_33k_ES_PAN_21mic_H50_0476_fot_57A-36828_E.tif
 40
41.77954
  10
217259.975
  20
4531265.043
  0
POLYLINE
  8
PNOA-H_AMS_1956-57_33k_ES_PAN_21mic_H50_0476_fot_000-04738_R_tif
  70
9
  66
1
  0
VERTEX
  8
PNOA-H_AMS_1956-57_33k_ES_PAN_21mic_H50_0476_fot_000-04738_R_tif
  70
32
  10
218865.000
  20
4531633.293
  30
777
  0
VERTEX
  8
PNOA-H_AMS_1956-57_33k_ES_PAN_21mic_H50_0476_fot_000-04738_R_tif
  70
32
  10
218866.500
  20
4531630.793
  30
777
  0
VERTEX
  8
PNOA-H_AMS_1956-57_33k_ES_PAN_21mic_H50_0476_fot_000-04738_R_tif
  70
32
  10
219495.000
  20
4529041.793
  30
749.1
  0
VERTEX
  8
PNOA-H_AMS_1956-57_33k_ES_PAN_21mic_H50_0476_fot_000-04738_R_tif
  70
32
  10
219475.000
  20
4528315.293
  30
757.6
  0
VERTEX
  8
PNOA-H_AMS_1956-57_33k_ES_PAN_21mic_H50_0476_fot_000-04738_R_tif
  70
32
  10
219094.000
  20
4528088.293
  30
756.36
  0
VERTEX
  8
PNOA-H_AMS_1956-57_33k_ES_PAN_21mic_H50_0476_fot_000-04738_R_tif
  70
32
  10
218105.000
  20
4528124.293
  30
765
  0
VERTEX
  8
PNOA-H_AMS_1956-57_33k_ES_PAN_21mic_H50_0476_fot_000-04738_R_tif
  70
32
  10
216527.000
  20
4528437.293
  30
766
  0
VERTEX
  8
PNOA-H_AMS_1956-57_33k_ES_PAN_21mic_H50_0476_fot_000-04738_R_tif
  70
32
  10
216556.500
  20
4529365.293
  30
751.58
  0
VERTEX
  8
PNOA-H_AMS_1956-57_33k_ES_PAN_21mic_H50_0476_fot_000-04738_R_tif
  70
32
  10
218864.500
  20
4531632.293
  30
777
  0
VERTEX
  8
PNOA-H_AMS_1956-57_33k_ES_PAN_21mic_H50_0476_fot_000-04738_R_tif
  70
32
  10
218865.000
  20
4531633.293
  30
777
  0
SEQEND
  8
PNOA-H_AMS_1956-57_33k_ES_PAN_21mic_H50_0476_fot_000-04738_R_tif
  0
TEXT
  8
PNOA-H_AMS_1956-57_33k_ES_PAN_21mic_H50_0476_fot_000-04738_R_tif
 62
0
  1
PNOA-H_AMS_1956-57_33k_ES_PAN_21mic_H50_0476_fot_000-04738_R.tif
 40
41.77954
  10
218178.571
  20
4529860.793
  0
POLYLINE
  8
PNOA-H_AMS_1956-57_33k_ES_PAN_21mic_H50_0476_fot_000-04739_R_tif
  70
9
  66
1
  0
VERTEX
  8
PNOA-H_AMS_1956-57_33k_ES_PAN_21mic_H50_0476_fot_000-04739_R_tif
  70
32
  10
216474.500
  20
4529659.293
  30
738.64
  0
VERTEX
  8
PNOA-H_AMS_1956-57_33k_ES_PAN_21mic_H50_0476_fot_000-04739_R_tif
  70
32
  10
216556.500
  20
4529365.293
  30
751.58
  0
VERTEX
  8
PNOA-H_AMS_1956-57_33k_ES_PAN_21mic_H50_0476_fot_000-04739_R_tif
  70
32
  10
216527.000
  20
4528437.793
  30
766
  0
VERTEX
  8
PNOA-H_AMS_1956-57_33k_ES_PAN_21mic_H50_0476_fot_000-04739_R_tif
  70
32
  10
216201.000
  20
4528257.293
  30
760
  0
VERTEX
  8
PNOA-H_AMS_1956-57_33k_ES_PAN_21mic_H50_0476_fot_000-04739_R_tif
  70
32
  10
214448.500
  20
4528356.793
  30
767.03
  0
VERTEX
  8
PNOA-H_AMS_1956-57_33k_ES_PAN_21mic_H50_0476_fot_000-04739_R_tif
  70
32
  10
213574.500
  20
4528564.793
  30
754.95
  0
VERTEX
  8
PNOA-H_AMS_1956-57_33k_ES_PAN_21mic_H50_0476_fot_000-04739_R_tif
  70
32
  10
213616.500
  20
4529675.293
  30
738.3
  0
VERTEX
  8
PNOA-H_AMS_1956-57_33k_ES_PAN_21mic_H50_0476_fot_000-04739_R_tif
  70
32
  10
215930.500
  20
4531620.793
  30
729.93
  0
VERTEX
  8
PNOA-H_AMS_1956-57_33k_ES_PAN_21mic_H50_0476_fot_000-04739_R_tif
  70
32
  10
216474.500
  20
4529660.793
  30
738.37
  0
VERTEX
  8
PNOA-H_AMS_1956-57_33k_ES_PAN_21mic_H50_0476_fot_000-04739_R_tif
  70
32
  10
216474.500
  20
4529659.293
  30
738.64
  0
SEQEND
  8
PNOA-H_AMS_1956-57_33k_ES_PAN_21mic_H50_0476_fot_000-04739_R_tif
  0
TEXT
  8
PNOA-H_AMS_1956-57_33k_ES_PAN_21mic_H50_0476_fot_000-04739_R_tif
 62
0
  1
PNOA-H_AMS_1956-57_33k_ES_PAN_21mic_H50_0476_fot_000-04739_R.tif
 40
41.77954
  10
215163.739
  20
4529939.043
  0
POLYLINE
  8
PNOA-H_AMS_1956-57_33k_ES_PAN_21mic_H50_0476_fot_58A-40166_W_tif
  70
9
  66
1
  0
VERTEX
  8
PNOA-H_AMS_1956-57_33k_ES_PAN_21mic_H50_0476_fot_58A-40166_W_tif
  70
32
  10
217454.857
  20
4525661.424
  30
755.492
  0
VERTEX
  8
PNOA-H_AMS_1956-57_33k_ES_PAN_21mic_H50_0476_fot_58A-40166_W_tif
  70
32
  10
217176.372
  20
4525672.029
  30
749.313
  0
VERTEX
  8
PNOA-H_AMS_1956-57_33k_ES_PAN_21mic_H50_0476_fot_58A-40166_W_tif
  70
32
  10
216056.035
  20
4525715.230
  30
758.069
  0
VERTEX
  8
PNOA-H_AMS_1956-57_33k_ES_PAN_21mic_H50_0476_fot_58A-40166_W_tif
  70
32
  10
216200.000
  20
4528255.293
  30
760
  0
VERTEX
  8
PNOA-H_AMS_1956-57_33k_ES_PAN_21mic_H50_0476_fot_58A-40166_W_tif
  70
32
  10
216201.000
  20
4528257.793
  30
760
  0
VERTEX
  8
PNOA-H_AMS_1956-57_33k_ES_PAN_21mic_H50_0476_fot_58A-40166_W_tif
  70
32
  10
216525.500
  20
4528437.293
  30
766
  0
VERTEX
  8
PNOA-H_AMS_1956-57_33k_ES_PAN_21mic_H50_0476_fot_58A-40166_W_tif
  70
32
  10
216526.500
  20
4528437.793
  30
766
  0
VERTEX
  8
PNOA-H_AMS_1956-57_33k_ES_PAN_21mic_H50_0476_fot_58A-40166_W_tif
  70
32
  10
218105.000
  20
4528124.793
  30
765
  0
SEQEND
  8
PNOA-H_AMS_1956-57_33k_ES_PAN_21mic_H50_0476_fot_58A-40166_W_tif
  0
TEXT
  8
PNOA-H_AMS_1956-57_33k_ES_PAN_21mic_H50_0476_fot_58A-40166_W_tif
 62
0
  1
PNOA-H_AMS_1956-57_33k_ES_PAN_21mic_H50_0476_fot_58A-40166_W.tif
 40
41.77954
  10
216947.480
  20
4526868.897
  0
POLYLINE
  8
PNOA-H_AMS_1956-57_33k_ES_PAN_21mic_H50_0476_fot_58A-40167_W_tif
  70
9
  66
1
  0
VERTEX
  8
PNOA-H_AMS_1956-57_33k_ES_PAN_21mic_H50_0476_fot_58A-40167_W_tif
  70
32
  10
214578.434
  20
4525772.207
  30
760.761
  0
VERTEX
  8
PNOA-H_AMS_1956-57_33k_ES_PAN_21mic_H50_0476_fot_58A-40167_W_tif
  70
32
  10
213662.437
  20
4525807.528
  30
760.465
  0
VERTEX
  8
PNOA-H_AMS_1956-57_33k_ES_PAN_21mic_H50_0476_fot_58A-40167_W_tif
  70
32
  10
212949.473
  20
4525835.361
  30
758.389
  0
VERTEX
  8
PNOA-H_AMS_1956-57_33k_ES_PAN_21mic_H50_0476_fot_58A-40167_W_tif
  70
32
  10
213242.500
  20
4528394.293
  30
736.6
  0
VERTEX
  8
PNOA-H_AMS_1956-57_33k_ES_PAN_21mic_H50_0476_fot_58A-40167_W_tif
  70
32
  10
213571.500
  20
4528563.793
  30
754.51
  0
VERTEX
  8
PNOA-H_AMS_1956-57_33k_ES_PAN_21mic_H50_0476_fot_58A-40167_W_tif
  70
32
  10
213576.500
  20
4528564.793
  30
755.3
  0
VERTEX
  8
PNOA-H_AMS_1956-57_33k_ES_PAN_21mic_H50_0476_fot_58A-40167_W_tif
  70
32
  10
214425.500
  20
4528362.293
  30
768
  0
VERTEX
  8
PNOA-H_AMS_1956-57_33k_ES_PAN_21mic_H50_0476_fot_58A-40167_W_tif
  70
32
  10
214426.500
  20
4528362.293
  30
768
  0
VERTEX
  8
PNOA-H_AMS_1956-57_33k_ES_PAN_21mic_H50_0476_fot_58A-40167_W_tif
  70
32
  10
214448.500
  20
4528357.293
  30
767
  0
VERTEX
  8
PNOA-H_AMS_1956-57_33k_ES_PAN_21mic_H50_0476_fot_58A-40167_W_tif
  70
32
  10
214449.500
  20
4528350.293
  30
767.46
  0
SEQEND
  8
PNOA-H_AMS_1956-57_33k_ES_PAN_21mic_H50_0476_fot_58A-40167_W_tif
  0
TEXT
  8
PNOA-H_AMS_1956-57_33k_ES_PAN_21mic_H50_0476_fot_58A-40167_W_tif
 62
0
  1
PNOA-H_AMS_1956-57_33k_ES_PAN_21mic_H50_0476_fot_58A-40167_W.tif
 40
41.77954
  10
213802.107
  20
4527067.397
  0
POLYLINE
  8
PNOA-H_AMS_1956-57_33k_ES_PAN_21mic_H50_0501_fot_000-36799_R_tif
  70
9
  66
1
  0
VERTEX
  8
PNOA-H_AMS_1956-57_33k_ES_PAN_21mic_H50_0501_fot_000-36799_R_tif
  70
32
  10
216056.068
  20
4525715.229
  30
755.833
  0
VERTEX
  8
PNOA-H_AMS_1956-57_33k_ES_PAN_21mic_H50_0501_fot_000-36799_R_tif
  70
32
  10
214578.212
  20
4525772.216
  30
760.798
  0
VERTEX
  8
PNOA-H_AMS_1956-57_33k_ES_PAN_21mic_H50_0501_fot_000-36799_R_tif
  70
32
  10
214449.000
  20
4528350.293
  30
767.52
  0
VERTEX
  8
PNOA-H_AMS_1956-57_33k_ES_PAN_21mic_H50_0501_fot_000-36799_R_tif
  70
32
  10
214449.000
  20
4528356.793
  30
767.02
  0
VERTEX
  8
PNOA-H_AMS_1956-57_33k_ES_PAN_21mic_H50_0501_fot_000-36799_R_tif
  70
32
  10
214456.500
  20
4528356.793
  30
767
  0
VERTEX
  8
PNOA-H_AMS_1956-57_33k_ES_PAN_21mic_H50_0501_fot_000-36799_R_tif
  70
32
  10
216200.500
  20
4528257.293
  30
760
  0
SEQEND
  8
PNOA-H_AMS_1956-57_33k_ES_PAN_21mic_H50_0501_fot_000-36799_R_tif
  0
TEXT
  8
PNOA-H_AMS_1956-57_33k_ES_PAN_21mic_H50_0501_fot_000-36799_R_tif
 62
0
  1
PNOA-H_AMS_1956-57_33k_ES_PAN_21mic_H50_0501_fot_000-36799_R.tif
 40
41.77954
  10
215322.748
  20
4526963.397
  0
POLYLINE
  8
PNOA-H_AMS_1956-57_33k_ES_PAN_21mic_H50_0501_fot_000-36800_R_tif
  70
9
  66
1
  0
VERTEX
  8
PNOA-H_AMS_1956-57_33k_ES_PAN_21mic_H50_0501_fot_000-36800_R_tif
  70
32
  10
212949.649
  20
4525835.354
  30
758.4
  0
VERTEX
  8
PNOA-H_AMS_1956-57_33k_ES_PAN_21mic_H50_0501_fot_000-36800_R_tif
  70
32
  10
211577.841
  20
4525888.906
  30
713.813
  0
VERTEX
  8
PNOA-H_AMS_1956-57_33k_ES_PAN_21mic_H50_0501_fot_000-36800_R_tif
  70
32
  10
211153.500
  20
4528569.293
  30
695.72
  0
VERTEX
  8
PNOA-H_AMS_1956-57_33k_ES_PAN_21mic_H50_0501_fot_000-36800_R_tif
  70
32
  10
212373.500
  20
4528466.793
  30
721.03
  0
VERTEX
  8
PNOA-H_AMS_1956-57_33k_ES_PAN_21mic_H50_0501_fot_000-36800_R_tif
  70
32
  10
212378.500
  20
4528466.793
  30
721
  0
VERTEX
  8
PNOA-H_AMS_1956-57_33k_ES_PAN_21mic_H50_0501_fot_000-36800_R_tif
  70
32
  10
213242.500
  20
4528394.293
  30
736.6
  0
SEQEND
  8
PNOA-H_AMS_1956-57_33k_ES_PAN_21mic_H50_0501_fot_000-36800_R_tif
  0
TEXT
  8
PNOA-H_AMS_1956-57_33k_ES_PAN_21mic_H50_0501_fot_000-36800_R_tif
 62
0
  1
PNOA-H_AMS_1956-57_33k_ES_PAN_21mic_H50_0501_fot_000-36800_R.tif
 40
41.77954
  10
212240.909
  20
4527069.647
  0
POLYLINE
  8
PNOA-H_AMS_1956-57_33k_ES_PAN_21mic_H50_0501_fot_000-36798_R_tif
  70
9
  66
1
  0
VERTEX
  8
PNOA-H_AMS_1956-57_33k_ES_PAN_21mic_H50_0501_fot_000-36798_R_tif
  70
32
  10
219168.598
  20
4525596.159
  30
760.582
  0
VERTEX
  8
PNOA-H_AMS_1956-57_33k_ES_PAN_21mic_H50_0501_fot_000-36798_R_tif
  70
32
  10
217454.476
  20
4525661.438
  30
755.446
  0
VERTEX
  8
PNOA-H_AMS_1956-57_33k_ES_PAN_21mic_H50_0501_fot_000-36798_R_tif
  70
32
  10
218104.500
  20
4528124.293
  30
765
  0
VERTEX
  8
PNOA-H_AMS_1956-57_33k_ES_PAN_21mic_H50_0501_fot_000-36798_R_tif
  70
32
  10
218516.500
  20
4528109.293
  30
759
  0
VERTEX
  8
PNOA-H_AMS_1956-57_33k_ES_PAN_21mic_H50_0501_fot_000-36798_R_tif
  70
32
  10
218522.500
  20
4528109.293
  30
759
  0
VERTEX
  8
PNOA-H_AMS_1956-57_33k_ES_PAN_21mic_H50_0501_fot_000-36798_R_tif
  70
32
  10
219094.000
  20
4528088.293
  30
756.36
  0
SEQEND
  8
PNOA-H_AMS_1956-57_33k_ES_PAN_21mic_H50_0501_fot_000-36798_R_tif
  0
TEXT
  8
PNOA-H_AMS_1956-57_33k_ES_PAN_21mic_H50_0501_fot_000-36798_R_tif
 62
0
  1
PNOA-H_AMS_1956-57_33k_ES_PAN_21mic_H50_0501_fot_000-36798_R.tif
 40
41.77954
  10
218433.492
  20
4526712.147
  0
POLYLINE
  8
PNOA-H_AMS_1956-57_33k_ES_PAN_21mic_H50_0476_fot_55A-03739_W_tif
  70
9
  66
1
  0
VERTEX
  8
PNOA-H_AMS_1956-57_33k_ES_PAN_21mic_H50_0476_fot_55A-03739_W_tif
  70
32
  10
224127.500
  20
4538869.793
  30
753
  0
VERTEX
  8
PNOA-H_AMS_1956-57_33k_ES_PAN_21mic_H50_0476_fot_55A-03739_W_tif
  70
32
  10
224035.500
  20
4537213.793
  30
739
  0
VERTEX
  8
PNOA-H_AMS_1956-57_33k_ES_PAN_21mic_H50_0476_fot_55A-03739_W_tif
  70
32
  10
222209.500
  20
4536736.293
  30
767.9
  0
VERTEX
  8
PNOA-H_AMS_1956-57_33k_ES_PAN_21mic_H50_0476_fot_55A-03739_W_tif
  70
32
  10
221202.500
  20
4537252.793
  30
796.55
  0
VERTEX
  8
PNOA-H_AMS_1956-57_33k_ES_PAN_21mic_H50_0476_fot_55A-03739_W_tif
  70
32
  10
221396.000
  20
4541441.793
  30
842
  0
VERTEX
  8
PNOA-H_AMS_1956-57_33k_ES_PAN_21mic_H50_0476_fot_55A-03739_W_tif
  70
32
  10
221397.500
  20
4541457.793
  30
842.05
  0
VERTEX
  8
PNOA-H_AMS_1956-57_33k_ES_PAN_21mic_H50_0476_fot_55A-03739_W_tif
  70
32
  10
222009.500
  20
4541692.793
  30
848
  0
VERTEX
  8
PNOA-H_AMS_1956-57_33k_ES_PAN_21mic_H50_0476_fot_55A-03739_W_tif
  70
32
  10
222016.500
  20
4541693.293
  30
848
  0
VERTEX
  8
PNOA-H_AMS_1956-57_33k_ES_PAN_21mic_H50_0476_fot_55A-03739_W_tif
  70
32
  10
224267.500
  20
4541373.793
  30
803.65
  0
VERTEX
  8
PNOA-H_AMS_1956-57_33k_ES_PAN_21mic_H50_0476_fot_55A-03739_W_tif
  70
32
  10
224127.500
  20
4538871.793
  30
753
  0
VERTEX
  8
PNOA-H_AMS_1956-57_33k_ES_PAN_21mic_H50_0476_fot_55A-03739_W_tif
  70
32
  10
224127.500
  20
4538869.793
  30
753
  0
SEQEND
  8
PNOA-H_AMS_1956-57_33k_ES_PAN_21mic_H50_0476_fot_55A-03739_W_tif
  0
TEXT
  8
PNOA-H_AMS_1956-57_33k_ES_PAN_21mic_H50_0476_fot_55A-03739_W_tif
 62
0
  1
PNOA-H_AMS_1956-57_33k_ES_PAN_21mic_H50_0476_fot_55A-03739_W.tif
 40
41.77954
  10
222719.911
  20
4539214.793
  0
POLYLINE
  8
PNOA-H_AMS_1956-57_33k_ES_PAN_21mic_H50_0476_fot_55A-03740_W_tif
  70
9
  66
1
  0
VERTEX
  8
PNOA-H_AMS_1956-57_33k_ES_PAN_21mic_H50_0476_fot_55A-03740_W_tif
  70
32
  10
218521.000
  20
4541571.793
  30
825
  0
VERTEX
  8
PNOA-H_AMS_1956-57_33k_ES_PAN_21mic_H50_0476_fot_55A-03740_W_tif
  70
32
  10
219203.500
  20
4541829.293
  30
831.7
  0
VERTEX
  8
PNOA-H_AMS_1956-57_33k_ES_PAN_21mic_H50_0476_fot_55A-03740_W_tif
  70
32
  10
219218.500
  20
4541834.793
  30
832
  0
VERTEX
  8
PNOA-H_AMS_1956-57_33k_ES_PAN_21mic_H50_0476_fot_55A-03740_W_tif
  70
32
  10
219222.000
  20
4541834.793
  30
832
  0
VERTEX
  8
PNOA-H_AMS_1956-57_33k_ES_PAN_21mic_H50_0476_fot_55A-03740_W_tif
  70
32
  10
221397.000
  20
4541457.293
  30
842
  0
VERTEX
  8
PNOA-H_AMS_1956-57_33k_ES_PAN_21mic_H50_0476_fot_55A-03740_W_tif
  70
32
  10
221202.500
  20
4537252.793
  30
796.55
  0
VERTEX
  8
PNOA-H_AMS_1956-57_33k_ES_PAN_21mic_H50_0476_fot_55A-03740_W_tif
  70
32
  10
219436.500
  20
4536833.793
  30
816.79
  0
VERTEX
  8
PNOA-H_AMS_1956-57_33k_ES_PAN_21mic_H50_0476_fot_55A-03740_W_tif
  70
32
  10
218269.500
  20
4537391.793
  30
788
  0
VERTEX
  8
PNOA-H_AMS_1956-57_33k_ES_PAN_21mic_H50_0476_fot_55A-03740_W_tif
  70
32
  10
218435.500
  20
4541534.293
  30
826
  0
VERTEX
  8
PNOA-H_AMS_1956-57_33k_ES_PAN_21mic_H50_0476_fot_55A-03740_W_tif
  70
32
  10
218436.000
  20
4541539.293
  30
826.4
  0
VERTEX
  8
PNOA-H_AMS_1956-57_33k_ES_PAN_21mic_H50_0476_fot_55A-03740_W_tif
  70
32
  10
218437.500
  20
4541540.293
  30
826.6
  0
VERTEX
  8
PNOA-H_AMS_1956-57_33k_ES_PAN_21mic_H50_0476_fot_55A-03740_W_tif
  70
32
  10
218520.000
  20
4541571.293
  30
825
  0
VERTEX
  8
PNOA-H_AMS_1956-57_33k_ES_PAN_21mic_H50_0476_fot_55A-03740_W_tif
  70
32
  10
218521.000
  20
4541571.793
  30
825
  0
SEQEND
  8
PNOA-H_AMS_1956-57_33k_ES_PAN_21mic_H50_0476_fot_55A-03740_W_tif
  0
TEXT
  8
PNOA-H_AMS_1956-57_33k_ES_PAN_21mic_H50_0476_fot_55A-03740_W_tif
 62
0
  1
PNOA-H_AMS_1956-57_33k_ES_PAN_21mic_H50_0476_fot_55A-03740_W.tif
 40
41.77954
  10
219823.065
  20
4539334.293
  0
POLYLINE
  8
PNOA-H_AMS_1956-57_33k_ES_PAN_21mic_H50_0476_fot_55A-03738_W_tif
  70
9
  66
1
  0
VERTEX
  8
PNOA-H_AMS_1956-57_33k_ES_PAN_21mic_H50_0476_fot_55A-03738_W_tif
  70
32
  10
224665.000
  20
4541520.793
  30
799
  0
VERTEX
  8
PNOA-H_AMS_1956-57_33k_ES_PAN_21mic_H50_0476_fot_55A-03738_W_tif
  70
32
  10
224743.500
  20
4541549.793
  30
795
  0
VERTEX
  8
PNOA-H_AMS_1956-57_33k_ES_PAN_21mic_H50_0476_fot_55A-03738_W_tif
  70
32
  10
224747.500
  20
4541550.293
  30
795
  0
VERTEX
  8
PNOA-H_AMS_1956-57_33k_ES_PAN_21mic_H50_0476_fot_55A-03738_W_tif
  70
32
  10
226953.500
  20
4541219.793
  30
810
  0
VERTEX
  8
PNOA-H_AMS_1956-57_33k_ES_PAN_21mic_H50_0476_fot_55A-03738_W_tif
  70
32
  10
226823.000
  20
4537075.793
  30
785.7
  0
VERTEX
  8
PNOA-H_AMS_1956-57_33k_ES_PAN_21mic_H50_0476_fot_55A-03738_W_tif
  70
32
  10
225373.500
  20
4536577.793
  30
787
  0
VERTEX
  8
PNOA-H_AMS_1956-57_33k_ES_PAN_21mic_H50_0476_fot_55A-03738_W_tif
  70
32
  10
224035.500
  20
4537213.793
  30
739
  0
VERTEX
  8
PNOA-H_AMS_1956-57_33k_ES_PAN_21mic_H50_0476_fot_55A-03738_W_tif
  70
32
  10
224267.000
  20
4541371.793
  30
803.54
  0
VERTEX
  8
PNOA-H_AMS_1956-57_33k_ES_PAN_21mic_H50_0476_fot_55A-03738_W_tif
  70
32
  10
224267.500
  20
4541373.793
  30
803.65
  0
VERTEX
  8
PNOA-H_AMS_1956-57_33k_ES_PAN_21mic_H50_0476_fot_55A-03738_W_tif
  70
32
  10
224270.500
  20
4541375.293
  30
803.6
  0
VERTEX
  8
PNOA-H_AMS_1956-57_33k_ES_PAN_21mic_H50_0476_fot_55A-03738_W_tif
  70
32
  10
224664.000
  20
4541520.293
  30
799
  0
VERTEX
  8
PNOA-H_AMS_1956-57_33k_ES_PAN_21mic_H50_0476_fot_55A-03738_W_tif
  70
32
  10
224665.000
  20
4541520.793
  30
799
  0
SEQEND
  8
PNOA-H_AMS_1956-57_33k_ES_PAN_21mic_H50_0476_fot_55A-03738_W_tif
  0
TEXT
  8
PNOA-H_AMS_1956-57_33k_ES_PAN_21mic_H50_0476_fot_55A-03738_W_tif
 62
0
  1
PNOA-H_AMS_1956-57_33k_ES_PAN_21mic_H50_0476_fot_55A-03738_W.tif
 40
41.77954
  10
225512.063
  20
4539064.043
  0
POLYLINE
  8
PNOA-H_AMS_1956-57_33k_ES_PAN_21mic_H50_0476_fot_56A-04384_W_tif
  70
9
  66
1
  0
VERTEX
  8
PNOA-H_AMS_1956-57_33k_ES_PAN_21mic_H50_0476_fot_56A-04384_W_tif
  70
32
  10
221918.500
  20
4532725.793
  30
726
  0
VERTEX
  8
PNOA-H_AMS_1956-57_33k_ES_PAN_21mic_H50_0476_fot_56A-04384_W_tif
  70
32
  10
221865.000
  20
4532695.793
  30
725
  0
VERTEX
  8
PNOA-H_AMS_1956-57_33k_ES_PAN_21mic_H50_0476_fot_56A-04384_W_tif
  70
32
  10
221861.000
  20
4532694.793
  30
725
  0
VERTEX
  8
PNOA-H_AMS_1956-57_33k_ES_PAN_21mic_H50_0476_fot_56A-04384_W_tif
  70
32
  10
219251.500
  20
4532987.293
  30
724.7
  0
VERTEX
  8
PNOA-H_AMS_1956-57_33k_ES_PAN_21mic_H50_0476_fot_56A-04384_W_tif
  70
32
  10
219437.000
  20
4536833.793
  30
816.72
  0
VERTEX
  8
PNOA-H_AMS_1956-57_33k_ES_PAN_21mic_H50_0476_fot_56A-04384_W_tif
  70
32
  10
221201.500
  20
4537252.793
  30
796.73
  0
VERTEX
  8
PNOA-H_AMS_1956-57_33k_ES_PAN_21mic_H50_0476_fot_56A-04384_W_tif
  70
32
  10
222210.000
  20
4536736.293
  30
768
  0
VERTEX
  8
PNOA-H_AMS_1956-57_33k_ES_PAN_21mic_H50_0476_fot_56A-04384_W_tif
  70
32
  10
222321.000
  20
4532946.293
  30
730
  0
VERTEX
  8
PNOA-H_AMS_1956-57_33k_ES_PAN_21mic_H50_0476_fot_56A-04384_W_tif
  70
32
  10
221919.500
  20
4532725.793
  30
726
  0
VERTEX
  8
PNOA-H_AMS_1956-57_33k_ES_PAN_21mic_H50_0476_fot_56A-04384_W_tif
  70
32
  10
221918.500
  20
4532725.793
  30
726
  0
SEQEND
  8
PNOA-H_AMS_1956-57_33k_ES_PAN_21mic_H50_0476_fot_56A-04384_W_tif
  0
TEXT
  8
PNOA-H_AMS_1956-57_33k_ES_PAN_21mic_H50_0476_fot_56A-04384_W_tif
 62
0
  1
PNOA-H_AMS_1956-57_33k_ES_PAN_21mic_H50_0476_fot_56A-04384_W.tif
 40
41.77954
  10
220804.460
  20
4534973.793
  0
POLYLINE
  8
PNOA-H_AMS_1956-57_33k_ES_PAN_21mic_H50_0476_fot_56A-04383_W_tif
  70
9
  66
1
  0
VERTEX
  8
PNOA-H_AMS_1956-57_33k_ES_PAN_21mic_H50_0476_fot_56A-04383_W_tif
  70
32
  10
224969.500
  20
4532725.793
  30
772
  0
VERTEX
  8
PNOA-H_AMS_1956-57_33k_ES_PAN_21mic_H50_0476_fot_56A-04383_W_tif
  70
32
  10
224853.000
  20
4532659.793
  30
765
  0
VERTEX
  8
PNOA-H_AMS_1956-57_33k_ES_PAN_21mic_H50_0476_fot_56A-04383_W_tif
  70
32
  10
224850.000
  20
4532658.293
  30
765
  0
VERTEX
  8
PNOA-H_AMS_1956-57_33k_ES_PAN_21mic_H50_0476_fot_56A-04383_W_tif
  70
32
  10
224846.500
  20
4532658.293
  30
765
  0
VERTEX
  8
PNOA-H_AMS_1956-57_33k_ES_PAN_21mic_H50_0476_fot_56A-04383_W_tif
  70
32
  10
222321.000
  20
4532946.793
  30
730
  0
VERTEX
  8
PNOA-H_AMS_1956-57_33k_ES_PAN_21mic_H50_0476_fot_56A-04383_W_tif
  70
32
  10
222210.000
  20
4536736.293
  30
768
  0
VERTEX
  8
PNOA-H_AMS_1956-57_33k_ES_PAN_21mic_H50_0476_fot_56A-04383_W_tif
  70
32
  10
224034.000
  20
4537213.793
  30
739
  0
VERTEX
  8
PNOA-H_AMS_1956-57_33k_ES_PAN_21mic_H50_0476_fot_56A-04383_W_tif
  70
32
  10
224043.500
  20
4537210.293
  30
739.12
  0
VERTEX
  8
PNOA-H_AMS_1956-57_33k_ES_PAN_21mic_H50_0476_fot_56A-04383_W_tif
  70
32
  10
225374.500
  20
4536577.793
  30
787
  0
VERTEX
  8
PNOA-H_AMS_1956-57_33k_ES_PAN_21mic_H50_0476_fot_56A-04383_W_tif
  70
32
  10
225156.000
  20
4532830.293
  30
774
  0
VERTEX
  8
PNOA-H_AMS_1956-57_33k_ES_PAN_21mic_H50_0476_fot_56A-04383_W_tif
  70
32
  10
224970.500
  20
4532725.793
  30
772
  0
VERTEX
  8
PNOA-H_AMS_1956-57_33k_ES_PAN_21mic_H50_0476_fot_56A-04383_W_tif
  70
32
  10
224969.500
  20
4532725.793
  30
772
  0
SEQEND
  8
PNOA-H_AMS_1956-57_33k_ES_PAN_21mic_H50_0476_fot_56A-04383_W_tif
  0
TEXT
  8
PNOA-H_AMS_1956-57_33k_ES_PAN_21mic_H50_0476_fot_56A-04383_W_tif
 62
0
  1
PNOA-H_AMS_1956-57_33k_ES_PAN_21mic_H50_0476_fot_56A-04383_W.tif
 40
41.77954
  10
223770.754
  20
4534936.043
  0
POLYLINE
  8
PNOA-H_AMS_1956-57_33k_ES_PAN_21mic_H50_0476_fot_57A-36829_E_tif
  70
9
  66
1
  0
VERTEX
  8
PNOA-H_AMS_1956-57_33k_ES_PAN_21mic_H50_0476_fot_57A-36829_E_tif
  70
32
  10
220570.500
  20
4532839.793
  30
729.45
  0
VERTEX
  8
PNOA-H_AMS_1956-57_33k_ES_PAN_21mic_H50_0476_fot_57A-36829_E_tif
  70
32
  10
221862.500
  20
4532694.793
  30
725
  0
VERTEX
  8
PNOA-H_AMS_1956-57_33k_ES_PAN_21mic_H50_0476_fot_57A-36829_E_tif
  70
32
  10
221812.500
  20
4531725.293
  30
746
  0
VERTEX
  8
PNOA-H_AMS_1956-57_33k_ES_PAN_21mic_H50_0476_fot_57A-36829_E_tif
  70
32
  10
219495.500
  20
4529041.793
  30
749.09
  0
VERTEX
  8
PNOA-H_AMS_1956-57_33k_ES_PAN_21mic_H50_0476_fot_57A-36829_E_tif
  70
32
  10
219494.500
  20
4529041.793
  30
749.1
  0
VERTEX
  8
PNOA-H_AMS_1956-57_33k_ES_PAN_21mic_H50_0476_fot_57A-36829_E_tif
  70
32
  10
219486.500
  20
4529074.293
  30
747.42
  0
VERTEX
  8
PNOA-H_AMS_1956-57_33k_ES_PAN_21mic_H50_0476_fot_57A-36829_E_tif
  70
32
  10
218865.500
  20
4531632.793
  30
777
  0
VERTEX
  8
PNOA-H_AMS_1956-57_33k_ES_PAN_21mic_H50_0476_fot_57A-36829_E_tif
  70
32
  10
218936.500
  20
4532822.793
  30
726.9
  0
VERTEX
  8
PNOA-H_AMS_1956-57_33k_ES_PAN_21mic_H50_0476_fot_57A-36829_E_tif
  70
32
  10
218946.000
  20
4532828.793
  30
726
  0
VERTEX
  8
PNOA-H_AMS_1956-57_33k_ES_PAN_21mic_H50_0476_fot_57A-36829_E_tif
  70
32
  10
219251.000
  20
4532987.293
  30
724.8
  0
VERTEX
  8
PNOA-H_AMS_1956-57_33k_ES_PAN_21mic_H50_0476_fot_57A-36829_E_tif
  70
32
  10
220567.500
  20
4532839.793
  30
730
  0
VERTEX
  8
PNOA-H_AMS_1956-57_33k_ES_PAN_21mic_H50_0476_fot_57A-36829_E_tif
  70
32
  10
220570.500
  20
4532839.793
  30
729.45
  0
SEQEND
  8
PNOA-H_AMS_1956-57_33k_ES_PAN_21mic_H50_0476_fot_57A-36829_E_tif
  0
TEXT
  8
PNOA-H_AMS_1956-57_33k_ES_PAN_21mic_H50_0476_fot_57A-36829_E_tif
 62
0
  1
PNOA-H_AMS_1956-57_33k_ES_PAN_21mic_H50_0476_fot_57A-36829_E.tif
 40
41.77954
  10
220107.191
  20
4531014.543
  0
POLYLINE
  8
PNOA-H_AMS_1956-57_33k_ES_PAN_21mic_H50_0476_fot_57A-36830_E_tif
  70
9
  66
1
  0
VERTEX
  8
PNOA-H_AMS_1956-57_33k_ES_PAN_21mic_H50_0476_fot_57A-36830_E_tif
  70
32
  10
222321.000
  20
4532946.793
  30
730
  0
VERTEX
  8
PNOA-H_AMS_1956-57_33k_ES_PAN_21mic_H50_0476_fot_57A-36830_E_tif
  70
32
  10
224849.500
  20
4532658.293
  30
765
  0
VERTEX
  8
PNOA-H_AMS_1956-57_33k_ES_PAN_21mic_H50_0476_fot_57A-36830_E_tif
  70
32
  10
224839.500
  20
4532195.293
  30
772
  0
VERTEX
  8
PNOA-H_AMS_1956-57_33k_ES_PAN_21mic_H50_0476_fot_57A-36830_E_tif
  70
32
  10
224838.500
  20
4532186.793
  30
772
  0
VERTEX
  8
PNOA-H_AMS_1956-57_33k_ES_PAN_21mic_H50_0476_fot_57A-36830_E_tif
  70
32
  10
222517.000
  20
4528357.293
  30
764
  0
VERTEX
  8
PNOA-H_AMS_1956-57_33k_ES_PAN_21mic_H50_0476_fot_57A-36830_E_tif
  70
32
  10
221812.500
  20
4531724.293
  30
746
  0
VERTEX
  8
PNOA-H_AMS_1956-57_33k_ES_PAN_21mic_H50_0476_fot_57A-36830_E_tif
  70
32
  10
221862.500
  20
4532694.793
  30
725
  0
VERTEX
  8
PNOA-H_AMS_1956-57_33k_ES_PAN_21mic_H50_0476_fot_57A-36830_E_tif
  70
32
  10
222320.000
  20
4532946.293
  30
730
  0
VERTEX
  8
PNOA-H_AMS_1956-57_33k_ES_PAN_21mic_H50_0476_fot_57A-36830_E_tif
  70
32
  10
222321.000
  20
4532946.793
  30
730
  0
SEQEND
  8
PNOA-H_AMS_1956-57_33k_ES_PAN_21mic_H50_0476_fot_57A-36830_E_tif
  0
TEXT
  8
PNOA-H_AMS_1956-57_33k_ES_PAN_21mic_H50_0476_fot_57A-36830_E_tif
 62
0
  1
PNOA-H_AMS_1956-57_33k_ES_PAN_21mic_H50_0476_fot_57A-36830_E.tif
 40
41.77954
  10
222972.483
  20
4530652.043
  0
POLYLINE
  8
PNOA-H_AMS_1956-57_33k_ES_PAN_21mic_H50_0476_fot_000-04737_R_tif
  70
9
  66
1
  0
VERTEX
  8
PNOA-H_AMS_1956-57_33k_ES_PAN_21mic_H50_0476_fot_000-04737_R_tif
  70
32
  10
221812.000
  20
4531725.293
  30
746
  0
VERTEX
  8
PNOA-H_AMS_1956-57_33k_ES_PAN_21mic_H50_0476_fot_000-04737_R_tif
  70
32
  10
221814.500
  20
4531717.293
  30
746
  0
VERTEX
  8
PNOA-H_AMS_1956-57_33k_ES_PAN_21mic_H50_0476_fot_000-04737_R_tif
  70
32
  10
222515.500
  20
4528364.293
  30
764
  0
VERTEX
  8
PNOA-H_AMS_1956-57_33k_ES_PAN_21mic_H50_0476_fot_000-04737_R_tif
  70
32
  10
222516.500
  20
4528359.293
  30
764
  0
VERTEX
  8
PNOA-H_AMS_1956-57_33k_ES_PAN_21mic_H50_0476_fot_000-04737_R_tif
  70
32
  10
222516.500
  20
4528341.293
  30
764
  0
VERTEX
  8
PNOA-H_AMS_1956-57_33k_ES_PAN_21mic_H50_0476_fot_000-04737_R_tif
  70
32
  10
221863.000
  20
4527958.293
  30
754.6
  0
VERTEX
  8
PNOA-H_AMS_1956-57_33k_ES_PAN_21mic_H50_0476_fot_000-04737_R_tif
  70
32
  10
221759.000
  20
4527960.293
  30
742
  0
VERTEX
  8
PNOA-H_AMS_1956-57_33k_ES_PAN_21mic_H50_0476_fot_000-04737_R_tif
  70
32
  10
219475.000
  20
4528315.293
  30
757.6
  0
VERTEX
  8
PNOA-H_AMS_1956-57_33k_ES_PAN_21mic_H50_0476_fot_000-04737_R_tif
  70
32
  10
219495.000
  20
4529041.793
  30
749.1
  0
VERTEX
  8
PNOA-H_AMS_1956-57_33k_ES_PAN_21mic_H50_0476_fot_000-04737_R_tif
  70
32
  10
221811.500
  20
4531724.293
  30
746
  0
VERTEX
  8
PNOA-H_AMS_1956-57_33k_ES_PAN_21mic_H50_0476_fot_000-04737_R_tif
  70
32
  10
221812.000
  20
4531725.293
  30
746
  0
SEQEND
  8
PNOA-H_AMS_1956-57_33k_ES_PAN_21mic_H50_0476_fot_000-04737_R_tif
  0
TEXT
  8
PNOA-H_AMS_1956-57_33k_ES_PAN_21mic_H50_0476_fot_000-04737_R_tif
 62
0
  1
PNOA-H_AMS_1956-57_33k_ES_PAN_21mic_H50_0476_fot_000-04737_R.tif
 40
41.77954
  10
221196.226
  20
4529841.793
  0
POLYLINE
  8
PNOA-H_AMS_1956-57_33k_ES_PAN_21mic_H50_0476_fot_58A-40165_W_tif
  70
9
  66
1
  0
VERTEX
  8
PNOA-H_AMS_1956-57_33k_ES_PAN_21mic_H50_0476_fot_58A-40165_W_tif
  70
32
  10
220369.316
  20
4525550.431
  30
759.263
  0
VERTEX
  8
PNOA-H_AMS_1956-57_33k_ES_PAN_21mic_H50_0476_fot_58A-40165_W_tif
  70
32
  10
219168.604
  20
4525596.158
  30
760.602
  0
VERTEX
  8
PNOA-H_AMS_1956-57_33k_ES_PAN_21mic_H50_0476_fot_58A-40165_W_tif
  70
32
  10
219094.000
  20
4528088.793
  30
756.44
  0
VERTEX
  8
PNOA-H_AMS_1956-57_33k_ES_PAN_21mic_H50_0476_fot_58A-40165_W_tif
  70
32
  10
219463.000
  20
4528308.793
  30
755.18
  0
VERTEX
  8
PNOA-H_AMS_1956-57_33k_ES_PAN_21mic_H50_0476_fot_58A-40165_W_tif
  70
32
  10
219474.000
  20
4528315.293
  30
757.4
  0
VERTEX
  8
PNOA-H_AMS_1956-57_33k_ES_PAN_21mic_H50_0476_fot_58A-40165_W_tif
  70
32
  10
219477.000
  20
4528315.293
  30
757.76
  0
VERTEX
  8
PNOA-H_AMS_1956-57_33k_ES_PAN_21mic_H50_0476_fot_58A-40165_W_tif
  70
32
  10
221760.000
  20
4527960.293
  30
742
  0
SEQEND
  8
PNOA-H_AMS_1956-57_33k_ES_PAN_21mic_H50_0476_fot_58A-40165_W_tif
  0
TEXT
  8
PNOA-H_AMS_1956-57_33k_ES_PAN_21mic_H50_0476_fot_58A-40165_W_tif
 62
0
  1
PNOA-H_AMS_1956-57_33k_ES_PAN_21mic_H50_0476_fot_58A-40165_W.tif
 40
41.77954
  10
220113.587
  20
4526807.647
  0
POLYLINE
  8
PNOA-H_AMS_1956-57_33k_ES_PAN_21mic_H50_0501_fot_000-36797_R_tif
  70
9
  66
1
  0
VERTEX
  8
PNOA-H_AMS_1956-57_33k_ES_PAN_21mic_H50_0501_fot_000-36797_R_tif
  70
32
  10
222158.567
  20
4525482.991
  30
757.249
  0
VERTEX
  8
PNOA-H_AMS_1956-57_33k_ES_PAN_21mic_H50_0501_fot_000-36797_R_tif
  70
32
  10
220690.285
  20
4525538.208
  30
759.086
  0
VERTEX
  8
PNOA-H_AMS_1956-57_33k_ES_PAN_21mic_H50_0501_fot_000-36797_R_tif
  70
32
  10
220369.554
  20
4525550.422
  30
757.943
  0
VERTEX
  8
PNOA-H_AMS_1956-57_33k_ES_PAN_21mic_H50_0501_fot_000-36797_R_tif
  70
32
  10
221759.500
  20
4527959.293
  30
742
  0
VERTEX
  8
PNOA-H_AMS_1956-57_33k_ES_PAN_21mic_H50_0501_fot_000-36797_R_tif
  70
32
  10
221760.000
  20
4527960.293
  30
742
  0
VERTEX
  8
PNOA-H_AMS_1956-57_33k_ES_PAN_21mic_H50_0501_fot_000-36797_R_tif
  70
32
  10
221860.500
  20
4527958.793
  30
754.1
  0
VERTEX
  8
PNOA-H_AMS_1956-57_33k_ES_PAN_21mic_H50_0501_fot_000-36797_R_tif
  70
32
  10
221863.500
  20
4527957.793
  30
754.7
  0
SEQEND
  8
PNOA-H_AMS_1956-57_33k_ES_PAN_21mic_H50_0501_fot_000-36797_R_tif
  0
TEXT
  8
PNOA-H_AMS_1956-57_33k_ES_PAN_21mic_H50_0501_fot_000-36797_R_tif
 62
0
  1
PNOA-H_AMS_1956-57_33k_ES_PAN_21mic_H50_0501_fot_000-36797_R.tif
 40
41.77954
  10
221507.180
  20
4526630.147
  0
POLYLINE
  8
PNOA-H_AMS_1956-57_33k_ES_PAN_21mic_H50_0476_fot_55A-03737_W_tif
  70
9
  66
1
  0
VERTEX
  8
PNOA-H_AMS_1956-57_33k_ES_PAN_21mic_H50_0476_fot_55A-03737_W_tif
  70
32
  10
227540.000
  20
4541438.293
  30
818
  0
VERTEX
  8
PNOA-H_AMS_1956-57_33k_ES_PAN_21mic_H50_0476_fot_55A-03737_W_tif
  70
32
  10
229631.000
  20
4541135.293
  30
779
  0
VERTEX
  8
PNOA-H_AMS_1956-57_33k_ES_PAN_21mic_H50_0476_fot_55A-03737_W_tif
  70
32
  10
229634.500
  20
4537007.793
  30
769.1
  0
VERTEX
  8
PNOA-H_AMS_1956-57_33k_ES_PAN_21mic_H50_0476_fot_55A-03737_W_tif
  70
32
  10
228318.000
  20
4536498.793
  30
762.7
  0
VERTEX
  8
PNOA-H_AMS_1956-57_33k_ES_PAN_21mic_H50_0476_fot_55A-03737_W_tif
  70
32
  10
226823.000
  20
4537075.793
  30
785.7
  0
VERTEX
  8
PNOA-H_AMS_1956-57_33k_ES_PAN_21mic_H50_0476_fot_55A-03737_W_tif
  70
32
  10
226953.500
  20
4541219.793
  30
810
  0
VERTEX
  8
PNOA-H_AMS_1956-57_33k_ES_PAN_21mic_H50_0476_fot_55A-03737_W_tif
  70
32
  10
227539.000
  20
4541437.793
  30
818
  0
VERTEX
  8
PNOA-H_AMS_1956-57_33k_ES_PAN_21mic_H50_0476_fot_55A-03737_W_tif
  70
32
  10
227540.000
  20
4541438.293
  30
818
  0
SEQEND
  8
PNOA-H_AMS_1956-57_33k_ES_PAN_21mic_H50_0476_fot_55A-03737_W_tif
  0
TEXT
  8
PNOA-H_AMS_1956-57_33k_ES_PAN_21mic_H50_0476_fot_55A-03737_W_tif
 62
0
  1
PNOA-H_AMS_1956-57_33k_ES_PAN_21mic_H50_0476_fot_55A-03737_W.tif
 40
41.77954
  10
228257.721
  20
4538968.543
  0
POLYLINE
  8
PNOA-H_AMS_1956-57_33k_ES_PAN_21mic_H50_0476_fot_56A-04382_W_tif
  70
9
  66
1
  0
VERTEX
  8
PNOA-H_AMS_1956-57_33k_ES_PAN_21mic_H50_0476_fot_56A-04382_W_tif
  70
32
  10
226714.000
  20
4537038.793
  30
789
  0
VERTEX
  8
PNOA-H_AMS_1956-57_33k_ES_PAN_21mic_H50_0476_fot_56A-04382_W_tif
  70
32
  10
226821.500
  20
4537075.793
  30
785.7
  0
VERTEX
  8
PNOA-H_AMS_1956-57_33k_ES_PAN_21mic_H50_0476_fot_56A-04382_W_tif
  70
32
  10
226827.000
  20
4537074.793
  30
785.3
  0
VERTEX
  8
PNOA-H_AMS_1956-57_33k_ES_PAN_21mic_H50_0476_fot_56A-04382_W_tif
  70
32
  10
228318.500
  20
4536498.793
  30
762.7
  0
VERTEX
  8
PNOA-H_AMS_1956-57_33k_ES_PAN_21mic_H50_0476_fot_56A-04382_W_tif
  70
32
  10
228213.500
  20
4532643.793
  30
763.7
  0
VERTEX
  8
PNOA-H_AMS_1956-57_33k_ES_PAN_21mic_H50_0476_fot_56A-04382_W_tif
  70
32
  10
228213.000
  20
4532640.793
  30
764
  0
VERTEX
  8
PNOA-H_AMS_1956-57_33k_ES_PAN_21mic_H50_0476_fot_56A-04382_W_tif
  70
32
  10
228210.500
  20
4532638.793
  30
764
  0
VERTEX
  8
PNOA-H_AMS_1956-57_33k_ES_PAN_21mic_H50_0476_fot_56A-04382_W_tif
  70
32
  10
228058.500
  20
4532544.293
  30
764
  0
VERTEX
  8
PNOA-H_AMS_1956-57_33k_ES_PAN_21mic_H50_0476_fot_56A-04382_W_tif
  70
32
  10
225156.000
  20
4532830.293
  30
774
  0
VERTEX
  8
PNOA-H_AMS_1956-57_33k_ES_PAN_21mic_H50_0476_fot_56A-04382_W_tif
  70
32
  10
225374.500
  20
4536577.793
  30
787
  0
VERTEX
  8
PNOA-H_AMS_1956-57_33k_ES_PAN_21mic_H50_0476_fot_56A-04382_W_tif
  70
32
  10
226712.500
  20
4537038.293
  30
789
  0
VERTEX
  8
PNOA-H_AMS_1956-57_33k_ES_PAN_21mic_H50_0476_fot_56A-04382_W_tif
  70
32
  10
226714.000
  20
4537038.793
  30
789
  0
SEQEND
  8
PNOA-H_AMS_1956-57_33k_ES_PAN_21mic_H50_0476_fot_56A-04382_W_tif
  0
TEXT
  8
PNOA-H_AMS_1956-57_33k_ES_PAN_21mic_H50_0476_fot_56A-04382_W_tif
 62
0
  1
PNOA-H_AMS_1956-57_33k_ES_PAN_21mic_H50_0476_fot_56A-04382_W.tif
 40
41.77954
  10
226771.967
  20
4534810.043
  0
POLYLINE
  8
PNOA-H_AMS_1956-57_33k_ES_PAN_21mic_H50_0476_fot_56A-04381_W_tif
  70
9
  66
1
  0
VERTEX
  8
PNOA-H_AMS_1956-57_33k_ES_PAN_21mic_H50_0476_fot_56A-04381_W_tif
  70
32
  10
228318.500
  20
4536498.793
  30
762.7
  0
VERTEX
  8
PNOA-H_AMS_1956-57_33k_ES_PAN_21mic_H50_0476_fot_56A-04381_W_tif
  70
32
  10
229633.500
  20
4537007.793
  30
769.1
  0
VERTEX
  8
PNOA-H_AMS_1956-57_33k_ES_PAN_21mic_H50_0476_fot_56A-04381_W_tif
  70
32
  10
229652.500
  20
4537002.293
  30
770
  0
VERTEX
  8
PNOA-H_AMS_1956-57_33k_ES_PAN_21mic_H50_0476_fot_56A-04381_W_tif
  70
32
  10
231232.000
  20
4536477.793
  30
827
  0
VERTEX
  8
PNOA-H_AMS_1956-57_33k_ES_PAN_21mic_H50_0476_fot_56A-04381_W_tif
  70
32
  10
231172.000
  20
4532750.793
  30
774
  0
VERTEX
  8
PNOA-H_AMS_1956-57_33k_ES_PAN_21mic_H50_0476_fot_56A-04381_W_tif
  70
32
  10
231172.000
  20
4532725.793
  30
773
  0
VERTEX
  8
PNOA-H_AMS_1956-57_33k_ES_PAN_21mic_H50_0476_fot_56A-04381_W_tif
  70
32
  10
231169.500
  20
4532579.793
  30
777
  0
VERTEX
  8
PNOA-H_AMS_1956-57_33k_ES_PAN_21mic_H50_0476_fot_56A-04381_W_tif
  70
32
  10
228213.000
  20
4532640.793
  30
764
  0
SEQEND
  8
PNOA-H_AMS_1956-57_33k_ES_PAN_21mic_H50_0476_fot_56A-04381_W_tif
  0
TEXT
  8
PNOA-H_AMS_1956-57_33k_ES_PAN_21mic_H50_0476_fot_56A-04381_W_tif
 62
0
  1
PNOA-H_AMS_1956-57_33k_ES_PAN_21mic_H50_0476_fot_56A-04381_W.tif
 40
41.77954
  10
229738.383
  20
4534793.793
  0
ENDSEC
  0
EOF
