  0
SECTION
  2
HEADER
  9
$ACADVER
  1
AC1009
  9
$LUNITS
  70
2
  9
$LIMMIN
  10
175007.641
  20
4526224.092
  9
$LIMMAX
  10
203866.276
  20
4545916.093
  9
$EXTMIN
  10
175007.641
  20
4526224.092
  9
$EXTMAX
  10
203866.276
  20
4545916.093
  999
Created by Global Mapper
  999
Projection: UTM
  999
Datum: ETRS89
  999
Ground Units: meters
  999
ZONE: 30
  0
ENDSEC
  0
SECTION
  2
TABLES
  0
ENDSEC
  0
SECTION
  2
BLOCKS
  0
ENDSEC
  0
SECTION
  2
ENTITIES
  0
POLYLINE
  8
PNOA-H_AMS_1956-57_33k_ES_PAN_21mic_H50_0449_fot_54A-29181_W_tif
  70
9
  66
1
  0
VERTEX
  8
PNOA-H_AMS_1956-57_33k_ES_PAN_21mic_H50_0449_fot_54A-29181_W_tif
  70
32
  10
185057.281
  20
4545514.027
  30
518.921
  0
VERTEX
  8
PNOA-H_AMS_1956-57_33k_ES_PAN_21mic_H50_0449_fot_54A-29181_W_tif
  70
32
  10
185027.500
  20
4544514.293
  30
554
  0
VERTEX
  8
PNOA-H_AMS_1956-57_33k_ES_PAN_21mic_H50_0449_fot_54A-29181_W_tif
  70
32
  10
185014.500
  20
4544508.793
  30
554
  0
VERTEX
  8
PNOA-H_AMS_1956-57_33k_ES_PAN_21mic_H50_0449_fot_54A-29181_W_tif
  70
32
  10
183542.500
  20
4543995.793
  30
602
  0
VERTEX
  8
PNOA-H_AMS_1956-57_33k_ES_PAN_21mic_H50_0449_fot_54A-29181_W_tif
  70
32
  10
183540.500
  20
4543995.793
  30
602
  0
VERTEX
  8
PNOA-H_AMS_1956-57_33k_ES_PAN_21mic_H50_0449_fot_54A-29181_W_tif
  70
32
  10
183526.000
  20
4544002.793
  30
600.18
  0
VERTEX
  8
PNOA-H_AMS_1956-57_33k_ES_PAN_21mic_H50_0449_fot_54A-29181_W_tif
  70
32
  10
182064.000
  20
4544721.293
  30
598.16
  0
VERTEX
  8
PNOA-H_AMS_1956-57_33k_ES_PAN_21mic_H50_0449_fot_54A-29181_W_tif
  70
32
  10
182036.000
  20
4544735.293
  30
600.48
  0
VERTEX
  8
PNOA-H_AMS_1956-57_33k_ES_PAN_21mic_H50_0449_fot_54A-29181_W_tif
  70
32
  10
182036.000
  20
4544744.793
  30
600.4
  0
VERTEX
  8
PNOA-H_AMS_1956-57_33k_ES_PAN_21mic_H50_0449_fot_54A-29181_W_tif
  70
32
  10
182075.807
  20
4545642.597
  30
562.716
  0
VERTEX
  8
PNOA-H_AMS_1956-57_33k_ES_PAN_21mic_H50_0449_fot_54A-29181_W_tif
  70
32
  10
182834.912
  20
4545609.591
  30
562.689
  0
SEQEND
  8
PNOA-H_AMS_1956-57_33k_ES_PAN_21mic_H50_0449_fot_54A-29181_W_tif
  0
TEXT
  8
PNOA-H_AMS_1956-57_33k_ES_PAN_21mic_H50_0449_fot_54A-29181_W_tif
 62
0
  1
PNOA-H_AMS_1956-57_33k_ES_PAN_21mic_H50_0449_fot_54A-29181_W.tif
 40
41.92443
  10
183546.640
  20
4544819.195
  0
POLYLINE
  8
PNOA-H_AMS_1956-57_33k_ES_PAN_21mic_H50_0449_fot_54A-29180_W_tif
  70
9
  66
1
  0
VERTEX
  8
PNOA-H_AMS_1956-57_33k_ES_PAN_21mic_H50_0449_fot_54A-29180_W_tif
  70
32
  10
187925.928
  20
4545391.433
  30
594.624
  0
VERTEX
  8
PNOA-H_AMS_1956-57_33k_ES_PAN_21mic_H50_0449_fot_54A-29180_W_tif
  70
32
  10
187841.500
  20
4544206.293
  30
562.06
  0
VERTEX
  8
PNOA-H_AMS_1956-57_33k_ES_PAN_21mic_H50_0449_fot_54A-29180_W_tif
  70
32
  10
186474.000
  20
4543795.293
  30
645
  0
VERTEX
  8
PNOA-H_AMS_1956-57_33k_ES_PAN_21mic_H50_0449_fot_54A-29180_W_tif
  70
32
  10
185027.000
  20
4544513.793
  30
554
  0
VERTEX
  8
PNOA-H_AMS_1956-57_33k_ES_PAN_21mic_H50_0449_fot_54A-29180_W_tif
  70
32
  10
185056.964
  20
4545514.041
  30
518.909
  0
VERTEX
  8
PNOA-H_AMS_1956-57_33k_ES_PAN_21mic_H50_0449_fot_54A-29180_W_tif
  70
32
  10
186340.196
  20
4545458.861
  30
519.496
  0
SEQEND
  8
PNOA-H_AMS_1956-57_33k_ES_PAN_21mic_H50_0449_fot_54A-29180_W_tif
  0
TEXT
  8
PNOA-H_AMS_1956-57_33k_ES_PAN_21mic_H50_0449_fot_54A-29180_W_tif
 62
0
  1
PNOA-H_AMS_1956-57_33k_ES_PAN_21mic_H50_0449_fot_54A-29180_W.tif
 40
41.92443
  10
186476.464
  20
4544654.667
  0
POLYLINE
  8
PNOA-H_AMS_1956-57_33k_ES_PAN_21mic_H50_0449_fot_54A-29179_W_tif
  70
9
  66
1
  0
VERTEX
  8
PNOA-H_AMS_1956-57_33k_ES_PAN_21mic_H50_0449_fot_54A-29179_W_tif
  70
32
  10
190845.623
  20
4545267.762
  30
590.45
  0
VERTEX
  8
PNOA-H_AMS_1956-57_33k_ES_PAN_21mic_H50_0449_fot_54A-29179_W_tif
  70
32
  10
190792.000
  20
4544005.793
  30
578.68
  0
VERTEX
  8
PNOA-H_AMS_1956-57_33k_ES_PAN_21mic_H50_0449_fot_54A-29179_W_tif
  70
32
  10
189430.000
  20
4543535.293
  30
574
  0
VERTEX
  8
PNOA-H_AMS_1956-57_33k_ES_PAN_21mic_H50_0449_fot_54A-29179_W_tif
  70
32
  10
187844.000
  20
4544204.793
  30
562.4
  0
VERTEX
  8
PNOA-H_AMS_1956-57_33k_ES_PAN_21mic_H50_0449_fot_54A-29179_W_tif
  70
32
  10
187841.500
  20
4544206.293
  30
562.06
  0
VERTEX
  8
PNOA-H_AMS_1956-57_33k_ES_PAN_21mic_H50_0449_fot_54A-29179_W_tif
  70
32
  10
187841.500
  20
4544211.293
  30
561.44
  0
VERTEX
  8
PNOA-H_AMS_1956-57_33k_ES_PAN_21mic_H50_0449_fot_54A-29179_W_tif
  70
32
  10
187925.704
  20
4545391.443
  30
594.147
  0
VERTEX
  8
PNOA-H_AMS_1956-57_33k_ES_PAN_21mic_H50_0449_fot_54A-29179_W_tif
  70
32
  10
189845.457
  20
4545309.812
  30
590.446
  0
SEQEND
  8
PNOA-H_AMS_1956-57_33k_ES_PAN_21mic_H50_0449_fot_54A-29179_W_tif
  0
TEXT
  8
PNOA-H_AMS_1956-57_33k_ES_PAN_21mic_H50_0449_fot_54A-29179_W_tif
 62
0
  1
PNOA-H_AMS_1956-57_33k_ES_PAN_21mic_H50_0449_fot_54A-29179_W.tif
 40
41.92443
  10
189343.562
  20
4544463.368
  0
POLYLINE
  8
PNOA-H_AMS_1956-57_33k_ES_PAN_21mic_H50_0449_fot_54A-29176_W_tif
  70
9
  66
1
  0
VERTEX
  8
PNOA-H_AMS_1956-57_33k_ES_PAN_21mic_H50_0449_fot_54A-29176_W_tif
  70
32
  10
199504.322
  20
4544907.945
  30
688.14
  0
VERTEX
  8
PNOA-H_AMS_1956-57_33k_ES_PAN_21mic_H50_0449_fot_54A-29176_W_tif
  70
32
  10
199408.000
  20
4543217.793
  30
689
  0
VERTEX
  8
PNOA-H_AMS_1956-57_33k_ES_PAN_21mic_H50_0449_fot_54A-29176_W_tif
  70
32
  10
198267.500
  20
4542854.293
  30
647.5
  0
VERTEX
  8
PNOA-H_AMS_1956-57_33k_ES_PAN_21mic_H50_0449_fot_54A-29176_W_tif
  70
32
  10
198261.000
  20
4542853.293
  30
648
  0
VERTEX
  8
PNOA-H_AMS_1956-57_33k_ES_PAN_21mic_H50_0449_fot_54A-29176_W_tif
  70
32
  10
196515.000
  20
4543485.793
  30
672
  0
VERTEX
  8
PNOA-H_AMS_1956-57_33k_ES_PAN_21mic_H50_0449_fot_54A-29176_W_tif
  70
32
  10
196621.774
  20
4545026.485
  30
692.653
  0
VERTEX
  8
PNOA-H_AMS_1956-57_33k_ES_PAN_21mic_H50_0449_fot_54A-29176_W_tif
  70
32
  10
196855.911
  20
4545016.753
  30
692.739
  0
SEQEND
  8
PNOA-H_AMS_1956-57_33k_ES_PAN_21mic_H50_0449_fot_54A-29176_W_tif
  0
TEXT
  8
PNOA-H_AMS_1956-57_33k_ES_PAN_21mic_H50_0449_fot_54A-29176_W_tif
 62
0
  1
PNOA-H_AMS_1956-57_33k_ES_PAN_21mic_H50_0449_fot_54A-29176_W.tif
 40
41.92443
  10
198009.661
  20
4543939.889
  0
POLYLINE
  8
PNOA-H_AMS_1956-57_33k_ES_PAN_21mic_H50_0449_fot_54A-29177_W_tif
  70
9
  66
1
  0
VERTEX
  8
PNOA-H_AMS_1956-57_33k_ES_PAN_21mic_H50_0449_fot_54A-29177_W_tif
  70
32
  10
196622.033
  20
4545026.474
  30
692.646
  0
VERTEX
  8
PNOA-H_AMS_1956-57_33k_ES_PAN_21mic_H50_0449_fot_54A-29177_W_tif
  70
32
  10
196515.500
  20
4543486.293
  30
672
  0
VERTEX
  8
PNOA-H_AMS_1956-57_33k_ES_PAN_21mic_H50_0449_fot_54A-29177_W_tif
  70
32
  10
195454.500
  20
4543131.293
  30
691
  0
VERTEX
  8
PNOA-H_AMS_1956-57_33k_ES_PAN_21mic_H50_0449_fot_54A-29177_W_tif
  70
32
  10
195363.000
  20
4543100.793
  30
695.4
  0
VERTEX
  8
PNOA-H_AMS_1956-57_33k_ES_PAN_21mic_H50_0449_fot_54A-29177_W_tif
  70
32
  10
195360.500
  20
4543100.793
  30
695.9
  0
VERTEX
  8
PNOA-H_AMS_1956-57_33k_ES_PAN_21mic_H50_0449_fot_54A-29177_W_tif
  70
32
  10
193663.000
  20
4543722.293
  30
680
  0
VERTEX
  8
PNOA-H_AMS_1956-57_33k_ES_PAN_21mic_H50_0449_fot_54A-29177_W_tif
  70
32
  10
193762.802
  20
4545145.314
  30
674.444
  0
SEQEND
  8
PNOA-H_AMS_1956-57_33k_ES_PAN_21mic_H50_0449_fot_54A-29177_W_tif
  0
TEXT
  8
PNOA-H_AMS_1956-57_33k_ES_PAN_21mic_H50_0449_fot_54A-29177_W_tif
 62
0
  1
PNOA-H_AMS_1956-57_33k_ES_PAN_21mic_H50_0449_fot_54A-29177_W.tif
 40
41.92443
  10
195142.516
  20
4544123.054
  0
POLYLINE
  8
PNOA-H_AMS_1956-57_33k_ES_PAN_21mic_H50_0449_fot_54A-29178_W_tif
  70
9
  66
1
  0
VERTEX
  8
PNOA-H_AMS_1956-57_33k_ES_PAN_21mic_H50_0449_fot_54A-29178_W_tif
  70
32
  10
193762.986
  20
4545145.306
  30
674.445
  0
VERTEX
  8
PNOA-H_AMS_1956-57_33k_ES_PAN_21mic_H50_0449_fot_54A-29178_W_tif
  70
32
  10
193663.000
  20
4543722.293
  30
680
  0
VERTEX
  8
PNOA-H_AMS_1956-57_33k_ES_PAN_21mic_H50_0449_fot_54A-29178_W_tif
  70
32
  10
192387.500
  20
4543322.293
  30
643
  0
VERTEX
  8
PNOA-H_AMS_1956-57_33k_ES_PAN_21mic_H50_0449_fot_54A-29178_W_tif
  70
32
  10
190792.000
  20
4544005.793
  30
578.68
  0
VERTEX
  8
PNOA-H_AMS_1956-57_33k_ES_PAN_21mic_H50_0449_fot_54A-29178_W_tif
  70
32
  10
190845.631
  20
4545267.762
  30
590.452
  0
VERTEX
  8
PNOA-H_AMS_1956-57_33k_ES_PAN_21mic_H50_0449_fot_54A-29178_W_tif
  70
32
  10
193350.696
  20
4545162.442
  30
674.491
  0
SEQEND
  8
PNOA-H_AMS_1956-57_33k_ES_PAN_21mic_H50_0449_fot_54A-29178_W_tif
  0
TEXT
  8
PNOA-H_AMS_1956-57_33k_ES_PAN_21mic_H50_0449_fot_54A-29178_W_tif
 62
0
  1
PNOA-H_AMS_1956-57_33k_ES_PAN_21mic_H50_0449_fot_54A-29178_W.tif
 40
41.92443
  10
192277.493
  20
4544295.028
  0
POLYLINE
  8
PNOA-H_AMS_1956-57_33k_ES_PAN_21mic_H50_0449_fot_54A-29174_W_tif
  70
9
  66
1
  0
VERTEX
  8
PNOA-H_AMS_1956-57_33k_ES_PAN_21mic_H50_0449_fot_54A-29174_W_tif
  70
32
  10
203776.336
  20
4542501.831
  30
697.926
  0
VERTEX
  8
PNOA-H_AMS_1956-57_33k_ES_PAN_21mic_H50_0449_fot_54A-29174_W_tif
  70
32
  10
202272.000
  20
4542934.293
  30
692.76
  0
VERTEX
  8
PNOA-H_AMS_1956-57_33k_ES_PAN_21mic_H50_0449_fot_54A-29174_W_tif
  70
32
  10
202343.365
  20
4544792.254
  30
688.366
  0
VERTEX
  8
PNOA-H_AMS_1956-57_33k_ES_PAN_21mic_H50_0449_fot_54A-29174_W_tif
  70
32
  10
203866.276
  20
4544730.415
  30
723.622
  0
SEQEND
  8
PNOA-H_AMS_1956-57_33k_ES_PAN_21mic_H50_0449_fot_54A-29174_W_tif
  0
TEXT
  8
PNOA-H_AMS_1956-57_33k_ES_PAN_21mic_H50_0449_fot_54A-29174_W_tif
 62
0
  1
PNOA-H_AMS_1956-57_33k_ES_PAN_21mic_H50_0449_fot_54A-29174_W.tif
 40
41.92443
  10
203069.138
  20
4543647.042
  0
POLYLINE
  8
PNOA-H_AMS_1956-57_33k_ES_PAN_21mic_H50_0449_fot_54A-29175_W_tif
  70
9
  66
1
  0
VERTEX
  8
PNOA-H_AMS_1956-57_33k_ES_PAN_21mic_H50_0449_fot_54A-29175_W_tif
  70
32
  10
202343.089
  20
4544792.265
  30
688.062
  0
VERTEX
  8
PNOA-H_AMS_1956-57_33k_ES_PAN_21mic_H50_0449_fot_54A-29175_W_tif
  70
32
  10
202273.000
  20
4542973.293
  30
692.12
  0
VERTEX
  8
PNOA-H_AMS_1956-57_33k_ES_PAN_21mic_H50_0449_fot_54A-29175_W_tif
  70
32
  10
202273.000
  20
4542965.793
  30
692
  0
VERTEX
  8
PNOA-H_AMS_1956-57_33k_ES_PAN_21mic_H50_0449_fot_54A-29175_W_tif
  70
32
  10
202272.000
  20
4542934.293
  30
692.76
  0
VERTEX
  8
PNOA-H_AMS_1956-57_33k_ES_PAN_21mic_H50_0449_fot_54A-29175_W_tif
  70
32
  10
201260.500
  20
4542599.793
  30
630.55
  0
VERTEX
  8
PNOA-H_AMS_1956-57_33k_ES_PAN_21mic_H50_0449_fot_54A-29175_W_tif
  70
32
  10
199408.000
  20
4543217.793
  30
689
  0
VERTEX
  8
PNOA-H_AMS_1956-57_33k_ES_PAN_21mic_H50_0449_fot_54A-29175_W_tif
  70
32
  10
199504.310
  20
4544907.945
  30
688.14
  0
VERTEX
  8
PNOA-H_AMS_1956-57_33k_ES_PAN_21mic_H50_0449_fot_54A-29175_W_tif
  70
32
  10
200361.105
  20
4544872.744
  30
688.133
  0
SEQEND
  8
PNOA-H_AMS_1956-57_33k_ES_PAN_21mic_H50_0449_fot_54A-29175_W_tif
  0
TEXT
  8
PNOA-H_AMS_1956-57_33k_ES_PAN_21mic_H50_0449_fot_54A-29175_W_tif
 62
0
  1
PNOA-H_AMS_1956-57_33k_ES_PAN_21mic_H50_0449_fot_54A-29175_W.tif
 40
41.92443
  10
200875.544
  20
4543753.869
  0
POLYLINE
  8
PNOA-H_AMS_1956-57_33k_ES_PAN_21mic_H50_0449_fot_54A-29184_W_tif
  70
9
  66
1
  0
VERTEX
  8
PNOA-H_AMS_1956-57_33k_ES_PAN_21mic_H50_0449_fot_54A-29184_W_tif
  70
32
  10
176389.209
  20
4545891.259
  30
443.515
  0
VERTEX
  8
PNOA-H_AMS_1956-57_33k_ES_PAN_21mic_H50_0449_fot_54A-29184_W_tif
  70
32
  10
176339.500
  20
4545080.293
  30
543.04
  0
VERTEX
  8
PNOA-H_AMS_1956-57_33k_ES_PAN_21mic_H50_0449_fot_54A-29184_W_tif
  70
32
  10
176127.500
  20
4545013.793
  30
550
  0
VERTEX
  8
PNOA-H_AMS_1956-57_33k_ES_PAN_21mic_H50_0449_fot_54A-29184_W_tif
  70
32
  10
176126.000
  20
4545013.793
  30
550
  0
VERTEX
  8
PNOA-H_AMS_1956-57_33k_ES_PAN_21mic_H50_0449_fot_54A-29184_W_tif
  70
32
  10
175779.625
  20
4544905.733
  30
540.937
  0
VERTEX
  8
PNOA-H_AMS_1956-57_33k_ES_PAN_21mic_H50_0449_fot_54A-29184_W_tif
  70
32
  10
175824.273
  20
4545916.093
  30
444.712
  0
SEQEND
  8
PNOA-H_AMS_1956-57_33k_ES_PAN_21mic_H50_0449_fot_54A-29184_W_tif
  0
TEXT
  8
PNOA-H_AMS_1956-57_33k_ES_PAN_21mic_H50_0449_fot_54A-29184_W_tif
 62
0
  1
PNOA-H_AMS_1956-57_33k_ES_PAN_21mic_H50_0449_fot_54A-29184_W.tif
 40
41.92443
  10
176084.417
  20
4545410.913
  0
POLYLINE
  8
PNOA-H_AMS_1956-57_33k_ES_PAN_21mic_H50_0449_fot_54A-29183_W_tif
  70
9
  66
1
  0
VERTEX
  8
PNOA-H_AMS_1956-57_33k_ES_PAN_21mic_H50_0449_fot_54A-29183_W_tif
  70
32
  10
179206.849
  20
4545767.398
  30
466.418
  0
VERTEX
  8
PNOA-H_AMS_1956-57_33k_ES_PAN_21mic_H50_0449_fot_54A-29183_W_tif
  70
32
  10
179171.000
  20
4544882.293
  30
537.2
  0
VERTEX
  8
PNOA-H_AMS_1956-57_33k_ES_PAN_21mic_H50_0449_fot_54A-29183_W_tif
  70
32
  10
177642.500
  20
4544335.293
  30
544.4
  0
VERTEX
  8
PNOA-H_AMS_1956-57_33k_ES_PAN_21mic_H50_0449_fot_54A-29183_W_tif
  70
32
  10
176339.000
  20
4545079.793
  30
543.1
  0
VERTEX
  8
PNOA-H_AMS_1956-57_33k_ES_PAN_21mic_H50_0449_fot_54A-29183_W_tif
  70
32
  10
176388.889
  20
4545891.273
  30
443.512
  0
SEQEND
  8
PNOA-H_AMS_1956-57_33k_ES_PAN_21mic_H50_0449_fot_54A-29183_W_tif
  0
TEXT
  8
PNOA-H_AMS_1956-57_33k_ES_PAN_21mic_H50_0449_fot_54A-29183_W_tif
 62
0
  1
PNOA-H_AMS_1956-57_33k_ES_PAN_21mic_H50_0449_fot_54A-29183_W.tif
 40
41.92443
  10
177772.924
  20
4545113.283
  0
POLYLINE
  8
PNOA-H_AMS_1956-57_33k_ES_PAN_21mic_H50_0449_fot_54A-29182_W_tif
  70
9
  66
1
  0
VERTEX
  8
PNOA-H_AMS_1956-57_33k_ES_PAN_21mic_H50_0449_fot_54A-29182_W_tif
  70
32
  10
182076.087
  20
4545642.585
  30
562.505
  0
VERTEX
  8
PNOA-H_AMS_1956-57_33k_ES_PAN_21mic_H50_0449_fot_54A-29182_W_tif
  70
32
  10
182036.000
  20
4544735.293
  30
600.48
  0
VERTEX
  8
PNOA-H_AMS_1956-57_33k_ES_PAN_21mic_H50_0449_fot_54A-29182_W_tif
  70
32
  10
180559.500
  20
4544185.293
  30
612.64
  0
VERTEX
  8
PNOA-H_AMS_1956-57_33k_ES_PAN_21mic_H50_0449_fot_54A-29182_W_tif
  70
32
  10
179171.500
  20
4544882.793
  30
537.4
  0
VERTEX
  8
PNOA-H_AMS_1956-57_33k_ES_PAN_21mic_H50_0449_fot_54A-29182_W_tif
  70
32
  10
179207.169
  20
4545767.384
  30
466.58
  0
VERTEX
  8
PNOA-H_AMS_1956-57_33k_ES_PAN_21mic_H50_0449_fot_54A-29182_W_tif
  70
32
  10
179329.604
  20
4545762.002
  30
466.615
  0
SEQEND
  8
PNOA-H_AMS_1956-57_33k_ES_PAN_21mic_H50_0449_fot_54A-29182_W_tif
  0
TEXT
  8
PNOA-H_AMS_1956-57_33k_ES_PAN_21mic_H50_0449_fot_54A-29182_W_tif
 62
0
  1
PNOA-H_AMS_1956-57_33k_ES_PAN_21mic_H50_0449_fot_54A-29182_W.tif
 40
41.92443
  10
180623.793
  20
4544976.339
  0
POLYLINE
  8
PNOA-H_AMS_1956-57_33k_ES_PAN_21mic_H50_0475_fot_55A-03755_W_tif
  70
9
  66
1
  0
VERTEX
  8
PNOA-H_AMS_1956-57_33k_ES_PAN_21mic_H50_0475_fot_55A-03755_W_tif
  70
32
  10
175779.624
  20
4544905.708
  30
535.521
  0
VERTEX
  8
PNOA-H_AMS_1956-57_33k_ES_PAN_21mic_H50_0475_fot_55A-03755_W_tif
  70
32
  10
176315.000
  20
4545072.793
  30
547
  0
VERTEX
  8
PNOA-H_AMS_1956-57_33k_ES_PAN_21mic_H50_0475_fot_55A-03755_W_tif
  70
32
  10
176340.000
  20
4545079.793
  30
543
  0
VERTEX
  8
PNOA-H_AMS_1956-57_33k_ES_PAN_21mic_H50_0475_fot_55A-03755_W_tif
  70
32
  10
177561.000
  20
4544381.793
  30
547.8
  0
VERTEX
  8
PNOA-H_AMS_1956-57_33k_ES_PAN_21mic_H50_0475_fot_55A-03755_W_tif
  70
32
  10
177562.500
  20
4544381.293
  30
547.5
  0
VERTEX
  8
PNOA-H_AMS_1956-57_33k_ES_PAN_21mic_H50_0475_fot_55A-03755_W_tif
  70
32
  10
177642.500
  20
4544335.793
  30
544.3
  0
VERTEX
  8
PNOA-H_AMS_1956-57_33k_ES_PAN_21mic_H50_0475_fot_55A-03755_W_tif
  70
32
  10
177642.500
  20
4544332.293
  30
545
  0
VERTEX
  8
PNOA-H_AMS_1956-57_33k_ES_PAN_21mic_H50_0475_fot_55A-03755_W_tif
  70
32
  10
177281.000
  20
4540308.293
  30
577.8
  0
VERTEX
  8
PNOA-H_AMS_1956-57_33k_ES_PAN_21mic_H50_0475_fot_55A-03755_W_tif
  70
32
  10
177090.000
  20
4540234.293
  30
583
  0
VERTEX
  8
PNOA-H_AMS_1956-57_33k_ES_PAN_21mic_H50_0475_fot_55A-03755_W_tif
  70
32
  10
175579.599
  20
4540377.447
  30
483.792
  0
VERTEX
  8
PNOA-H_AMS_1956-57_33k_ES_PAN_21mic_H50_0475_fot_55A-03755_W_tif
  70
32
  10
175619.857
  20
4541289.238
  30
480.787
  0
VERTEX
  8
PNOA-H_AMS_1956-57_33k_ES_PAN_21mic_H50_0475_fot_55A-03755_W_tif
  70
32
  10
175722.043
  20
4543602.664
  30
488.658
  0
SEQEND
  8
PNOA-H_AMS_1956-57_33k_ES_PAN_21mic_H50_0475_fot_55A-03755_W_tif
  0
TEXT
  8
PNOA-H_AMS_1956-57_33k_ES_PAN_21mic_H50_0475_fot_55A-03755_W_tif
 62
0
  1
PNOA-H_AMS_1956-57_33k_ES_PAN_21mic_H50_0475_fot_55A-03755_W.tif
 40
41.92443
  10
176020.012
  20
4542657.043
  0
POLYLINE
  8
PNOA-H_AMS_1956-57_33k_ES_PAN_21mic_H50_0475_fot_55A-03753_W_tif
  70
9
  66
1
  0
VERTEX
  8
PNOA-H_AMS_1956-57_33k_ES_PAN_21mic_H50_0475_fot_55A-03753_W_tif
  70
32
  10
182034.500
  20
4544735.293
  30
600.64
  0
VERTEX
  8
PNOA-H_AMS_1956-57_33k_ES_PAN_21mic_H50_0475_fot_55A-03753_W_tif
  70
32
  10
182037.000
  20
4544735.293
  30
600.36
  0
VERTEX
  8
PNOA-H_AMS_1956-57_33k_ES_PAN_21mic_H50_0475_fot_55A-03753_W_tif
  70
32
  10
183541.500
  20
4543995.793
  30
602
  0
VERTEX
  8
PNOA-H_AMS_1956-57_33k_ES_PAN_21mic_H50_0475_fot_55A-03753_W_tif
  70
32
  10
183049.500
  20
4539780.293
  30
655
  0
VERTEX
  8
PNOA-H_AMS_1956-57_33k_ES_PAN_21mic_H50_0475_fot_55A-03753_W_tif
  70
32
  10
180273.500
  20
4539967.293
  30
628
  0
VERTEX
  8
PNOA-H_AMS_1956-57_33k_ES_PAN_21mic_H50_0475_fot_55A-03753_W_tif
  70
32
  10
180560.000
  20
4544185.293
  30
612.6
  0
VERTEX
  8
PNOA-H_AMS_1956-57_33k_ES_PAN_21mic_H50_0475_fot_55A-03753_W_tif
  70
32
  10
182033.500
  20
4544734.793
  30
600.65
  0
VERTEX
  8
PNOA-H_AMS_1956-57_33k_ES_PAN_21mic_H50_0475_fot_55A-03753_W_tif
  70
32
  10
182034.500
  20
4544735.293
  30
600.64
  0
SEQEND
  8
PNOA-H_AMS_1956-57_33k_ES_PAN_21mic_H50_0475_fot_55A-03753_W_tif
  0
TEXT
  8
PNOA-H_AMS_1956-57_33k_ES_PAN_21mic_H50_0475_fot_55A-03753_W_tif
 62
0
  1
PNOA-H_AMS_1956-57_33k_ES_PAN_21mic_H50_0475_fot_55A-03753_W.tif
 40
41.92443
  10
181883.866
  20
4542257.793
  0
POLYLINE
  8
PNOA-H_AMS_1956-57_33k_ES_PAN_21mic_H50_0475_fot_55A-03754_W_tif
  70
9
  66
1
  0
VERTEX
  8
PNOA-H_AMS_1956-57_33k_ES_PAN_21mic_H50_0475_fot_55A-03754_W_tif
  70
32
  10
177562.000
  20
4543441.293
  30
574.08
  0
VERTEX
  8
PNOA-H_AMS_1956-57_33k_ES_PAN_21mic_H50_0475_fot_55A-03754_W_tif
  70
32
  10
177643.000
  20
4544335.793
  30
544.3
  0
VERTEX
  8
PNOA-H_AMS_1956-57_33k_ES_PAN_21mic_H50_0475_fot_55A-03754_W_tif
  70
32
  10
179171.000
  20
4544882.793
  30
537.3
  0
VERTEX
  8
PNOA-H_AMS_1956-57_33k_ES_PAN_21mic_H50_0475_fot_55A-03754_W_tif
  70
32
  10
180560.000
  20
4544185.293
  30
612.6
  0
VERTEX
  8
PNOA-H_AMS_1956-57_33k_ES_PAN_21mic_H50_0475_fot_55A-03754_W_tif
  70
32
  10
180274.000
  20
4539971.293
  30
628
  0
VERTEX
  8
PNOA-H_AMS_1956-57_33k_ES_PAN_21mic_H50_0475_fot_55A-03754_W_tif
  70
32
  10
180273.500
  20
4539966.793
  30
627.97
  0
VERTEX
  8
PNOA-H_AMS_1956-57_33k_ES_PAN_21mic_H50_0475_fot_55A-03754_W_tif
  70
32
  10
180218.000
  20
4539943.293
  30
626
  0
VERTEX
  8
PNOA-H_AMS_1956-57_33k_ES_PAN_21mic_H50_0475_fot_55A-03754_W_tif
  70
32
  10
177281.000
  20
4540308.293
  30
577.8
  0
VERTEX
  8
PNOA-H_AMS_1956-57_33k_ES_PAN_21mic_H50_0475_fot_55A-03754_W_tif
  70
32
  10
177562.000
  20
4543435.293
  30
574.8
  0
VERTEX
  8
PNOA-H_AMS_1956-57_33k_ES_PAN_21mic_H50_0475_fot_55A-03754_W_tif
  70
32
  10
177562.000
  20
4543441.293
  30
574.08
  0
SEQEND
  8
PNOA-H_AMS_1956-57_33k_ES_PAN_21mic_H50_0475_fot_55A-03754_W_tif
  0
TEXT
  8
PNOA-H_AMS_1956-57_33k_ES_PAN_21mic_H50_0475_fot_55A-03754_W_tif
 62
0
  1
PNOA-H_AMS_1956-57_33k_ES_PAN_21mic_H50_0475_fot_55A-03754_W.tif
 40
41.92443
  10
178954.929
  20
4542413.043
  0
POLYLINE
  8
PNOA-H_AMS_1956-57_33k_ES_PAN_21mic_H50_0475_fot_55A-03751_W_tif
  70
9
  66
1
  0
VERTEX
  8
PNOA-H_AMS_1956-57_33k_ES_PAN_21mic_H50_0475_fot_55A-03751_W_tif
  70
32
  10
187840.500
  20
4544206.293
  30
562.02
  0
VERTEX
  8
PNOA-H_AMS_1956-57_33k_ES_PAN_21mic_H50_0475_fot_55A-03751_W_tif
  70
32
  10
189431.000
  20
4543535.293
  30
574.12
  0
VERTEX
  8
PNOA-H_AMS_1956-57_33k_ES_PAN_21mic_H50_0475_fot_55A-03751_W_tif
  70
32
  10
188938.500
  20
4539198.793
  30
697
  0
VERTEX
  8
PNOA-H_AMS_1956-57_33k_ES_PAN_21mic_H50_0475_fot_55A-03751_W_tif
  70
32
  10
186306.500
  20
4539320.293
  30
651
  0
VERTEX
  8
PNOA-H_AMS_1956-57_33k_ES_PAN_21mic_H50_0475_fot_55A-03751_W_tif
  70
32
  10
185982.500
  20
4539520.793
  30
662.35
  0
VERTEX
  8
PNOA-H_AMS_1956-57_33k_ES_PAN_21mic_H50_0475_fot_55A-03751_W_tif
  70
32
  10
186474.500
  20
4543795.293
  30
645
  0
VERTEX
  8
PNOA-H_AMS_1956-57_33k_ES_PAN_21mic_H50_0475_fot_55A-03751_W_tif
  70
32
  10
187839.000
  20
4544205.793
  30
561.8
  0
VERTEX
  8
PNOA-H_AMS_1956-57_33k_ES_PAN_21mic_H50_0475_fot_55A-03751_W_tif
  70
32
  10
187840.500
  20
4544206.293
  30
562.02
  0
SEQEND
  8
PNOA-H_AMS_1956-57_33k_ES_PAN_21mic_H50_0475_fot_55A-03751_W_tif
  0
TEXT
  8
PNOA-H_AMS_1956-57_33k_ES_PAN_21mic_H50_0475_fot_55A-03751_W_tif
 62
0
  1
PNOA-H_AMS_1956-57_33k_ES_PAN_21mic_H50_0475_fot_55A-03751_W.tif
 40
41.92443
  10
187728.238
  20
4541702.543
  0
POLYLINE
  8
PNOA-H_AMS_1956-57_33k_ES_PAN_21mic_H50_0475_fot_55A-03750_W_tif
  70
9
  66
1
  0
VERTEX
  8
PNOA-H_AMS_1956-57_33k_ES_PAN_21mic_H50_0475_fot_55A-03750_W_tif
  70
32
  10
189430.500
  20
4543534.793
  30
574.05
  0
VERTEX
  8
PNOA-H_AMS_1956-57_33k_ES_PAN_21mic_H50_0475_fot_55A-03750_W_tif
  70
32
  10
189848.500
  20
4543679.793
  30
591.3
  0
VERTEX
  8
PNOA-H_AMS_1956-57_33k_ES_PAN_21mic_H50_0475_fot_55A-03750_W_tif
  70
32
  10
189849.500
  20
4543680.293
  30
591.1
  0
VERTEX
  8
PNOA-H_AMS_1956-57_33k_ES_PAN_21mic_H50_0475_fot_55A-03750_W_tif
  70
32
  10
190786.000
  20
4544004.293
  30
576.4
  0
VERTEX
  8
PNOA-H_AMS_1956-57_33k_ES_PAN_21mic_H50_0475_fot_55A-03750_W_tif
  70
32
  10
190793.500
  20
4544005.793
  30
579.19
  0
VERTEX
  8
PNOA-H_AMS_1956-57_33k_ES_PAN_21mic_H50_0475_fot_55A-03750_W_tif
  70
32
  10
192386.500
  20
4543322.293
  30
643
  0
VERTEX
  8
PNOA-H_AMS_1956-57_33k_ES_PAN_21mic_H50_0475_fot_55A-03750_W_tif
  70
32
  10
191964.000
  20
4538899.293
  30
681.32
  0
VERTEX
  8
PNOA-H_AMS_1956-57_33k_ES_PAN_21mic_H50_0475_fot_55A-03750_W_tif
  70
32
  10
189290.500
  20
4538983.793
  30
699
  0
VERTEX
  8
PNOA-H_AMS_1956-57_33k_ES_PAN_21mic_H50_0475_fot_55A-03750_W_tif
  70
32
  10
189284.000
  20
4538986.793
  30
699
  0
VERTEX
  8
PNOA-H_AMS_1956-57_33k_ES_PAN_21mic_H50_0475_fot_55A-03750_W_tif
  70
32
  10
188938.500
  20
4539198.293
  30
697
  0
SEQEND
  8
PNOA-H_AMS_1956-57_33k_ES_PAN_21mic_H50_0475_fot_55A-03750_W_tif
  0
TEXT
  8
PNOA-H_AMS_1956-57_33k_ES_PAN_21mic_H50_0475_fot_55A-03750_W_tif
 62
0
  1
PNOA-H_AMS_1956-57_33k_ES_PAN_21mic_H50_0475_fot_55A-03750_W.tif
 40
41.92443
  10
190701.076
  20
4541452.543
  0
POLYLINE
  8
PNOA-H_AMS_1956-57_33k_ES_PAN_21mic_H50_0475_fot_55A-03752_W_tif
  70
9
  66
1
  0
VERTEX
  8
PNOA-H_AMS_1956-57_33k_ES_PAN_21mic_H50_0475_fot_55A-03752_W_tif
  70
32
  10
183706.000
  20
4544053.293
  30
615
  0
VERTEX
  8
PNOA-H_AMS_1956-57_33k_ES_PAN_21mic_H50_0475_fot_55A-03752_W_tif
  70
32
  10
185027.500
  20
4544513.793
  30
554
  0
VERTEX
  8
PNOA-H_AMS_1956-57_33k_ES_PAN_21mic_H50_0475_fot_55A-03752_W_tif
  70
32
  10
186474.500
  20
4543795.293
  30
645
  0
VERTEX
  8
PNOA-H_AMS_1956-57_33k_ES_PAN_21mic_H50_0475_fot_55A-03752_W_tif
  70
32
  10
185982.500
  20
4539520.793
  30
662.35
  0
VERTEX
  8
PNOA-H_AMS_1956-57_33k_ES_PAN_21mic_H50_0475_fot_55A-03752_W_tif
  70
32
  10
183220.500
  20
4539675.793
  30
656
  0
VERTEX
  8
PNOA-H_AMS_1956-57_33k_ES_PAN_21mic_H50_0475_fot_55A-03752_W_tif
  70
32
  10
183049.500
  20
4539780.293
  30
655
  0
VERTEX
  8
PNOA-H_AMS_1956-57_33k_ES_PAN_21mic_H50_0475_fot_55A-03752_W_tif
  70
32
  10
183541.000
  20
4543994.793
  30
602
  0
VERTEX
  8
PNOA-H_AMS_1956-57_33k_ES_PAN_21mic_H50_0475_fot_55A-03752_W_tif
  70
32
  10
183542.500
  20
4543996.293
  30
602
  0
VERTEX
  8
PNOA-H_AMS_1956-57_33k_ES_PAN_21mic_H50_0475_fot_55A-03752_W_tif
  70
32
  10
183704.500
  20
4544052.793
  30
615.09
  0
VERTEX
  8
PNOA-H_AMS_1956-57_33k_ES_PAN_21mic_H50_0475_fot_55A-03752_W_tif
  70
32
  10
183706.000
  20
4544053.293
  30
615
  0
SEQEND
  8
PNOA-H_AMS_1956-57_33k_ES_PAN_21mic_H50_0475_fot_55A-03752_W_tif
  0
TEXT
  8
PNOA-H_AMS_1956-57_33k_ES_PAN_21mic_H50_0475_fot_55A-03752_W_tif
 62
0
  1
PNOA-H_AMS_1956-57_33k_ES_PAN_21mic_H50_0475_fot_55A-03752_W.tif
 40
41.92443
  10
184790.116
  20
4542017.293
  0
POLYLINE
  8
PNOA-H_AMS_1956-57_33k_ES_PAN_21mic_H50_0475_fot_56A-04395_W_tif
  70
9
  66
1
  0
VERTEX
  8
PNOA-H_AMS_1956-57_33k_ES_PAN_21mic_H50_0475_fot_56A-04395_W_tif
  70
32
  10
186306.500
  20
4539320.293
  30
651
  0
VERTEX
  8
PNOA-H_AMS_1956-57_33k_ES_PAN_21mic_H50_0475_fot_56A-04395_W_tif
  70
32
  10
188938.500
  20
4539198.793
  30
697
  0
VERTEX
  8
PNOA-H_AMS_1956-57_33k_ES_PAN_21mic_H50_0475_fot_56A-04395_W_tif
  70
32
  10
189289.000
  20
4538984.293
  30
699
  0
VERTEX
  8
PNOA-H_AMS_1956-57_33k_ES_PAN_21mic_H50_0475_fot_56A-04395_W_tif
  70
32
  10
188861.500
  20
4534628.793
  30
712
  0
VERTEX
  8
PNOA-H_AMS_1956-57_33k_ES_PAN_21mic_H50_0475_fot_56A-04395_W_tif
  70
32
  10
188858.500
  20
4534625.793
  30
712.3
  0
VERTEX
  8
PNOA-H_AMS_1956-57_33k_ES_PAN_21mic_H50_0475_fot_56A-04395_W_tif
  70
32
  10
188271.500
  20
4534254.293
  30
714
  0
VERTEX
  8
PNOA-H_AMS_1956-57_33k_ES_PAN_21mic_H50_0475_fot_56A-04395_W_tif
  70
32
  10
188266.500
  20
4534251.293
  30
714.2
  0
VERTEX
  8
PNOA-H_AMS_1956-57_33k_ES_PAN_21mic_H50_0475_fot_56A-04395_W_tif
  70
32
  10
188264.500
  20
4534251.293
  30
714.28
  0
VERTEX
  8
PNOA-H_AMS_1956-57_33k_ES_PAN_21mic_H50_0475_fot_56A-04395_W_tif
  70
32
  10
185792.500
  20
4534695.293
  30
691
  0
VERTEX
  8
PNOA-H_AMS_1956-57_33k_ES_PAN_21mic_H50_0475_fot_56A-04395_W_tif
  70
32
  10
186306.500
  20
4539318.793
  30
651
  0
VERTEX
  8
PNOA-H_AMS_1956-57_33k_ES_PAN_21mic_H50_0475_fot_56A-04395_W_tif
  70
32
  10
186306.500
  20
4539320.293
  30
651
  0
SEQEND
  8
PNOA-H_AMS_1956-57_33k_ES_PAN_21mic_H50_0475_fot_56A-04395_W_tif
  0
TEXT
  8
PNOA-H_AMS_1956-57_33k_ES_PAN_21mic_H50_0475_fot_56A-04395_W_tif
 62
0
  1
PNOA-H_AMS_1956-57_33k_ES_PAN_21mic_H50_0475_fot_56A-04395_W.tif
 40
41.92443
  10
187549.058
  20
4536785.793
  0
POLYLINE
  8
PNOA-H_AMS_1956-57_33k_ES_PAN_21mic_H50_0475_fot_56A-04394_W_tif
  70
9
  66
1
  0
VERTEX
  8
PNOA-H_AMS_1956-57_33k_ES_PAN_21mic_H50_0475_fot_56A-04394_W_tif
  70
32
  10
191898.500
  20
4538901.293
  30
680
  0
VERTEX
  8
PNOA-H_AMS_1956-57_33k_ES_PAN_21mic_H50_0475_fot_56A-04394_W_tif
  70
32
  10
191964.500
  20
4538899.293
  30
681.36
  0
VERTEX
  8
PNOA-H_AMS_1956-57_33k_ES_PAN_21mic_H50_0475_fot_56A-04394_W_tif
  70
32
  10
192262.500
  20
4538720.293
  30
681
  0
VERTEX
  8
PNOA-H_AMS_1956-57_33k_ES_PAN_21mic_H50_0475_fot_56A-04394_W_tif
  70
32
  10
191985.500
  20
4534587.793
  30
700
  0
VERTEX
  8
PNOA-H_AMS_1956-57_33k_ES_PAN_21mic_H50_0475_fot_56A-04394_W_tif
  70
32
  10
191984.500
  20
4534585.293
  30
700
  0
VERTEX
  8
PNOA-H_AMS_1956-57_33k_ES_PAN_21mic_H50_0475_fot_56A-04394_W_tif
  70
32
  10
191974.000
  20
4534577.293
  30
699.8
  0
VERTEX
  8
PNOA-H_AMS_1956-57_33k_ES_PAN_21mic_H50_0475_fot_56A-04394_W_tif
  70
32
  10
191450.000
  20
4534180.793
  30
698.3
  0
VERTEX
  8
PNOA-H_AMS_1956-57_33k_ES_PAN_21mic_H50_0475_fot_56A-04394_W_tif
  70
32
  10
188868.500
  20
4534626.293
  30
712.06
  0
VERTEX
  8
PNOA-H_AMS_1956-57_33k_ES_PAN_21mic_H50_0475_fot_56A-04394_W_tif
  70
32
  10
188861.000
  20
4534627.793
  30
712
  0
VERTEX
  8
PNOA-H_AMS_1956-57_33k_ES_PAN_21mic_H50_0475_fot_56A-04394_W_tif
  70
32
  10
188861.500
  20
4534634.293
  30
712
  0
VERTEX
  8
PNOA-H_AMS_1956-57_33k_ES_PAN_21mic_H50_0475_fot_56A-04394_W_tif
  70
32
  10
189289.000
  20
4538984.293
  30
699
  0
VERTEX
  8
PNOA-H_AMS_1956-57_33k_ES_PAN_21mic_H50_0475_fot_56A-04394_W_tif
  70
32
  10
191882.000
  20
4538901.793
  30
681
  0
VERTEX
  8
PNOA-H_AMS_1956-57_33k_ES_PAN_21mic_H50_0475_fot_56A-04394_W_tif
  70
32
  10
191898.500
  20
4538901.293
  30
680
  0
SEQEND
  8
PNOA-H_AMS_1956-57_33k_ES_PAN_21mic_H50_0475_fot_56A-04394_W_tif
  0
TEXT
  8
PNOA-H_AMS_1956-57_33k_ES_PAN_21mic_H50_0475_fot_56A-04394_W_tif
 62
0
  1
PNOA-H_AMS_1956-57_33k_ES_PAN_21mic_H50_0475_fot_56A-04394_W.tif
 40
41.92443
  10
190586.087
  20
4536582.543
  0
POLYLINE
  8
PNOA-H_AMS_1956-57_33k_ES_PAN_21mic_H50_0475_fot_56A-04397_W_tif
  70
9
  66
1
  0
VERTEX
  8
PNOA-H_AMS_1956-57_33k_ES_PAN_21mic_H50_0475_fot_56A-04397_W_tif
  70
32
  10
180273.500
  20
4539967.293
  30
628
  0
VERTEX
  8
PNOA-H_AMS_1956-57_33k_ES_PAN_21mic_H50_0475_fot_56A-04397_W_tif
  70
32
  10
183045.000
  20
4539780.793
  30
655
  0
VERTEX
  8
PNOA-H_AMS_1956-57_33k_ES_PAN_21mic_H50_0475_fot_56A-04397_W_tif
  70
32
  10
183050.000
  20
4539780.293
  30
655
  0
VERTEX
  8
PNOA-H_AMS_1956-57_33k_ES_PAN_21mic_H50_0475_fot_56A-04397_W_tif
  70
32
  10
183220.500
  20
4539676.293
  30
656
  0
VERTEX
  8
PNOA-H_AMS_1956-57_33k_ES_PAN_21mic_H50_0475_fot_56A-04397_W_tif
  70
32
  10
182875.500
  20
4534795.293
  30
699.94
  0
VERTEX
  8
PNOA-H_AMS_1956-57_33k_ES_PAN_21mic_H50_0475_fot_56A-04397_W_tif
  70
32
  10
181768.500
  20
4534345.793
  30
671
  0
VERTEX
  8
PNOA-H_AMS_1956-57_33k_ES_PAN_21mic_H50_0475_fot_56A-04397_W_tif
  70
32
  10
181764.500
  20
4534345.293
  30
670.9
  0
VERTEX
  8
PNOA-H_AMS_1956-57_33k_ES_PAN_21mic_H50_0475_fot_56A-04397_W_tif
  70
32
  10
181758.000
  20
4534347.293
  30
670
  0
VERTEX
  8
PNOA-H_AMS_1956-57_33k_ES_PAN_21mic_H50_0475_fot_56A-04397_W_tif
  70
32
  10
179700.500
  20
4534997.293
  30
671
  0
VERTEX
  8
PNOA-H_AMS_1956-57_33k_ES_PAN_21mic_H50_0475_fot_56A-04397_W_tif
  70
32
  10
180216.500
  20
4539939.793
  30
626
  0
VERTEX
  8
PNOA-H_AMS_1956-57_33k_ES_PAN_21mic_H50_0475_fot_56A-04397_W_tif
  70
32
  10
180217.000
  20
4539943.293
  30
626
  0
VERTEX
  8
PNOA-H_AMS_1956-57_33k_ES_PAN_21mic_H50_0475_fot_56A-04397_W_tif
  70
32
  10
180218.000
  20
4539943.793
  30
626
  0
VERTEX
  8
PNOA-H_AMS_1956-57_33k_ES_PAN_21mic_H50_0475_fot_56A-04397_W_tif
  70
32
  10
180272.000
  20
4539966.793
  30
627.94
  0
VERTEX
  8
PNOA-H_AMS_1956-57_33k_ES_PAN_21mic_H50_0475_fot_56A-04397_W_tif
  70
32
  10
180273.500
  20
4539967.293
  30
628
  0
SEQEND
  8
PNOA-H_AMS_1956-57_33k_ES_PAN_21mic_H50_0475_fot_56A-04397_W_tif
  0
TEXT
  8
PNOA-H_AMS_1956-57_33k_ES_PAN_21mic_H50_0475_fot_56A-04397_W_tif
 62
0
  1
PNOA-H_AMS_1956-57_33k_ES_PAN_21mic_H50_0475_fot_56A-04397_W.tif
 40
41.92443
  10
181484.141
  20
4537156.293
  0
POLYLINE
  8
PNOA-H_AMS_1956-57_33k_ES_PAN_21mic_H50_0475_fot_56A-04396_W_tif
  70
9
  66
1
  0
VERTEX
  8
PNOA-H_AMS_1956-57_33k_ES_PAN_21mic_H50_0475_fot_56A-04396_W_tif
  70
32
  10
185754.500
  20
4539533.793
  30
658.9
  0
VERTEX
  8
PNOA-H_AMS_1956-57_33k_ES_PAN_21mic_H50_0475_fot_56A-04396_W_tif
  70
32
  10
185983.000
  20
4539520.793
  30
662.28
  0
VERTEX
  8
PNOA-H_AMS_1956-57_33k_ES_PAN_21mic_H50_0475_fot_56A-04396_W_tif
  70
32
  10
186306.500
  20
4539320.793
  30
651
  0
VERTEX
  8
PNOA-H_AMS_1956-57_33k_ES_PAN_21mic_H50_0475_fot_56A-04396_W_tif
  70
32
  10
185792.500
  20
4534695.293
  30
691
  0
VERTEX
  8
PNOA-H_AMS_1956-57_33k_ES_PAN_21mic_H50_0475_fot_56A-04396_W_tif
  70
32
  10
185024.500
  20
4534293.793
  30
689
  0
VERTEX
  8
PNOA-H_AMS_1956-57_33k_ES_PAN_21mic_H50_0475_fot_56A-04396_W_tif
  70
32
  10
182875.500
  20
4534795.293
  30
699.94
  0
VERTEX
  8
PNOA-H_AMS_1956-57_33k_ES_PAN_21mic_H50_0475_fot_56A-04396_W_tif
  70
32
  10
183220.000
  20
4539673.293
  30
656
  0
VERTEX
  8
PNOA-H_AMS_1956-57_33k_ES_PAN_21mic_H50_0475_fot_56A-04396_W_tif
  70
32
  10
183220.500
  20
4539675.793
  30
656
  0
VERTEX
  8
PNOA-H_AMS_1956-57_33k_ES_PAN_21mic_H50_0475_fot_56A-04396_W_tif
  70
32
  10
183229.500
  20
4539675.793
  30
656
  0
VERTEX
  8
PNOA-H_AMS_1956-57_33k_ES_PAN_21mic_H50_0475_fot_56A-04396_W_tif
  70
32
  10
185747.000
  20
4539533.793
  30
658
  0
VERTEX
  8
PNOA-H_AMS_1956-57_33k_ES_PAN_21mic_H50_0475_fot_56A-04396_W_tif
  70
32
  10
185754.500
  20
4539533.793
  30
658.9
  0
SEQEND
  8
PNOA-H_AMS_1956-57_33k_ES_PAN_21mic_H50_0475_fot_56A-04396_W_tif
  0
TEXT
  8
PNOA-H_AMS_1956-57_33k_ES_PAN_21mic_H50_0475_fot_56A-04396_W_tif
 62
0
  1
PNOA-H_AMS_1956-57_33k_ES_PAN_21mic_H50_0475_fot_56A-04396_W.tif
 40
41.92443
  10
184538.523
  20
4536984.793
  0
POLYLINE
  8
PNOA-H_AMS_1956-57_33k_ES_PAN_21mic_H50_0475_fot_57A-36817_E_tif
  70
9
  66
1
  0
VERTEX
  8
PNOA-H_AMS_1956-57_33k_ES_PAN_21mic_H50_0475_fot_57A-36817_E_tif
  70
32
  10
185203.000
  20
4530677.793
  30
621.1
  0
VERTEX
  8
PNOA-H_AMS_1956-57_33k_ES_PAN_21mic_H50_0475_fot_57A-36817_E_tif
  70
32
  10
185212.000
  20
4530500.793
  30
631.72
  0
VERTEX
  8
PNOA-H_AMS_1956-57_33k_ES_PAN_21mic_H50_0475_fot_57A-36817_E_tif
  70
32
  10
185212.000
  20
4530491.793
  30
632.64
  0
VERTEX
  8
PNOA-H_AMS_1956-57_33k_ES_PAN_21mic_H50_0475_fot_57A-36817_E_tif
  70
32
  10
185210.500
  20
4530490.793
  30
632.93
  0
VERTEX
  8
PNOA-H_AMS_1956-57_33k_ES_PAN_21mic_H50_0475_fot_57A-36817_E_tif
  70
32
  10
183331.500
  20
4529819.793
  30
585.2
  0
VERTEX
  8
PNOA-H_AMS_1956-57_33k_ES_PAN_21mic_H50_0475_fot_57A-36817_E_tif
  70
32
  10
181743.000
  20
4530280.793
  30
571.5
  0
VERTEX
  8
PNOA-H_AMS_1956-57_33k_ES_PAN_21mic_H50_0475_fot_57A-36817_E_tif
  70
32
  10
181766.000
  20
4534345.293
  30
671
  0
VERTEX
  8
PNOA-H_AMS_1956-57_33k_ES_PAN_21mic_H50_0475_fot_57A-36817_E_tif
  70
32
  10
182875.000
  20
4534795.293
  30
700
  0
VERTEX
  8
PNOA-H_AMS_1956-57_33k_ES_PAN_21mic_H50_0475_fot_57A-36817_E_tif
  70
32
  10
185023.500
  20
4534293.793
  30
689
  0
VERTEX
  8
PNOA-H_AMS_1956-57_33k_ES_PAN_21mic_H50_0475_fot_57A-36817_E_tif
  70
32
  10
185203.000
  20
4530682.293
  30
622
  0
VERTEX
  8
PNOA-H_AMS_1956-57_33k_ES_PAN_21mic_H50_0475_fot_57A-36817_E_tif
  70
32
  10
185203.000
  20
4530677.793
  30
621.1
  0
SEQEND
  8
PNOA-H_AMS_1956-57_33k_ES_PAN_21mic_H50_0475_fot_57A-36817_E_tif
  0
TEXT
  8
PNOA-H_AMS_1956-57_33k_ES_PAN_21mic_H50_0475_fot_57A-36817_E_tif
 62
0
  1
PNOA-H_AMS_1956-57_33k_ES_PAN_21mic_H50_0475_fot_57A-36817_E.tif
 40
41.92443
  10
183438.345
  20
4532307.543
  0
POLYLINE
  8
PNOA-H_AMS_1956-57_33k_ES_PAN_21mic_H50_0475_fot_57A-36819_E_tif
  70
9
  66
1
  0
VERTEX
  8
PNOA-H_AMS_1956-57_33k_ES_PAN_21mic_H50_0475_fot_57A-36819_E_tif
  70
32
  10
189850.500
  20
4534457.293
  30
730
  0
VERTEX
  8
PNOA-H_AMS_1956-57_33k_ES_PAN_21mic_H50_0475_fot_57A-36819_E_tif
  70
32
  10
191450.500
  20
4534180.793
  30
698.4
  0
VERTEX
  8
PNOA-H_AMS_1956-57_33k_ES_PAN_21mic_H50_0475_fot_57A-36819_E_tif
  70
32
  10
191638.500
  20
4530435.293
  30
730
  0
VERTEX
  8
PNOA-H_AMS_1956-57_33k_ES_PAN_21mic_H50_0475_fot_57A-36819_E_tif
  70
32
  10
189557.500
  20
4530004.793
  30
695
  0
VERTEX
  8
PNOA-H_AMS_1956-57_33k_ES_PAN_21mic_H50_0475_fot_57A-36819_E_tif
  70
32
  10
189547.000
  20
4530007.293
  30
695
  0
VERTEX
  8
PNOA-H_AMS_1956-57_33k_ES_PAN_21mic_H50_0475_fot_57A-36819_E_tif
  70
32
  10
189161.500
  20
4530144.793
  30
689
  0
VERTEX
  8
PNOA-H_AMS_1956-57_33k_ES_PAN_21mic_H50_0475_fot_57A-36819_E_tif
  70
32
  10
188474.000
  20
4530440.793
  30
692.8
  0
VERTEX
  8
PNOA-H_AMS_1956-57_33k_ES_PAN_21mic_H50_0475_fot_57A-36819_E_tif
  70
32
  10
188266.000
  20
4534251.293
  30
714.2
  0
VERTEX
  8
PNOA-H_AMS_1956-57_33k_ES_PAN_21mic_H50_0475_fot_57A-36819_E_tif
  70
32
  10
188860.500
  20
4534627.793
  30
712
  0
VERTEX
  8
PNOA-H_AMS_1956-57_33k_ES_PAN_21mic_H50_0475_fot_57A-36819_E_tif
  70
32
  10
189848.000
  20
4534457.293
  30
730
  0
VERTEX
  8
PNOA-H_AMS_1956-57_33k_ES_PAN_21mic_H50_0475_fot_57A-36819_E_tif
  70
32
  10
189850.500
  20
4534457.293
  30
730
  0
SEQEND
  8
PNOA-H_AMS_1956-57_33k_ES_PAN_21mic_H50_0475_fot_57A-36819_E_tif
  0
TEXT
  8
PNOA-H_AMS_1956-57_33k_ES_PAN_21mic_H50_0475_fot_57A-36819_E_tif
 62
0
  1
PNOA-H_AMS_1956-57_33k_ES_PAN_21mic_H50_0475_fot_57A-36819_E.tif
 40
41.92443
  10
189957.855
  20
4532316.293
  0
POLYLINE
  8
PNOA-H_AMS_1956-57_33k_ES_PAN_21mic_H50_0475_fot_57A-36818_E_tif
  70
9
  66
1
  0
VERTEX
  8
PNOA-H_AMS_1956-57_33k_ES_PAN_21mic_H50_0475_fot_57A-36818_E_tif
  70
32
  10
185754.000
  20
4534675.793
  30
692
  0
VERTEX
  8
PNOA-H_AMS_1956-57_33k_ES_PAN_21mic_H50_0475_fot_57A-36818_E_tif
  70
32
  10
185791.500
  20
4534695.293
  30
691
  0
VERTEX
  8
PNOA-H_AMS_1956-57_33k_ES_PAN_21mic_H50_0475_fot_57A-36818_E_tif
  70
32
  10
185795.000
  20
4534695.293
  30
691
  0
VERTEX
  8
PNOA-H_AMS_1956-57_33k_ES_PAN_21mic_H50_0475_fot_57A-36818_E_tif
  70
32
  10
188266.000
  20
4534251.293
  30
714.2
  0
VERTEX
  8
PNOA-H_AMS_1956-57_33k_ES_PAN_21mic_H50_0475_fot_57A-36818_E_tif
  70
32
  10
188474.000
  20
4530440.293
  30
692.8
  0
VERTEX
  8
PNOA-H_AMS_1956-57_33k_ES_PAN_21mic_H50_0475_fot_57A-36818_E_tif
  70
32
  10
186534.500
  20
4529965.293
  30
669
  0
VERTEX
  8
PNOA-H_AMS_1956-57_33k_ES_PAN_21mic_H50_0475_fot_57A-36818_E_tif
  70
32
  10
186520.500
  20
4529962.793
  30
669
  0
VERTEX
  8
PNOA-H_AMS_1956-57_33k_ES_PAN_21mic_H50_0475_fot_57A-36818_E_tif
  70
32
  10
185212.000
  20
4530491.793
  30
632.64
  0
VERTEX
  8
PNOA-H_AMS_1956-57_33k_ES_PAN_21mic_H50_0475_fot_57A-36818_E_tif
  70
32
  10
185023.500
  20
4534293.793
  30
689
  0
VERTEX
  8
PNOA-H_AMS_1956-57_33k_ES_PAN_21mic_H50_0475_fot_57A-36818_E_tif
  70
32
  10
185753.000
  20
4534675.293
  30
692
  0
VERTEX
  8
PNOA-H_AMS_1956-57_33k_ES_PAN_21mic_H50_0475_fot_57A-36818_E_tif
  70
32
  10
185754.000
  20
4534675.793
  30
692
  0
SEQEND
  8
PNOA-H_AMS_1956-57_33k_ES_PAN_21mic_H50_0475_fot_57A-36818_E_tif
  0
TEXT
  8
PNOA-H_AMS_1956-57_33k_ES_PAN_21mic_H50_0475_fot_57A-36818_E_tif
 62
0
  1
PNOA-H_AMS_1956-57_33k_ES_PAN_21mic_H50_0475_fot_57A-36818_E.tif
 40
41.92443
  10
186745.912
  20
4532329.043
  0
POLYLINE
  8
PNOA-H_AMS_1956-57_33k_ES_PAN_21mic_H50_0475_fot_58A-40176_W_tif
  70
9
  66
1
  0
VERTEX
  8
PNOA-H_AMS_1956-57_33k_ES_PAN_21mic_H50_0475_fot_58A-40176_W_tif
  70
32
  10
189576.658
  20
4526781.536
  30
709.811
  0
VERTEX
  8
PNOA-H_AMS_1956-57_33k_ES_PAN_21mic_H50_0475_fot_58A-40176_W_tif
  70
32
  10
189064.261
  20
4526803.006
  30
700.035
  0
VERTEX
  8
PNOA-H_AMS_1956-57_33k_ES_PAN_21mic_H50_0475_fot_58A-40176_W_tif
  70
32
  10
187598.751
  20
4526865.114
  30
678.747
  0
VERTEX
  8
PNOA-H_AMS_1956-57_33k_ES_PAN_21mic_H50_0475_fot_58A-40176_W_tif
  70
32
  10
189163.000
  20
4530142.793
  30
689
  0
VERTEX
  8
PNOA-H_AMS_1956-57_33k_ES_PAN_21mic_H50_0475_fot_58A-40176_W_tif
  70
32
  10
189163.500
  20
4530144.293
  30
689
  0
VERTEX
  8
PNOA-H_AMS_1956-57_33k_ES_PAN_21mic_H50_0475_fot_58A-40176_W_tif
  70
32
  10
189555.500
  20
4530004.793
  30
695
  0
SEQEND
  8
PNOA-H_AMS_1956-57_33k_ES_PAN_21mic_H50_0475_fot_58A-40176_W_tif
  0
TEXT
  8
PNOA-H_AMS_1956-57_33k_ES_PAN_21mic_H50_0475_fot_58A-40176_W_tif
 62
0
  1
PNOA-H_AMS_1956-57_33k_ES_PAN_21mic_H50_0475_fot_58A-40176_W.tif
 40
41.92443
  10
188919.737
  20
4528277.147
  0
POLYLINE
  8
PNOA-H_AMS_1956-57_33k_ES_PAN_21mic_H50_0475_fot_58A-40177_W_tif
  70
9
  66
1
  0
VERTEX
  8
PNOA-H_AMS_1956-57_33k_ES_PAN_21mic_H50_0475_fot_58A-40177_W_tif
  70
32
  10
186638.582
  20
4526905.805
  30
647.289
  0
VERTEX
  8
PNOA-H_AMS_1956-57_33k_ES_PAN_21mic_H50_0475_fot_58A-40177_W_tif
  70
32
  10
185550.143
  20
4526951.932
  30
623.543
  0
VERTEX
  8
PNOA-H_AMS_1956-57_33k_ES_PAN_21mic_H50_0475_fot_58A-40177_W_tif
  70
32
  10
184191.837
  20
4527010.144
  30
586.185
  0
VERTEX
  8
PNOA-H_AMS_1956-57_33k_ES_PAN_21mic_H50_0475_fot_58A-40177_W_tif
  70
32
  10
186486.500
  20
4529078.793
  30
612.51
  0
VERTEX
  8
PNOA-H_AMS_1956-57_33k_ES_PAN_21mic_H50_0475_fot_58A-40177_W_tif
  70
32
  10
186487.000
  20
4529079.793
  30
612.6
  0
VERTEX
  8
PNOA-H_AMS_1956-57_33k_ES_PAN_21mic_H50_0475_fot_58A-40177_W_tif
  70
32
  10
186489.000
  20
4529063.793
  30
615.74
  0
SEQEND
  8
PNOA-H_AMS_1956-57_33k_ES_PAN_21mic_H50_0475_fot_58A-40177_W_tif
  0
TEXT
  8
PNOA-H_AMS_1956-57_33k_ES_PAN_21mic_H50_0475_fot_58A-40177_W_tif
 62
0
  1
PNOA-H_AMS_1956-57_33k_ES_PAN_21mic_H50_0475_fot_58A-40177_W.tif
 40
41.92443
  10
185869.039
  20
4527889.897
  0
POLYLINE
  8
PNOA-H_AMS_1956-57_33k_ES_PAN_21mic_H50_0475_fot_58A-40178_W_tif
  70
9
  66
1
  0
VERTEX
  8
PNOA-H_AMS_1956-57_33k_ES_PAN_21mic_H50_0475_fot_58A-40178_W_tif
  70
32
  10
183642.295
  20
4527033.696
  30
580.737
  0
VERTEX
  8
PNOA-H_AMS_1956-57_33k_ES_PAN_21mic_H50_0475_fot_58A-40178_W_tif
  70
32
  10
182036.000
  20
4527102.537
  30
-305.027
  0
VERTEX
  8
PNOA-H_AMS_1956-57_33k_ES_PAN_21mic_H50_0475_fot_58A-40178_W_tif
  70
32
  10
180631.504
  20
4527163.399
  30
-2661.84
  0
VERTEX
  8
PNOA-H_AMS_1956-57_33k_ES_PAN_21mic_H50_0475_fot_58A-40178_W_tif
  70
32
  10
180663.500
  20
4529798.793
  30
540.49
  0
VERTEX
  8
PNOA-H_AMS_1956-57_33k_ES_PAN_21mic_H50_0475_fot_58A-40178_W_tif
  70
32
  10
181741.000
  20
4530280.293
  30
572.2
  0
VERTEX
  8
PNOA-H_AMS_1956-57_33k_ES_PAN_21mic_H50_0475_fot_58A-40178_W_tif
  70
32
  10
181742.000
  20
4530280.793
  30
571.9
  0
VERTEX
  8
PNOA-H_AMS_1956-57_33k_ES_PAN_21mic_H50_0475_fot_58A-40178_W_tif
  70
32
  10
183329.500
  20
4529820.793
  30
585.8
  0
VERTEX
  8
PNOA-H_AMS_1956-57_33k_ES_PAN_21mic_H50_0475_fot_58A-40178_W_tif
  70
32
  10
183331.500
  20
4529819.293
  30
585.1
  0
SEQEND
  8
PNOA-H_AMS_1956-57_33k_ES_PAN_21mic_H50_0475_fot_58A-40178_W_tif
  0
TEXT
  8
PNOA-H_AMS_1956-57_33k_ES_PAN_21mic_H50_0475_fot_58A-40178_W_tif
 62
0
  1
PNOA-H_AMS_1956-57_33k_ES_PAN_21mic_H50_0475_fot_58A-40178_W.tif
 40
41.92443
  10
182063.691
  20
4528490.397
  0
POLYLINE
  8
PNOA-H_AMS_1956-57_33k_ES_PAN_21mic_H50_0475_fot_000-36808_R_tif
  70
9
  66
1
  0
VERTEX
  8
PNOA-H_AMS_1956-57_33k_ES_PAN_21mic_H50_0475_fot_000-36808_R_tif
  70
32
  10
187598.505
  20
4526865.124
  30
683.099
  0
VERTEX
  8
PNOA-H_AMS_1956-57_33k_ES_PAN_21mic_H50_0475_fot_000-36808_R_tif
  70
32
  10
186638.379
  20
4526905.813
  30
646.674
  0
VERTEX
  8
PNOA-H_AMS_1956-57_33k_ES_PAN_21mic_H50_0475_fot_000-36808_R_tif
  70
32
  10
186487.500
  20
4529077.793
  30
612.95
  0
VERTEX
  8
PNOA-H_AMS_1956-57_33k_ES_PAN_21mic_H50_0475_fot_000-36808_R_tif
  70
32
  10
186522.000
  20
4529962.793
  30
669
  0
VERTEX
  8
PNOA-H_AMS_1956-57_33k_ES_PAN_21mic_H50_0475_fot_000-36808_R_tif
  70
32
  10
188474.000
  20
4530440.793
  30
692.8
  0
VERTEX
  8
PNOA-H_AMS_1956-57_33k_ES_PAN_21mic_H50_0475_fot_000-36808_R_tif
  70
32
  10
189163.500
  20
4530144.293
  30
689
  0
SEQEND
  8
PNOA-H_AMS_1956-57_33k_ES_PAN_21mic_H50_0475_fot_000-36808_R_tif
  0
TEXT
  8
PNOA-H_AMS_1956-57_33k_ES_PAN_21mic_H50_0475_fot_000-36808_R_tif
 62
0
  1
PNOA-H_AMS_1956-57_33k_ES_PAN_21mic_H50_0475_fot_000-36808_R.tif
 40
41.92443
  10
187467.550
  20
4528570.397
  0
POLYLINE
  8
PNOA-H_AMS_1956-57_33k_ES_PAN_21mic_H50_0475_fot_000-36809_R_tif
  70
9
  66
1
  0
VERTEX
  8
PNOA-H_AMS_1956-57_33k_ES_PAN_21mic_H50_0475_fot_000-36809_R_tif
  70
32
  10
184192.210
  20
4527010.128
  30
586.1
  0
VERTEX
  8
PNOA-H_AMS_1956-57_33k_ES_PAN_21mic_H50_0475_fot_000-36809_R_tif
  70
32
  10
183642.277
  20
4527033.697
  30
580.281
  0
VERTEX
  8
PNOA-H_AMS_1956-57_33k_ES_PAN_21mic_H50_0475_fot_000-36809_R_tif
  70
32
  10
183331.000
  20
4529819.793
  30
585.3
  0
VERTEX
  8
PNOA-H_AMS_1956-57_33k_ES_PAN_21mic_H50_0475_fot_000-36809_R_tif
  70
32
  10
183703.500
  20
4529953.293
  30
541.7
  0
VERTEX
  8
PNOA-H_AMS_1956-57_33k_ES_PAN_21mic_H50_0475_fot_000-36809_R_tif
  70
32
  10
183705.000
  20
4529953.793
  30
542
  0
VERTEX
  8
PNOA-H_AMS_1956-57_33k_ES_PAN_21mic_H50_0475_fot_000-36809_R_tif
  70
32
  10
185211.500
  20
4530491.793
  30
632.73
  0
VERTEX
  8
PNOA-H_AMS_1956-57_33k_ES_PAN_21mic_H50_0475_fot_000-36809_R_tif
  70
32
  10
186513.500
  20
4529966.293
  30
668
  0
VERTEX
  8
PNOA-H_AMS_1956-57_33k_ES_PAN_21mic_H50_0475_fot_000-36809_R_tif
  70
32
  10
186522.000
  20
4529962.793
  30
669
  0
VERTEX
  8
PNOA-H_AMS_1956-57_33k_ES_PAN_21mic_H50_0475_fot_000-36809_R_tif
  70
32
  10
186522.000
  20
4529957.293
  30
668.4
  0
VERTEX
  8
PNOA-H_AMS_1956-57_33k_ES_PAN_21mic_H50_0475_fot_000-36809_R_tif
  70
32
  10
186487.500
  20
4529079.793
  30
612.75
  0
SEQEND
  8
PNOA-H_AMS_1956-57_33k_ES_PAN_21mic_H50_0475_fot_000-36809_R_tif
  0
TEXT
  8
PNOA-H_AMS_1956-57_33k_ES_PAN_21mic_H50_0475_fot_000-36809_R_tif
 62
0
  1
PNOA-H_AMS_1956-57_33k_ES_PAN_21mic_H50_0475_fot_000-36809_R.tif
 40
41.92443
  10
184709.296
  20
4528595.897
  0
POLYLINE
  8
PNOA-H_AMS_1956-57_33k_ES_PAN_21mic_H50_0475_fot_55A-03748_W_tif
  70
9
  66
1
  0
VERTEX
  8
PNOA-H_AMS_1956-57_33k_ES_PAN_21mic_H50_0475_fot_55A-03748_W_tif
  70
32
  10
195993.000
  20
4543311.793
  30
669.04
  0
VERTEX
  8
PNOA-H_AMS_1956-57_33k_ES_PAN_21mic_H50_0475_fot_55A-03748_W_tif
  70
32
  10
196514.000
  20
4543485.793
  30
672
  0
VERTEX
  8
PNOA-H_AMS_1956-57_33k_ES_PAN_21mic_H50_0475_fot_55A-03748_W_tif
  70
32
  10
196516.500
  20
4543485.793
  30
672
  0
VERTEX
  8
PNOA-H_AMS_1956-57_33k_ES_PAN_21mic_H50_0475_fot_55A-03748_W_tif
  70
32
  10
198262.500
  20
4542853.293
  30
648
  0
VERTEX
  8
PNOA-H_AMS_1956-57_33k_ES_PAN_21mic_H50_0475_fot_55A-03748_W_tif
  70
32
  10
197799.500
  20
4538435.293
  30
710
  0
VERTEX
  8
PNOA-H_AMS_1956-57_33k_ES_PAN_21mic_H50_0475_fot_55A-03748_W_tif
  70
32
  10
195327.000
  20
4538419.793
  30
685.2
  0
VERTEX
  8
PNOA-H_AMS_1956-57_33k_ES_PAN_21mic_H50_0475_fot_55A-03748_W_tif
  70
32
  10
194889.000
  20
4538673.793
  30
673.14
  0
VERTEX
  8
PNOA-H_AMS_1956-57_33k_ES_PAN_21mic_H50_0475_fot_55A-03748_W_tif
  70
32
  10
195361.500
  20
4543100.793
  30
695.7
  0
VERTEX
  8
PNOA-H_AMS_1956-57_33k_ES_PAN_21mic_H50_0475_fot_55A-03748_W_tif
  70
32
  10
195991.500
  20
4543311.293
  30
669.14
  0
VERTEX
  8
PNOA-H_AMS_1956-57_33k_ES_PAN_21mic_H50_0475_fot_55A-03748_W_tif
  70
32
  10
195993.000
  20
4543311.793
  30
669.04
  0
SEQEND
  8
PNOA-H_AMS_1956-57_33k_ES_PAN_21mic_H50_0475_fot_55A-03748_W_tif
  0
TEXT
  8
PNOA-H_AMS_1956-57_33k_ES_PAN_21mic_H50_0475_fot_55A-03748_W_tif
 62
0
  1
PNOA-H_AMS_1956-57_33k_ES_PAN_21mic_H50_0475_fot_55A-03748_W.tif
 40
41.92443
  10
196597.786
  20
4540952.793
  0
POLYLINE
  8
PNOA-H_AMS_1956-57_33k_ES_PAN_21mic_H50_0475_fot_55A-03749_W_tif
  70
9
  66
1
  0
VERTEX
  8
PNOA-H_AMS_1956-57_33k_ES_PAN_21mic_H50_0475_fot_55A-03749_W_tif
  70
32
  10
193662.000
  20
4543722.293
  30
680
  0
VERTEX
  8
PNOA-H_AMS_1956-57_33k_ES_PAN_21mic_H50_0475_fot_55A-03749_W_tif
  70
32
  10
195361.500
  20
4543100.793
  30
695.7
  0
VERTEX
  8
PNOA-H_AMS_1956-57_33k_ES_PAN_21mic_H50_0475_fot_55A-03749_W_tif
  70
32
  10
194889.500
  20
4538674.293
  30
673.06
  0
VERTEX
  8
PNOA-H_AMS_1956-57_33k_ES_PAN_21mic_H50_0475_fot_55A-03749_W_tif
  70
32
  10
192267.500
  20
4538719.793
  30
681
  0
VERTEX
  8
PNOA-H_AMS_1956-57_33k_ES_PAN_21mic_H50_0475_fot_55A-03749_W_tif
  70
32
  10
192261.000
  20
4538720.793
  30
681
  0
VERTEX
  8
PNOA-H_AMS_1956-57_33k_ES_PAN_21mic_H50_0475_fot_55A-03749_W_tif
  70
32
  10
191964.000
  20
4538899.293
  30
681.32
  0
VERTEX
  8
PNOA-H_AMS_1956-57_33k_ES_PAN_21mic_H50_0475_fot_55A-03749_W_tif
  70
32
  10
192386.500
  20
4543322.293
  30
643
  0
VERTEX
  8
PNOA-H_AMS_1956-57_33k_ES_PAN_21mic_H50_0475_fot_55A-03749_W_tif
  70
32
  10
193660.500
  20
4543721.793
  30
679.9
  0
VERTEX
  8
PNOA-H_AMS_1956-57_33k_ES_PAN_21mic_H50_0475_fot_55A-03749_W_tif
  70
32
  10
193662.000
  20
4543722.293
  30
680
  0
SEQEND
  8
PNOA-H_AMS_1956-57_33k_ES_PAN_21mic_H50_0475_fot_55A-03749_W_tif
  0
TEXT
  8
PNOA-H_AMS_1956-57_33k_ES_PAN_21mic_H50_0475_fot_55A-03749_W_tif
 62
0
  1
PNOA-H_AMS_1956-57_33k_ES_PAN_21mic_H50_0475_fot_55A-03749_W.tif
 40
41.92443
  10
193671.122
  20
4541198.293
  0
POLYLINE
  8
PNOA-H_AMS_1956-57_33k_ES_PAN_21mic_H50_0475_fot_56A-04393_W_tif
  70
9
  66
1
  0
VERTEX
  8
PNOA-H_AMS_1956-57_33k_ES_PAN_21mic_H50_0475_fot_56A-04393_W_tif
  70
32
  10
193946.500
  20
4538690.793
  30
676.7
  0
VERTEX
  8
PNOA-H_AMS_1956-57_33k_ES_PAN_21mic_H50_0475_fot_56A-04393_W_tif
  70
32
  10
194889.000
  20
4538674.293
  30
673.12
  0
VERTEX
  8
PNOA-H_AMS_1956-57_33k_ES_PAN_21mic_H50_0475_fot_56A-04393_W_tif
  70
32
  10
195327.500
  20
4538419.793
  30
685.25
  0
VERTEX
  8
PNOA-H_AMS_1956-57_33k_ES_PAN_21mic_H50_0475_fot_56A-04393_W_tif
  70
32
  10
195038.500
  20
4534526.793
  30
711
  0
VERTEX
  8
PNOA-H_AMS_1956-57_33k_ES_PAN_21mic_H50_0475_fot_56A-04393_W_tif
  70
32
  10
194619.500
  20
4534166.793
  30
722
  0
VERTEX
  8
PNOA-H_AMS_1956-57_33k_ES_PAN_21mic_H50_0475_fot_56A-04393_W_tif
  70
32
  10
191985.000
  20
4534586.293
  30
700
  0
VERTEX
  8
PNOA-H_AMS_1956-57_33k_ES_PAN_21mic_H50_0475_fot_56A-04393_W_tif
  70
32
  10
192262.500
  20
4538720.293
  30
681
  0
VERTEX
  8
PNOA-H_AMS_1956-57_33k_ES_PAN_21mic_H50_0475_fot_56A-04393_W_tif
  70
32
  10
193920.000
  20
4538690.793
  30
676
  0
VERTEX
  8
PNOA-H_AMS_1956-57_33k_ES_PAN_21mic_H50_0475_fot_56A-04393_W_tif
  70
32
  10
193946.500
  20
4538690.793
  30
676.7
  0
SEQEND
  8
PNOA-H_AMS_1956-57_33k_ES_PAN_21mic_H50_0475_fot_56A-04393_W_tif
  0
TEXT
  8
PNOA-H_AMS_1956-57_33k_ES_PAN_21mic_H50_0475_fot_56A-04393_W_tif
 62
0
  1
PNOA-H_AMS_1956-57_33k_ES_PAN_21mic_H50_0475_fot_56A-04393_W.tif
 40
41.92443
  10
193645.231
  20
4536443.543
  0
POLYLINE
  8
PNOA-H_AMS_1956-57_33k_ES_PAN_21mic_H50_0475_fot_56A-04392_W_tif
  70
9
  66
1
  0
VERTEX
  8
PNOA-H_AMS_1956-57_33k_ES_PAN_21mic_H50_0475_fot_56A-04392_W_tif
  70
32
  10
195931.500
  20
4538423.793
  30
689.91
  0
VERTEX
  8
PNOA-H_AMS_1956-57_33k_ES_PAN_21mic_H50_0475_fot_56A-04392_W_tif
  70
32
  10
197800.000
  20
4538435.293
  30
710
  0
VERTEX
  8
PNOA-H_AMS_1956-57_33k_ES_PAN_21mic_H50_0475_fot_56A-04392_W_tif
  70
32
  10
198381.000
  20
4538108.793
  30
713.06
  0
VERTEX
  8
PNOA-H_AMS_1956-57_33k_ES_PAN_21mic_H50_0475_fot_56A-04392_W_tif
  70
32
  10
198095.500
  20
4534366.793
  30
753.91
  0
VERTEX
  8
PNOA-H_AMS_1956-57_33k_ES_PAN_21mic_H50_0475_fot_56A-04392_W_tif
  70
32
  10
197827.000
  20
4534116.293
  30
742
  0
VERTEX
  8
PNOA-H_AMS_1956-57_33k_ES_PAN_21mic_H50_0475_fot_56A-04392_W_tif
  70
32
  10
195038.500
  20
4534526.793
  30
711
  0
VERTEX
  8
PNOA-H_AMS_1956-57_33k_ES_PAN_21mic_H50_0475_fot_56A-04392_W_tif
  70
32
  10
195327.000
  20
4538418.293
  30
685.08
  0
VERTEX
  8
PNOA-H_AMS_1956-57_33k_ES_PAN_21mic_H50_0475_fot_56A-04392_W_tif
  70
32
  10
195327.500
  20
4538419.793
  30
685.25
  0
VERTEX
  8
PNOA-H_AMS_1956-57_33k_ES_PAN_21mic_H50_0475_fot_56A-04392_W_tif
  70
32
  10
195366.000
  20
4538420.293
  30
686
  0
VERTEX
  8
PNOA-H_AMS_1956-57_33k_ES_PAN_21mic_H50_0475_fot_56A-04392_W_tif
  70
32
  10
195850.500
  20
4538423.293
  30
689.8
  0
VERTEX
  8
PNOA-H_AMS_1956-57_33k_ES_PAN_21mic_H50_0475_fot_56A-04392_W_tif
  70
32
  10
195931.500
  20
4538423.793
  30
689.91
  0
SEQEND
  8
PNOA-H_AMS_1956-57_33k_ES_PAN_21mic_H50_0475_fot_56A-04392_W_tif
  0
TEXT
  8
PNOA-H_AMS_1956-57_33k_ES_PAN_21mic_H50_0475_fot_56A-04392_W_tif
 62
0
  1
PNOA-H_AMS_1956-57_33k_ES_PAN_21mic_H50_0475_fot_56A-04392_W.tif
 40
41.92443
  10
196704.657
  20
4536275.793
  0
POLYLINE
  8
PNOA-H_AMS_1956-57_33k_ES_PAN_21mic_H50_0475_fot_57A-36821_E_tif
  70
9
  66
1
  0
VERTEX
  8
PNOA-H_AMS_1956-57_33k_ES_PAN_21mic_H50_0475_fot_57A-36821_E_tif
  70
32
  10
195994.500
  20
4534386.293
  30
721.28
  0
VERTEX
  8
PNOA-H_AMS_1956-57_33k_ES_PAN_21mic_H50_0475_fot_57A-36821_E_tif
  70
32
  10
197826.500
  20
4534116.293
  30
742
  0
VERTEX
  8
PNOA-H_AMS_1956-57_33k_ES_PAN_21mic_H50_0475_fot_57A-36821_E_tif
  70
32
  10
197730.000
  20
4530397.793
  30
730
  0
VERTEX
  8
PNOA-H_AMS_1956-57_33k_ES_PAN_21mic_H50_0475_fot_57A-36821_E_tif
  70
32
  10
195673.500
  20
4530109.293
  30
735.82
  0
VERTEX
  8
PNOA-H_AMS_1956-57_33k_ES_PAN_21mic_H50_0475_fot_57A-36821_E_tif
  70
32
  10
195514.500
  20
4530097.793
  30
731.9
  0
VERTEX
  8
PNOA-H_AMS_1956-57_33k_ES_PAN_21mic_H50_0475_fot_57A-36821_E_tif
  70
32
  10
195509.500
  20
4530097.793
  30
731
  0
VERTEX
  8
PNOA-H_AMS_1956-57_33k_ES_PAN_21mic_H50_0475_fot_57A-36821_E_tif
  70
32
  10
195499.000
  20
4530102.293
  30
730
  0
VERTEX
  8
PNOA-H_AMS_1956-57_33k_ES_PAN_21mic_H50_0475_fot_57A-36821_E_tif
  70
32
  10
194777.500
  20
4530425.793
  30
723
  0
VERTEX
  8
PNOA-H_AMS_1956-57_33k_ES_PAN_21mic_H50_0475_fot_57A-36821_E_tif
  70
32
  10
194619.000
  20
4534166.793
  30
722
  0
VERTEX
  8
PNOA-H_AMS_1956-57_33k_ES_PAN_21mic_H50_0475_fot_57A-36821_E_tif
  70
32
  10
195038.000
  20
4534526.793
  30
711
  0
VERTEX
  8
PNOA-H_AMS_1956-57_33k_ES_PAN_21mic_H50_0475_fot_57A-36821_E_tif
  70
32
  10
195991.500
  20
4534386.293
  30
721.76
  0
VERTEX
  8
PNOA-H_AMS_1956-57_33k_ES_PAN_21mic_H50_0475_fot_57A-36821_E_tif
  70
32
  10
195994.500
  20
4534386.293
  30
721.28
  0
SEQEND
  8
PNOA-H_AMS_1956-57_33k_ES_PAN_21mic_H50_0475_fot_57A-36821_E_tif
  0
TEXT
  8
PNOA-H_AMS_1956-57_33k_ES_PAN_21mic_H50_0475_fot_57A-36821_E_tif
 62
0
  1
PNOA-H_AMS_1956-57_33k_ES_PAN_21mic_H50_0475_fot_57A-36821_E.tif
 40
41.92443
  10
196238.628
  20
4532312.293
  0
POLYLINE
  8
PNOA-H_AMS_1956-57_33k_ES_PAN_21mic_H50_0475_fot_57A-36820_E_tif
  70
9
  66
1
  0
VERTEX
  8
PNOA-H_AMS_1956-57_33k_ES_PAN_21mic_H50_0475_fot_57A-36820_E_tif
  70
32
  10
191898.000
  20
4534520.293
  30
698
  0
VERTEX
  8
PNOA-H_AMS_1956-57_33k_ES_PAN_21mic_H50_0475_fot_57A-36820_E_tif
  70
32
  10
191986.000
  20
4534586.293
  30
700
  0
VERTEX
  8
PNOA-H_AMS_1956-57_33k_ES_PAN_21mic_H50_0475_fot_57A-36820_E_tif
  70
32
  10
194619.000
  20
4534166.793
  30
722
  0
VERTEX
  8
PNOA-H_AMS_1956-57_33k_ES_PAN_21mic_H50_0475_fot_57A-36820_E_tif
  70
32
  10
194777.500
  20
4530425.793
  30
723
  0
VERTEX
  8
PNOA-H_AMS_1956-57_33k_ES_PAN_21mic_H50_0475_fot_57A-36820_E_tif
  70
32
  10
192478.500
  20
4530071.793
  30
725
  0
VERTEX
  8
PNOA-H_AMS_1956-57_33k_ES_PAN_21mic_H50_0475_fot_57A-36820_E_tif
  70
32
  10
191638.500
  20
4530435.293
  30
730
  0
VERTEX
  8
PNOA-H_AMS_1956-57_33k_ES_PAN_21mic_H50_0475_fot_57A-36820_E_tif
  70
32
  10
191450.500
  20
4534181.293
  30
698.3
  0
VERTEX
  8
PNOA-H_AMS_1956-57_33k_ES_PAN_21mic_H50_0475_fot_57A-36820_E_tif
  70
32
  10
191897.000
  20
4534519.793
  30
698
  0
VERTEX
  8
PNOA-H_AMS_1956-57_33k_ES_PAN_21mic_H50_0475_fot_57A-36820_E_tif
  70
32
  10
191898.000
  20
4534520.293
  30
698
  0
SEQEND
  8
PNOA-H_AMS_1956-57_33k_ES_PAN_21mic_H50_0475_fot_57A-36820_E_tif
  0
TEXT
  8
PNOA-H_AMS_1956-57_33k_ES_PAN_21mic_H50_0475_fot_57A-36820_E_tif
 62
0
  1
PNOA-H_AMS_1956-57_33k_ES_PAN_21mic_H50_0475_fot_57A-36820_E.tif
 40
41.92443
  10
193120.161
  20
4532329.043
  0
POLYLINE
  8
PNOA-H_AMS_1956-57_33k_ES_PAN_21mic_H50_0475_fot_58A-40174_W_tif
  70
9
  66
1
  0
VERTEX
  8
PNOA-H_AMS_1956-57_33k_ES_PAN_21mic_H50_0475_fot_58A-40174_W_tif
  70
32
  10
195196.920
  20
4526547.288
  30
733.428
  0
VERTEX
  8
PNOA-H_AMS_1956-57_33k_ES_PAN_21mic_H50_0475_fot_58A-40174_W_tif
  70
32
  10
192578.356
  20
4526655.760
  30
729.589
  0
VERTEX
  8
PNOA-H_AMS_1956-57_33k_ES_PAN_21mic_H50_0475_fot_58A-40174_W_tif
  70
32
  10
192388.883
  20
4526663.699
  30
729.588
  0
VERTEX
  8
PNOA-H_AMS_1956-57_33k_ES_PAN_21mic_H50_0475_fot_58A-40174_W_tif
  70
32
  10
192450.000
  20
4528079.793
  30
735
  0
VERTEX
  8
PNOA-H_AMS_1956-57_33k_ES_PAN_21mic_H50_0475_fot_58A-40174_W_tif
  70
32
  10
192450.000
  20
4528090.793
  30
735
  0
VERTEX
  8
PNOA-H_AMS_1956-57_33k_ES_PAN_21mic_H50_0475_fot_58A-40174_W_tif
  70
32
  10
195226.000
  20
4527164.793
  30
744.5
  0
SEQEND
  8
PNOA-H_AMS_1956-57_33k_ES_PAN_21mic_H50_0475_fot_58A-40174_W_tif
  0
TEXT
  8
PNOA-H_AMS_1956-57_33k_ES_PAN_21mic_H50_0475_fot_58A-40174_W_tif
 62
0
  1
PNOA-H_AMS_1956-57_33k_ES_PAN_21mic_H50_0475_fot_58A-40174_W.tif
 40
41.92443
  10
193691.790
  20
4527250.397
  0
POLYLINE
  8
PNOA-H_AMS_1956-57_33k_ES_PAN_21mic_H50_0475_fot_58A-40173_W_tif
  70
9
  66
1
  0
VERTEX
  8
PNOA-H_AMS_1956-57_33k_ES_PAN_21mic_H50_0475_fot_58A-40173_W_tif
  70
32
  10
197256.306
  20
4526462.535
  30
734.363
  0
VERTEX
  8
PNOA-H_AMS_1956-57_33k_ES_PAN_21mic_H50_0475_fot_58A-40173_W_tif
  70
32
  10
196092.427
  20
4526510.192
  30
729.511
  0
VERTEX
  8
PNOA-H_AMS_1956-57_33k_ES_PAN_21mic_H50_0475_fot_58A-40173_W_tif
  70
32
  10
195196.611
  20
4526547.301
  30
733.389
  0
VERTEX
  8
PNOA-H_AMS_1956-57_33k_ES_PAN_21mic_H50_0475_fot_58A-40173_W_tif
  70
32
  10
195225.500
  20
4527164.293
  30
744.4
  0
VERTEX
  8
PNOA-H_AMS_1956-57_33k_ES_PAN_21mic_H50_0475_fot_58A-40173_W_tif
  70
32
  10
195510.000
  20
4530097.793
  30
731
  0
VERTEX
  8
PNOA-H_AMS_1956-57_33k_ES_PAN_21mic_H50_0475_fot_58A-40173_W_tif
  70
32
  10
195671.000
  20
4530109.293
  30
735.52
  0
VERTEX
  8
PNOA-H_AMS_1956-57_33k_ES_PAN_21mic_H50_0475_fot_58A-40173_W_tif
  70
32
  10
195994.500
  20
4529365.293
  30
738
  0
VERTEX
  8
PNOA-H_AMS_1956-57_33k_ES_PAN_21mic_H50_0475_fot_58A-40173_W_tif
  70
32
  10
195994.500
  20
4529364.293
  30
738
  0
SEQEND
  8
PNOA-H_AMS_1956-57_33k_ES_PAN_21mic_H50_0475_fot_58A-40173_W_tif
  0
TEXT
  8
PNOA-H_AMS_1956-57_33k_ES_PAN_21mic_H50_0475_fot_58A-40173_W_tif
 62
0
  1
PNOA-H_AMS_1956-57_33k_ES_PAN_21mic_H50_0475_fot_58A-40173_W.tif
 40
41.92443
  10
195927.783
  20
4528114.647
  0
POLYLINE
  8
PNOA-H_AMS_1956-57_33k_ES_PAN_21mic_H50_0475_fot_58A-40175_W_tif
  70
9
  66
1
  0
VERTEX
  8
PNOA-H_AMS_1956-57_33k_ES_PAN_21mic_H50_0475_fot_58A-40175_W_tif
  70
32
  10
192388.883
  20
4526663.699
  30
729.588
  0
VERTEX
  8
PNOA-H_AMS_1956-57_33k_ES_PAN_21mic_H50_0475_fot_58A-40175_W_tif
  70
32
  10
189733.596
  20
4526774.960
  30
711.789
  0
VERTEX
  8
PNOA-H_AMS_1956-57_33k_ES_PAN_21mic_H50_0475_fot_58A-40175_W_tif
  70
32
  10
192446.000
  20
4528828.293
  30
742
  0
VERTEX
  8
PNOA-H_AMS_1956-57_33k_ES_PAN_21mic_H50_0475_fot_58A-40175_W_tif
  70
32
  10
192446.500
  20
4528829.293
  30
742
  0
VERTEX
  8
PNOA-H_AMS_1956-57_33k_ES_PAN_21mic_H50_0475_fot_58A-40175_W_tif
  70
32
  10
192447.500
  20
4528794.793
  30
742
  0
VERTEX
  8
PNOA-H_AMS_1956-57_33k_ES_PAN_21mic_H50_0475_fot_58A-40175_W_tif
  70
32
  10
192450.000
  20
4528079.793
  30
735
  0
SEQEND
  8
PNOA-H_AMS_1956-57_33k_ES_PAN_21mic_H50_0475_fot_58A-40175_W_tif
  0
TEXT
  8
PNOA-H_AMS_1956-57_33k_ES_PAN_21mic_H50_0475_fot_58A-40175_W_tif
 62
0
  1
PNOA-H_AMS_1956-57_33k_ES_PAN_21mic_H50_0475_fot_58A-40175_W.tif
 40
41.92443
  10
191639.774
  20
4527619.647
  0
POLYLINE
  8
PNOA-H_AMS_1956-57_33k_ES_PAN_21mic_H50_0475_fot_000-36806_R_tif
  70
9
  66
1
  0
VERTEX
  8
PNOA-H_AMS_1956-57_33k_ES_PAN_21mic_H50_0475_fot_000-36806_R_tif
  70
32
  10
192478.500
  20
4530071.793
  30
725
  0
VERTEX
  8
PNOA-H_AMS_1956-57_33k_ES_PAN_21mic_H50_0475_fot_000-36806_R_tif
  70
32
  10
193941.500
  20
4530297.293
  30
732
  0
VERTEX
  8
PNOA-H_AMS_1956-57_33k_ES_PAN_21mic_H50_0475_fot_000-36806_R_tif
  70
32
  10
193944.500
  20
4530297.793
  30
732
  0
VERTEX
  8
PNOA-H_AMS_1956-57_33k_ES_PAN_21mic_H50_0475_fot_000-36806_R_tif
  70
32
  10
194778.000
  20
4530425.793
  30
723
  0
VERTEX
  8
PNOA-H_AMS_1956-57_33k_ES_PAN_21mic_H50_0475_fot_000-36806_R_tif
  70
32
  10
195510.000
  20
4530097.793
  30
731
  0
VERTEX
  8
PNOA-H_AMS_1956-57_33k_ES_PAN_21mic_H50_0475_fot_000-36806_R_tif
  70
32
  10
195226.000
  20
4527164.793
  30
744.5
  0
VERTEX
  8
PNOA-H_AMS_1956-57_33k_ES_PAN_21mic_H50_0475_fot_000-36806_R_tif
  70
32
  10
192450.000
  20
4528090.793
  30
735
  0
VERTEX
  8
PNOA-H_AMS_1956-57_33k_ES_PAN_21mic_H50_0475_fot_000-36806_R_tif
  70
32
  10
192447.000
  20
4528835.293
  30
742
  0
SEQEND
  8
PNOA-H_AMS_1956-57_33k_ES_PAN_21mic_H50_0475_fot_000-36806_R_tif
  0
TEXT
  8
PNOA-H_AMS_1956-57_33k_ES_PAN_21mic_H50_0475_fot_000-36806_R_tif
 62
0
  1
PNOA-H_AMS_1956-57_33k_ES_PAN_21mic_H50_0475_fot_000-36806_R.tif
 40
41.92443
  10
193915.521
  20
4528795.293
  0
POLYLINE
  8
PNOA-H_AMS_1956-57_33k_ES_PAN_21mic_H50_0475_fot_000-36807_R_tif
  70
9
  66
1
  0
VERTEX
  8
PNOA-H_AMS_1956-57_33k_ES_PAN_21mic_H50_0475_fot_000-36807_R_tif
  70
32
  10
189733.579
  20
4526774.961
  30
711.788
  0
VERTEX
  8
PNOA-H_AMS_1956-57_33k_ES_PAN_21mic_H50_0475_fot_000-36807_R_tif
  70
32
  10
189576.680
  20
4526781.535
  30
709.489
  0
VERTEX
  8
PNOA-H_AMS_1956-57_33k_ES_PAN_21mic_H50_0475_fot_000-36807_R_tif
  70
32
  10
189555.500
  20
4530004.793
  30
695
  0
VERTEX
  8
PNOA-H_AMS_1956-57_33k_ES_PAN_21mic_H50_0475_fot_000-36807_R_tif
  70
32
  10
191637.500
  20
4530435.293
  30
730
  0
VERTEX
  8
PNOA-H_AMS_1956-57_33k_ES_PAN_21mic_H50_0475_fot_000-36807_R_tif
  70
32
  10
191639.500
  20
4530435.293
  30
730
  0
VERTEX
  8
PNOA-H_AMS_1956-57_33k_ES_PAN_21mic_H50_0475_fot_000-36807_R_tif
  70
32
  10
191897.000
  20
4530323.293
  30
725
  0
VERTEX
  8
PNOA-H_AMS_1956-57_33k_ES_PAN_21mic_H50_0475_fot_000-36807_R_tif
  70
32
  10
191898.500
  20
4530322.793
  30
725
  0
VERTEX
  8
PNOA-H_AMS_1956-57_33k_ES_PAN_21mic_H50_0475_fot_000-36807_R_tif
  70
32
  10
192478.500
  20
4530072.293
  30
725
  0
VERTEX
  8
PNOA-H_AMS_1956-57_33k_ES_PAN_21mic_H50_0475_fot_000-36807_R_tif
  70
32
  10
192447.000
  20
4528829.293
  30
742
  0
SEQEND
  8
PNOA-H_AMS_1956-57_33k_ES_PAN_21mic_H50_0475_fot_000-36807_R_tif
  0
TEXT
  8
PNOA-H_AMS_1956-57_33k_ES_PAN_21mic_H50_0475_fot_000-36807_R_tif
 62
0
  1
PNOA-H_AMS_1956-57_33k_ES_PAN_21mic_H50_0475_fot_000-36807_R.tif
 40
41.92443
  10
190818.980
  20
4528546.043
  0
POLYLINE
  8
PNOA-H_AMS_1956-57_33k_ES_PAN_21mic_H50_0475_fot_000-36805_R_tif
  70
9
  66
1
  0
VERTEX
  8
PNOA-H_AMS_1956-57_33k_ES_PAN_21mic_H50_0475_fot_000-36805_R_tif
  70
32
  10
198094.396
  20
4526428.218
  30
761.031
  0
VERTEX
  8
PNOA-H_AMS_1956-57_33k_ES_PAN_21mic_H50_0475_fot_000-36805_R_tif
  70
32
  10
197256.029
  20
4526462.546
  30
733.824
  0
VERTEX
  8
PNOA-H_AMS_1956-57_33k_ES_PAN_21mic_H50_0475_fot_000-36805_R_tif
  70
32
  10
195671.000
  20
4530109.293
  30
735.52
  0
VERTEX
  8
PNOA-H_AMS_1956-57_33k_ES_PAN_21mic_H50_0475_fot_000-36805_R_tif
  70
32
  10
197730.000
  20
4530397.793
  30
730
  0
VERTEX
  8
PNOA-H_AMS_1956-57_33k_ES_PAN_21mic_H50_0475_fot_000-36805_R_tif
  70
32
  10
198544.000
  20
4530031.293
  30
733
  0
VERTEX
  8
PNOA-H_AMS_1956-57_33k_ES_PAN_21mic_H50_0475_fot_000-36805_R_tif
  70
32
  10
198114.000
  20
4526586.293
  30
768
  0
VERTEX
  8
PNOA-H_AMS_1956-57_33k_ES_PAN_21mic_H50_0475_fot_000-36805_R_tif
  70
32
  10
198113.500
  20
4526581.793
  30
768.07
  0
SEQEND
  8
PNOA-H_AMS_1956-57_33k_ES_PAN_21mic_H50_0475_fot_000-36805_R_tif
  0
TEXT
  8
PNOA-H_AMS_1956-57_33k_ES_PAN_21mic_H50_0475_fot_000-36805_R_tif
 62
0
  1
PNOA-H_AMS_1956-57_33k_ES_PAN_21mic_H50_0475_fot_000-36805_R.tif
 40
41.92443
  10
197399.016
  20
4528258.897
  0
POLYLINE
  8
PNOA-H_AMS_1956-57_33k_ES_PAN_21mic_H50_0475_fot_55A-03746_W_tif
  70
9
  66
1
  0
VERTEX
  8
PNOA-H_AMS_1956-57_33k_ES_PAN_21mic_H50_0475_fot_55A-03746_W_tif
  70
32
  10
203776.355
  20
4542502.324
  30
698.229
  0
VERTEX
  8
PNOA-H_AMS_1956-57_33k_ES_PAN_21mic_H50_0475_fot_55A-03746_W_tif
  70
32
  10
203772.916
  20
4542417.106
  30
698.281
  0
VERTEX
  8
PNOA-H_AMS_1956-57_33k_ES_PAN_21mic_H50_0475_fot_55A-03746_W_tif
  70
32
  10
203679.596
  20
4540103.803
  30
700.193
  0
VERTEX
  8
PNOA-H_AMS_1956-57_33k_ES_PAN_21mic_H50_0475_fot_55A-03746_W_tif
  70
32
  10
203594.321
  20
4537989.053
  30
700.978
  0
VERTEX
  8
PNOA-H_AMS_1956-57_33k_ES_PAN_21mic_H50_0475_fot_55A-03746_W_tif
  70
32
  10
201335.500
  20
4537824.793
  30
696
  0
VERTEX
  8
PNOA-H_AMS_1956-57_33k_ES_PAN_21mic_H50_0475_fot_55A-03746_W_tif
  70
32
  10
200660.000
  20
4538201.293
  30
693
  0
VERTEX
  8
PNOA-H_AMS_1956-57_33k_ES_PAN_21mic_H50_0475_fot_55A-03746_W_tif
  70
32
  10
201260.500
  20
4542599.793
  30
630.55
  0
VERTEX
  8
PNOA-H_AMS_1956-57_33k_ES_PAN_21mic_H50_0475_fot_55A-03746_W_tif
  70
32
  10
202269.000
  20
4542933.793
  30
692.56
  0
VERTEX
  8
PNOA-H_AMS_1956-57_33k_ES_PAN_21mic_H50_0475_fot_55A-03746_W_tif
  70
32
  10
202270.500
  20
4542934.293
  30
692.64
  0
VERTEX
  8
PNOA-H_AMS_1956-57_33k_ES_PAN_21mic_H50_0475_fot_55A-03746_W_tif
  70
32
  10
202273.500
  20
4542934.293
  30
692.88
  0
VERTEX
  8
PNOA-H_AMS_1956-57_33k_ES_PAN_21mic_H50_0475_fot_55A-03746_W_tif
  70
32
  10
202308.500
  20
4542924.293
  30
694.3
  0
SEQEND
  8
PNOA-H_AMS_1956-57_33k_ES_PAN_21mic_H50_0475_fot_55A-03746_W_tif
  0
TEXT
  8
PNOA-H_AMS_1956-57_33k_ES_PAN_21mic_H50_0475_fot_55A-03746_W_tif
 62
0
  1
PNOA-H_AMS_1956-57_33k_ES_PAN_21mic_H50_0475_fot_55A-03746_W.tif
 40
41.92443
  10
202436.364
  20
4540379.543
  0
POLYLINE
  8
PNOA-H_AMS_1956-57_33k_ES_PAN_21mic_H50_0475_fot_55A-03747_W_tif
  70
9
  66
1
  0
VERTEX
  8
PNOA-H_AMS_1956-57_33k_ES_PAN_21mic_H50_0475_fot_55A-03747_W_tif
  70
32
  10
199406.500
  20
4543217.793
  30
689
  0
VERTEX
  8
PNOA-H_AMS_1956-57_33k_ES_PAN_21mic_H50_0475_fot_55A-03747_W_tif
  70
32
  10
199409.000
  20
4543217.793
  30
689
  0
VERTEX
  8
PNOA-H_AMS_1956-57_33k_ES_PAN_21mic_H50_0475_fot_55A-03747_W_tif
  70
32
  10
201260.500
  20
4542600.293
  30
630.64
  0
VERTEX
  8
PNOA-H_AMS_1956-57_33k_ES_PAN_21mic_H50_0475_fot_55A-03747_W_tif
  70
32
  10
200660.000
  20
4538201.293
  30
693
  0
VERTEX
  8
PNOA-H_AMS_1956-57_33k_ES_PAN_21mic_H50_0475_fot_55A-03747_W_tif
  70
32
  10
198380.500
  20
4538108.793
  30
713.03
  0
VERTEX
  8
PNOA-H_AMS_1956-57_33k_ES_PAN_21mic_H50_0475_fot_55A-03747_W_tif
  70
32
  10
197799.500
  20
4538435.293
  30
710
  0
VERTEX
  8
PNOA-H_AMS_1956-57_33k_ES_PAN_21mic_H50_0475_fot_55A-03747_W_tif
  70
32
  10
198262.500
  20
4542853.293
  30
648
  0
VERTEX
  8
PNOA-H_AMS_1956-57_33k_ES_PAN_21mic_H50_0475_fot_55A-03747_W_tif
  70
32
  10
199405.000
  20
4543217.293
  30
689
  0
VERTEX
  8
PNOA-H_AMS_1956-57_33k_ES_PAN_21mic_H50_0475_fot_55A-03747_W_tif
  70
32
  10
199406.500
  20
4543217.793
  30
689
  0
SEQEND
  8
PNOA-H_AMS_1956-57_33k_ES_PAN_21mic_H50_0475_fot_55A-03747_W_tif
  0
TEXT
  8
PNOA-H_AMS_1956-57_33k_ES_PAN_21mic_H50_0475_fot_55A-03747_W_tif
 62
0
  1
PNOA-H_AMS_1956-57_33k_ES_PAN_21mic_H50_0475_fot_55A-03747_W.tif
 40
41.92443
  10
199514.537
  20
4540663.293
  0
POLYLINE
  8
PNOA-H_AMS_1956-57_33k_ES_PAN_21mic_H50_0475_fot_56A-04391_W_tif
  70
9
  66
1
  0
VERTEX
  8
PNOA-H_AMS_1956-57_33k_ES_PAN_21mic_H50_0475_fot_56A-04391_W_tif
  70
32
  10
200655.000
  20
4538201.293
  30
693
  0
VERTEX
  8
PNOA-H_AMS_1956-57_33k_ES_PAN_21mic_H50_0475_fot_56A-04391_W_tif
  70
32
  10
200660.500
  20
4538201.293
  30
693
  0
VERTEX
  8
PNOA-H_AMS_1956-57_33k_ES_PAN_21mic_H50_0475_fot_56A-04391_W_tif
  70
32
  10
201335.500
  20
4537825.293
  30
696
  0
VERTEX
  8
PNOA-H_AMS_1956-57_33k_ES_PAN_21mic_H50_0475_fot_56A-04391_W_tif
  70
32
  10
201248.500
  20
4534126.293
  30
733
  0
VERTEX
  8
PNOA-H_AMS_1956-57_33k_ES_PAN_21mic_H50_0475_fot_56A-04391_W_tif
  70
32
  10
201047.500
  20
4533948.793
  30
737
  0
VERTEX
  8
PNOA-H_AMS_1956-57_33k_ES_PAN_21mic_H50_0475_fot_56A-04391_W_tif
  70
32
  10
198095.000
  20
4534365.793
  30
753.7
  0
VERTEX
  8
PNOA-H_AMS_1956-57_33k_ES_PAN_21mic_H50_0475_fot_56A-04391_W_tif
  70
32
  10
198380.500
  20
4538108.293
  30
713.02
  0
VERTEX
  8
PNOA-H_AMS_1956-57_33k_ES_PAN_21mic_H50_0475_fot_56A-04391_W_tif
  70
32
  10
198386.500
  20
4538109.293
  30
713.58
  0
VERTEX
  8
PNOA-H_AMS_1956-57_33k_ES_PAN_21mic_H50_0475_fot_56A-04391_W_tif
  70
32
  10
200643.000
  20
4538200.793
  30
694
  0
VERTEX
  8
PNOA-H_AMS_1956-57_33k_ES_PAN_21mic_H50_0475_fot_56A-04391_W_tif
  70
32
  10
200655.000
  20
4538201.293
  30
693
  0
SEQEND
  8
PNOA-H_AMS_1956-57_33k_ES_PAN_21mic_H50_0475_fot_56A-04391_W_tif
  0
TEXT
  8
PNOA-H_AMS_1956-57_33k_ES_PAN_21mic_H50_0475_fot_56A-04391_W_tif
 62
0
  1
PNOA-H_AMS_1956-57_33k_ES_PAN_21mic_H50_0475_fot_56A-04391_W.tif
 40
41.92443
  10
199759.863
  20
4536075.043
  0
POLYLINE
  8
PNOA-H_AMS_1956-57_33k_ES_PAN_21mic_H50_0475_fot_56A-04390_W_tif
  70
9
  66
1
  0
VERTEX
  8
PNOA-H_AMS_1956-57_33k_ES_PAN_21mic_H50_0475_fot_56A-04390_W_tif
  70
32
  10
203426.369
  20
4533821.607
  30
693.514
  0
VERTEX
  8
PNOA-H_AMS_1956-57_33k_ES_PAN_21mic_H50_0475_fot_56A-04390_W_tif
  70
32
  10
201248.500
  20
4534125.793
  30
733
  0
VERTEX
  8
PNOA-H_AMS_1956-57_33k_ES_PAN_21mic_H50_0475_fot_56A-04390_W_tif
  70
32
  10
201335.500
  20
4537824.793
  30
696
  0
VERTEX
  8
PNOA-H_AMS_1956-57_33k_ES_PAN_21mic_H50_0475_fot_56A-04390_W_tif
  70
32
  10
202128.500
  20
4537882.793
  30
678
  0
VERTEX
  8
PNOA-H_AMS_1956-57_33k_ES_PAN_21mic_H50_0475_fot_56A-04390_W_tif
  70
32
  10
202135.000
  20
4537883.293
  30
677.8
  0
VERTEX
  8
PNOA-H_AMS_1956-57_33k_ES_PAN_21mic_H50_0475_fot_56A-04390_W_tif
  70
32
  10
203594.321
  20
4537989.056
  30
700.839
  0
VERTEX
  8
PNOA-H_AMS_1956-57_33k_ES_PAN_21mic_H50_0475_fot_56A-04390_W_tif
  70
32
  10
203586.315
  20
4537790.505
  30
697.364
  0
VERTEX
  8
PNOA-H_AMS_1956-57_33k_ES_PAN_21mic_H50_0475_fot_56A-04390_W_tif
  70
32
  10
203493.073
  20
4535477.212
  30
665.226
  0
SEQEND
  8
PNOA-H_AMS_1956-57_33k_ES_PAN_21mic_H50_0475_fot_56A-04390_W_tif
  0
TEXT
  8
PNOA-H_AMS_1956-57_33k_ES_PAN_21mic_H50_0475_fot_56A-04390_W_tif
 62
0
  1
PNOA-H_AMS_1956-57_33k_ES_PAN_21mic_H50_0475_fot_56A-04390_W.tif
 40
41.92443
  10
202838.027
  20
4535862.043
  0
POLYLINE
  8
PNOA-H_AMS_1956-57_33k_ES_PAN_21mic_H50_0475_fot_57A-36823_E_tif
  70
9
  66
1
  0
VERTEX
  8
PNOA-H_AMS_1956-57_33k_ES_PAN_21mic_H50_0475_fot_57A-36823_E_tif
  70
32
  10
203426.371
  20
4533821.660
  30
699.717
  0
VERTEX
  8
PNOA-H_AMS_1956-57_33k_ES_PAN_21mic_H50_0475_fot_57A-36823_E_tif
  70
32
  10
203399.871
  20
4533163.924
  30
701.227
  0
VERTEX
  8
PNOA-H_AMS_1956-57_33k_ES_PAN_21mic_H50_0475_fot_57A-36823_E_tif
  70
32
  10
203306.707
  20
4530850.642
  30
769.348
  0
VERTEX
  8
PNOA-H_AMS_1956-57_33k_ES_PAN_21mic_H50_0475_fot_57A-36823_E_tif
  70
32
  10
203267.204
  20
4529869.350
  30
785.798
  0
VERTEX
  8
PNOA-H_AMS_1956-57_33k_ES_PAN_21mic_H50_0475_fot_57A-36823_E_tif
  70
32
  10
202358.000
  20
4529780.793
  30
754.3
  0
VERTEX
  8
PNOA-H_AMS_1956-57_33k_ES_PAN_21mic_H50_0475_fot_57A-36823_E_tif
  70
32
  10
201428.000
  20
4529805.793
  30
734
  0
VERTEX
  8
PNOA-H_AMS_1956-57_33k_ES_PAN_21mic_H50_0475_fot_57A-36823_E_tif
  70
32
  10
200580.000
  20
4530209.293
  30
731
  0
VERTEX
  8
PNOA-H_AMS_1956-57_33k_ES_PAN_21mic_H50_0475_fot_57A-36823_E_tif
  70
32
  10
201047.000
  20
4533948.793
  30
737
  0
VERTEX
  8
PNOA-H_AMS_1956-57_33k_ES_PAN_21mic_H50_0475_fot_57A-36823_E_tif
  70
32
  10
201248.000
  20
4534126.293
  30
733
  0
VERTEX
  8
PNOA-H_AMS_1956-57_33k_ES_PAN_21mic_H50_0475_fot_57A-36823_E_tif
  70
32
  10
202135.500
  20
4534001.793
  30
736
  0
VERTEX
  8
PNOA-H_AMS_1956-57_33k_ES_PAN_21mic_H50_0475_fot_57A-36823_E_tif
  70
32
  10
202138.500
  20
4534001.793
  30
736
  0
SEQEND
  8
PNOA-H_AMS_1956-57_33k_ES_PAN_21mic_H50_0475_fot_57A-36823_E_tif
  0
TEXT
  8
PNOA-H_AMS_1956-57_33k_ES_PAN_21mic_H50_0475_fot_57A-36823_E_tif
 62
0
  1
PNOA-H_AMS_1956-57_33k_ES_PAN_21mic_H50_0475_fot_57A-36823_E.tif
 40
41.92443
  10
202312.638
  20
4531953.543
  0
POLYLINE
  8
PNOA-H_AMS_1956-57_33k_ES_PAN_21mic_H50_0475_fot_57A-36822_E_tif
  70
9
  66
1
  0
VERTEX
  8
PNOA-H_AMS_1956-57_33k_ES_PAN_21mic_H50_0475_fot_57A-36822_E_tif
  70
32
  10
198042.000
  20
4534316.793
  30
750.94
  0
VERTEX
  8
PNOA-H_AMS_1956-57_33k_ES_PAN_21mic_H50_0475_fot_57A-36822_E_tif
  70
32
  10
198094.500
  20
4534365.793
  30
753.63
  0
VERTEX
  8
PNOA-H_AMS_1956-57_33k_ES_PAN_21mic_H50_0475_fot_57A-36822_E_tif
  70
32
  10
198098.500
  20
4534365.793
  30
753.91
  0
VERTEX
  8
PNOA-H_AMS_1956-57_33k_ES_PAN_21mic_H50_0475_fot_57A-36822_E_tif
  70
32
  10
201047.000
  20
4533948.793
  30
737
  0
VERTEX
  8
PNOA-H_AMS_1956-57_33k_ES_PAN_21mic_H50_0475_fot_57A-36822_E_tif
  70
32
  10
200580.000
  20
4530209.293
  30
731
  0
VERTEX
  8
PNOA-H_AMS_1956-57_33k_ES_PAN_21mic_H50_0475_fot_57A-36822_E_tif
  70
32
  10
199188.000
  20
4530042.793
  30
736
  0
VERTEX
  8
PNOA-H_AMS_1956-57_33k_ES_PAN_21mic_H50_0475_fot_57A-36822_E_tif
  70
32
  10
198543.000
  20
4530031.293
  30
733
  0
VERTEX
  8
PNOA-H_AMS_1956-57_33k_ES_PAN_21mic_H50_0475_fot_57A-36822_E_tif
  70
32
  10
197730.000
  20
4530397.293
  30
730
  0
VERTEX
  8
PNOA-H_AMS_1956-57_33k_ES_PAN_21mic_H50_0475_fot_57A-36822_E_tif
  70
32
  10
197826.500
  20
4534116.293
  30
742
  0
VERTEX
  8
PNOA-H_AMS_1956-57_33k_ES_PAN_21mic_H50_0475_fot_57A-36822_E_tif
  70
32
  10
198041.500
  20
4534315.793
  30
750.79
  0
VERTEX
  8
PNOA-H_AMS_1956-57_33k_ES_PAN_21mic_H50_0475_fot_57A-36822_E_tif
  70
32
  10
198042.000
  20
4534316.793
  30
750.94
  0
SEQEND
  8
PNOA-H_AMS_1956-57_33k_ES_PAN_21mic_H50_0475_fot_57A-36822_E_tif
  0
TEXT
  8
PNOA-H_AMS_1956-57_33k_ES_PAN_21mic_H50_0475_fot_57A-36822_E_tif
 62
0
  1
PNOA-H_AMS_1956-57_33k_ES_PAN_21mic_H50_0475_fot_57A-36822_E.tif
 40
41.92443
  10
199302.581
  20
4532198.543
  0
POLYLINE
  8
PNOA-H_AMS_1956-57_33k_ES_PAN_21mic_H50_0475_fot_58A-40172_W_tif
  70
9
  66
1
  0
VERTEX
  8
PNOA-H_AMS_1956-57_33k_ES_PAN_21mic_H50_0475_fot_58A-40172_W_tif
  70
32
  10
199919.666
  20
4526353.628
  30
756.463
  0
VERTEX
  8
PNOA-H_AMS_1956-57_33k_ES_PAN_21mic_H50_0475_fot_58A-40172_W_tif
  70
32
  10
199606.475
  20
4526366.303
  30
753.98
  0
VERTEX
  8
PNOA-H_AMS_1956-57_33k_ES_PAN_21mic_H50_0475_fot_58A-40172_W_tif
  70
32
  10
198094.264
  20
4526428.223
  30
737.319
  0
VERTEX
  8
PNOA-H_AMS_1956-57_33k_ES_PAN_21mic_H50_0475_fot_58A-40172_W_tif
  70
32
  10
198543.500
  20
4530029.793
  30
733
  0
VERTEX
  8
PNOA-H_AMS_1956-57_33k_ES_PAN_21mic_H50_0475_fot_58A-40172_W_tif
  70
32
  10
198544.000
  20
4530031.293
  30
733
  0
VERTEX
  8
PNOA-H_AMS_1956-57_33k_ES_PAN_21mic_H50_0475_fot_58A-40172_W_tif
  70
32
  10
198567.000
  20
4530031.793
  30
735
  0
VERTEX
  8
PNOA-H_AMS_1956-57_33k_ES_PAN_21mic_H50_0475_fot_58A-40172_W_tif
  70
32
  10
199150.000
  20
4530042.293
  30
735
  0
VERTEX
  8
PNOA-H_AMS_1956-57_33k_ES_PAN_21mic_H50_0475_fot_58A-40172_W_tif
  70
32
  10
199178.000
  20
4530042.793
  30
736
  0
VERTEX
  8
PNOA-H_AMS_1956-57_33k_ES_PAN_21mic_H50_0475_fot_58A-40172_W_tif
  70
32
  10
199185.500
  20
4530042.293
  30
736
  0
SEQEND
  8
PNOA-H_AMS_1956-57_33k_ES_PAN_21mic_H50_0475_fot_58A-40172_W_tif
  0
TEXT
  8
PNOA-H_AMS_1956-57_33k_ES_PAN_21mic_H50_0475_fot_58A-40172_W_tif
 62
0
  1
PNOA-H_AMS_1956-57_33k_ES_PAN_21mic_H50_0475_fot_58A-40172_W.tif
 40
41.92443
  10
198938.127
  20
4528081.397
  0
POLYLINE
  8
PNOA-H_AMS_1956-57_33k_ES_PAN_21mic_H50_0475_fot_58A-40171_W_tif
  70
9
  66
1
  0
VERTEX
  8
PNOA-H_AMS_1956-57_33k_ES_PAN_21mic_H50_0475_fot_58A-40171_W_tif
  70
32
  10
202684.347
  20
4526241.743
  30
764.512
  0
VERTEX
  8
PNOA-H_AMS_1956-57_33k_ES_PAN_21mic_H50_0475_fot_58A-40171_W_tif
  70
32
  10
201030.898
  20
4526308.657
  30
761.631
  0
VERTEX
  8
PNOA-H_AMS_1956-57_33k_ES_PAN_21mic_H50_0475_fot_58A-40171_W_tif
  70
32
  10
201428.500
  20
4529805.293
  30
734
  0
VERTEX
  8
PNOA-H_AMS_1956-57_33k_ES_PAN_21mic_H50_0475_fot_58A-40171_W_tif
  70
32
  10
202136.500
  20
4529786.293
  30
754
  0
VERTEX
  8
PNOA-H_AMS_1956-57_33k_ES_PAN_21mic_H50_0475_fot_58A-40171_W_tif
  70
32
  10
202138.500
  20
4529786.293
  30
754
  0
VERTEX
  8
PNOA-H_AMS_1956-57_33k_ES_PAN_21mic_H50_0475_fot_58A-40171_W_tif
  70
32
  10
202354.500
  20
4529780.293
  30
754.4
  0
SEQEND
  8
PNOA-H_AMS_1956-57_33k_ES_PAN_21mic_H50_0475_fot_58A-40171_W_tif
  0
TEXT
  8
PNOA-H_AMS_1956-57_33k_ES_PAN_21mic_H50_0475_fot_58A-40171_W_tif
 62
0
  1
PNOA-H_AMS_1956-57_33k_ES_PAN_21mic_H50_0475_fot_58A-40171_W.tif
 40
41.92443
  10
201871.453
  20
4527962.647
  0
POLYLINE
  8
PNOA-H_AMS_1956-57_33k_ES_PAN_21mic_H50_0475_fot_000-36804_R_tif
  70
9
  66
1
  0
VERTEX
  8
PNOA-H_AMS_1956-57_33k_ES_PAN_21mic_H50_0475_fot_000-36804_R_tif
  70
32
  10
201031.040
  20
4526308.652
  30
761.583
  0
VERTEX
  8
PNOA-H_AMS_1956-57_33k_ES_PAN_21mic_H50_0475_fot_000-36804_R_tif
  70
32
  10
199919.311
  20
4526353.643
  30
756.428
  0
VERTEX
  8
PNOA-H_AMS_1956-57_33k_ES_PAN_21mic_H50_0475_fot_000-36804_R_tif
  70
32
  10
199185.000
  20
4530042.293
  30
736
  0
VERTEX
  8
PNOA-H_AMS_1956-57_33k_ES_PAN_21mic_H50_0475_fot_000-36804_R_tif
  70
32
  10
200572.500
  20
4530208.793
  30
731
  0
VERTEX
  8
PNOA-H_AMS_1956-57_33k_ES_PAN_21mic_H50_0475_fot_000-36804_R_tif
  70
32
  10
200576.500
  20
4530209.293
  30
731
  0
VERTEX
  8
PNOA-H_AMS_1956-57_33k_ES_PAN_21mic_H50_0475_fot_000-36804_R_tif
  70
32
  10
200581.000
  20
4530209.293
  30
731.2
  0
VERTEX
  8
PNOA-H_AMS_1956-57_33k_ES_PAN_21mic_H50_0475_fot_000-36804_R_tif
  70
32
  10
201429.000
  20
4529805.793
  30
734
  0
SEQEND
  8
PNOA-H_AMS_1956-57_33k_ES_PAN_21mic_H50_0475_fot_000-36804_R_tif
  0
TEXT
  8
PNOA-H_AMS_1956-57_33k_ES_PAN_21mic_H50_0475_fot_000-36804_R_tif
 62
0
  1
PNOA-H_AMS_1956-57_33k_ES_PAN_21mic_H50_0475_fot_000-36804_R.tif
 40
41.92443
  10
200400.517
  20
4528164.647
  0
POLYLINE
  8
PNOA-H_AMS_1956-57_33k_ES_PAN_21mic_H50_0501_fot_000-36803_R_tif
  70
9
  66
1
  0
VERTEX
  8
PNOA-H_AMS_1956-57_33k_ES_PAN_21mic_H50_0501_fot_000-36803_R_tif
  70
32
  10
203267.202
  20
4529869.285
  30
785.866
  0
VERTEX
  8
PNOA-H_AMS_1956-57_33k_ES_PAN_21mic_H50_0501_fot_000-36803_R_tif
  70
32
  10
203213.584
  20
4528537.364
  30
758.159
  0
VERTEX
  8
PNOA-H_AMS_1956-57_33k_ES_PAN_21mic_H50_0501_fot_000-36803_R_tif
  70
32
  10
203120.499
  20
4526224.092
  30
757.184
  0
VERTEX
  8
PNOA-H_AMS_1956-57_33k_ES_PAN_21mic_H50_0501_fot_000-36803_R_tif
  70
32
  10
202683.969
  20
4526241.758
  30
764.54
  0
VERTEX
  8
PNOA-H_AMS_1956-57_33k_ES_PAN_21mic_H50_0501_fot_000-36803_R_tif
  70
32
  10
202354.000
  20
4529780.293
  30
754.4
  0
SEQEND
  8
PNOA-H_AMS_1956-57_33k_ES_PAN_21mic_H50_0501_fot_000-36803_R_tif
  0
TEXT
  8
PNOA-H_AMS_1956-57_33k_ES_PAN_21mic_H50_0501_fot_000-36803_R_tif
 62
0
  1
PNOA-H_AMS_1956-57_33k_ES_PAN_21mic_H50_0501_fot_000-36803_R.tif
 40
41.92443
  10
202810.601
  20
4528046.689
  0
POLYLINE
  8
PNOA-H_AMS_1956-57_33k_ES_PAN_21mic_H50_0475_fot_56A-04399_W_tif
  70
9
  66
1
  0
VERTEX
  8
PNOA-H_AMS_1956-57_33k_ES_PAN_21mic_H50_0475_fot_56A-04399_W_tif
  70
32
  10
175579.606
  20
4540377.607
  30
483.716
  0
VERTEX
  8
PNOA-H_AMS_1956-57_33k_ES_PAN_21mic_H50_0475_fot_56A-04399_W_tif
  70
32
  10
177090.000
  20
4540234.793
  30
583
  0
VERTEX
  8
PNOA-H_AMS_1956-57_33k_ES_PAN_21mic_H50_0475_fot_56A-04399_W_tif
  70
32
  10
177090.000
  20
4540220.793
  30
584
  0
VERTEX
  8
PNOA-H_AMS_1956-57_33k_ES_PAN_21mic_H50_0475_fot_56A-04399_W_tif
  70
32
  10
176873.000
  20
4536828.793
  30
572.62
  0
VERTEX
  8
PNOA-H_AMS_1956-57_33k_ES_PAN_21mic_H50_0475_fot_56A-04399_W_tif
  70
32
  10
176873.000
  20
4536821.793
  30
573.8
  0
VERTEX
  8
PNOA-H_AMS_1956-57_33k_ES_PAN_21mic_H50_0475_fot_56A-04399_W_tif
  70
32
  10
176761.500
  20
4535080.293
  30
587
  0
VERTEX
  8
PNOA-H_AMS_1956-57_33k_ES_PAN_21mic_H50_0475_fot_56A-04399_W_tif
  70
32
  10
176055.000
  20
4534922.293
  30
340
  0
VERTEX
  8
PNOA-H_AMS_1956-57_33k_ES_PAN_21mic_H50_0475_fot_56A-04399_W_tif
  70
32
  10
176047.500
  20
4534929.293
  30
342.2
  0
VERTEX
  8
PNOA-H_AMS_1956-57_33k_ES_PAN_21mic_H50_0475_fot_56A-04399_W_tif
  70
32
  10
176037.500
  20
4534929.293
  30
324
  0
VERTEX
  8
PNOA-H_AMS_1956-57_33k_ES_PAN_21mic_H50_0475_fot_56A-04399_W_tif
  70
32
  10
176029.000
  20
4534921.293
  30
295.44
  0
VERTEX
  8
PNOA-H_AMS_1956-57_33k_ES_PAN_21mic_H50_0475_fot_56A-04399_W_tif
  70
32
  10
176028.000
  20
4534916.293
  30
290
  0
VERTEX
  8
PNOA-H_AMS_1956-57_33k_ES_PAN_21mic_H50_0475_fot_56A-04399_W_tif
  70
32
  10
176026.000
  20
4534915.793
  30
288.6
  0
VERTEX
  8
PNOA-H_AMS_1956-57_33k_ES_PAN_21mic_H50_0475_fot_56A-04399_W_tif
  70
32
  10
175997.000
  20
4534909.293
  30
269.76
  0
VERTEX
  8
PNOA-H_AMS_1956-57_33k_ES_PAN_21mic_H50_0475_fot_56A-04399_W_tif
  70
32
  10
175987.500
  20
4534909.293
  30
258.7
  0
VERTEX
  8
PNOA-H_AMS_1956-57_33k_ES_PAN_21mic_H50_0475_fot_56A-04399_W_tif
  70
32
  10
175983.500
  20
4534906.293
  30
245.34
  0
VERTEX
  8
PNOA-H_AMS_1956-57_33k_ES_PAN_21mic_H50_0475_fot_56A-04399_W_tif
  70
32
  10
175331.716
  20
4534760.664
  30
-7566.022
  0
VERTEX
  8
PNOA-H_AMS_1956-57_33k_ES_PAN_21mic_H50_0475_fot_56A-04399_W_tif
  70
32
  10
175415.612
  20
4536662.402
  30
-1142.698
  0
VERTEX
  8
PNOA-H_AMS_1956-57_33k_ES_PAN_21mic_H50_0475_fot_56A-04399_W_tif
  70
32
  10
175517.713
  20
4538975.818
  30
488.319
  0
SEQEND
  8
PNOA-H_AMS_1956-57_33k_ES_PAN_21mic_H50_0475_fot_56A-04399_W_tif
  0
TEXT
  8
PNOA-H_AMS_1956-57_33k_ES_PAN_21mic_H50_0475_fot_56A-04399_W_tif
 62
0
  1
PNOA-H_AMS_1956-57_33k_ES_PAN_21mic_H50_0475_fot_56A-04399_W.tif
 40
41.92443
  10
175464.853
  20
4537597.960
  0
POLYLINE
  8
PNOA-H_AMS_1956-57_33k_ES_PAN_21mic_H50_0475_fot_56A-04398_W_tif
  70
9
  66
1
  0
VERTEX
  8
PNOA-H_AMS_1956-57_33k_ES_PAN_21mic_H50_0475_fot_56A-04398_W_tif
  70
32
  10
177280.500
  20
4540308.293
  30
577.9
  0
VERTEX
  8
PNOA-H_AMS_1956-57_33k_ES_PAN_21mic_H50_0475_fot_56A-04398_W_tif
  70
32
  10
180217.000
  20
4539943.293
  30
626
  0
VERTEX
  8
PNOA-H_AMS_1956-57_33k_ES_PAN_21mic_H50_0475_fot_56A-04398_W_tif
  70
32
  10
179700.500
  20
4534997.293
  30
671
  0
VERTEX
  8
PNOA-H_AMS_1956-57_33k_ES_PAN_21mic_H50_0475_fot_56A-04398_W_tif
  70
32
  10
178397.500
  20
4534548.293
  30
620.5
  0
VERTEX
  8
PNOA-H_AMS_1956-57_33k_ES_PAN_21mic_H50_0475_fot_56A-04398_W_tif
  70
32
  10
178384.000
  20
4534544.293
  30
619.92
  0
VERTEX
  8
PNOA-H_AMS_1956-57_33k_ES_PAN_21mic_H50_0475_fot_56A-04398_W_tif
  70
32
  10
176761.500
  20
4535080.293
  30
587
  0
VERTEX
  8
PNOA-H_AMS_1956-57_33k_ES_PAN_21mic_H50_0475_fot_56A-04398_W_tif
  70
32
  10
177090.500
  20
4540234.293
  30
583
  0
VERTEX
  8
PNOA-H_AMS_1956-57_33k_ES_PAN_21mic_H50_0475_fot_56A-04398_W_tif
  70
32
  10
177279.000
  20
4540307.793
  30
578
  0
VERTEX
  8
PNOA-H_AMS_1956-57_33k_ES_PAN_21mic_H50_0475_fot_56A-04398_W_tif
  70
32
  10
177280.500
  20
4540308.293
  30
577.9
  0
SEQEND
  8
PNOA-H_AMS_1956-57_33k_ES_PAN_21mic_H50_0475_fot_56A-04398_W_tif
  0
TEXT
  8
PNOA-H_AMS_1956-57_33k_ES_PAN_21mic_H50_0475_fot_56A-04398_W_tif
 62
0
  1
PNOA-H_AMS_1956-57_33k_ES_PAN_21mic_H50_0475_fot_56A-04398_W.tif
 40
41.92443
  10
178432.705
  20
4537426.293
  0
POLYLINE
  8
PNOA-H_AMS_1956-57_33k_ES_PAN_21mic_H50_0475_fot_57A-36816_E_tif
  70
9
  66
1
  0
VERTEX
  8
PNOA-H_AMS_1956-57_33k_ES_PAN_21mic_H50_0475_fot_57A-36816_E_tif
  70
32
  10
179699.500
  20
4534997.293
  30
670.9
  0
VERTEX
  8
PNOA-H_AMS_1956-57_33k_ES_PAN_21mic_H50_0475_fot_57A-36816_E_tif
  70
32
  10
181766.000
  20
4534345.293
  30
671
  0
VERTEX
  8
PNOA-H_AMS_1956-57_33k_ES_PAN_21mic_H50_0475_fot_57A-36816_E_tif
  70
32
  10
181743.000
  20
4530280.793
  30
571.5
  0
VERTEX
  8
PNOA-H_AMS_1956-57_33k_ES_PAN_21mic_H50_0475_fot_57A-36816_E_tif
  70
32
  10
180665.000
  20
4529798.793
  30
540.7
  0
VERTEX
  8
PNOA-H_AMS_1956-57_33k_ES_PAN_21mic_H50_0475_fot_57A-36816_E_tif
  70
32
  10
180620.000
  20
4529806.793
  30
534.1
  0
VERTEX
  8
PNOA-H_AMS_1956-57_33k_ES_PAN_21mic_H50_0475_fot_57A-36816_E_tif
  70
32
  10
178334.500
  20
4530253.793
  30
527.8
  0
VERTEX
  8
PNOA-H_AMS_1956-57_33k_ES_PAN_21mic_H50_0475_fot_57A-36816_E_tif
  70
32
  10
178385.000
  20
4534544.293
  30
620
  0
VERTEX
  8
PNOA-H_AMS_1956-57_33k_ES_PAN_21mic_H50_0475_fot_57A-36816_E_tif
  70
32
  10
179698.000
  20
4534996.793
  30
670.64
  0
VERTEX
  8
PNOA-H_AMS_1956-57_33k_ES_PAN_21mic_H50_0475_fot_57A-36816_E_tif
  70
32
  10
179699.500
  20
4534997.293
  30
670.9
  0
SEQEND
  8
PNOA-H_AMS_1956-57_33k_ES_PAN_21mic_H50_0475_fot_57A-36816_E_tif
  0
TEXT
  8
PNOA-H_AMS_1956-57_33k_ES_PAN_21mic_H50_0475_fot_57A-36816_E_tif
 62
0
  1
PNOA-H_AMS_1956-57_33k_ES_PAN_21mic_H50_0475_fot_57A-36816_E.tif
 40
41.92443
  10
180057.360
  20
4532398.043
  0
POLYLINE
  8
PNOA-H_AMS_1956-57_33k_ES_PAN_21mic_H50_0475_fot_57A-36815_E_tif
  70
9
  66
1
  0
VERTEX
  8
PNOA-H_AMS_1956-57_33k_ES_PAN_21mic_H50_0475_fot_57A-36815_E_tif
  70
32
  10
175331.736
  20
4534761.120
  30
-3489.762
  0
VERTEX
  8
PNOA-H_AMS_1956-57_33k_ES_PAN_21mic_H50_0475_fot_57A-36815_E_tif
  70
32
  10
175511.500
  20
4534801.293
  30
402.14
  0
VERTEX
  8
PNOA-H_AMS_1956-57_33k_ES_PAN_21mic_H50_0475_fot_57A-36815_E_tif
  70
32
  10
175513.500
  20
4534801.793
  30
402.63
  0
VERTEX
  8
PNOA-H_AMS_1956-57_33k_ES_PAN_21mic_H50_0475_fot_57A-36815_E_tif
  70
32
  10
175983.500
  20
4534906.293
  30
245.34
  0
VERTEX
  8
PNOA-H_AMS_1956-57_33k_ES_PAN_21mic_H50_0475_fot_57A-36815_E_tif
  70
32
  10
175987.500
  20
4534909.293
  30
258.7
  0
VERTEX
  8
PNOA-H_AMS_1956-57_33k_ES_PAN_21mic_H50_0475_fot_57A-36815_E_tif
  70
32
  10
175997.000
  20
4534909.293
  30
269.76
  0
VERTEX
  8
PNOA-H_AMS_1956-57_33k_ES_PAN_21mic_H50_0475_fot_57A-36815_E_tif
  70
32
  10
176026.000
  20
4534915.793
  30
288.6
  0
VERTEX
  8
PNOA-H_AMS_1956-57_33k_ES_PAN_21mic_H50_0475_fot_57A-36815_E_tif
  70
32
  10
176028.000
  20
4534916.293
  30
290
  0
VERTEX
  8
PNOA-H_AMS_1956-57_33k_ES_PAN_21mic_H50_0475_fot_57A-36815_E_tif
  70
32
  10
176029.000
  20
4534921.293
  30
295.44
  0
VERTEX
  8
PNOA-H_AMS_1956-57_33k_ES_PAN_21mic_H50_0475_fot_57A-36815_E_tif
  70
32
  10
176037.500
  20
4534929.293
  30
324
  0
VERTEX
  8
PNOA-H_AMS_1956-57_33k_ES_PAN_21mic_H50_0475_fot_57A-36815_E_tif
  70
32
  10
176047.500
  20
4534929.293
  30
342.2
  0
VERTEX
  8
PNOA-H_AMS_1956-57_33k_ES_PAN_21mic_H50_0475_fot_57A-36815_E_tif
  70
32
  10
176055.000
  20
4534922.293
  30
340
  0
VERTEX
  8
PNOA-H_AMS_1956-57_33k_ES_PAN_21mic_H50_0475_fot_57A-36815_E_tif
  70
32
  10
176732.500
  20
4535074.293
  30
588.9
  0
VERTEX
  8
PNOA-H_AMS_1956-57_33k_ES_PAN_21mic_H50_0475_fot_57A-36815_E_tif
  70
32
  10
176763.000
  20
4535080.293
  30
587
  0
VERTEX
  8
PNOA-H_AMS_1956-57_33k_ES_PAN_21mic_H50_0475_fot_57A-36815_E_tif
  70
32
  10
178385.000
  20
4534544.293
  30
620
  0
VERTEX
  8
PNOA-H_AMS_1956-57_33k_ES_PAN_21mic_H50_0475_fot_57A-36815_E_tif
  70
32
  10
178334.500
  20
4530253.293
  30
527.9
  0
VERTEX
  8
PNOA-H_AMS_1956-57_33k_ES_PAN_21mic_H50_0475_fot_57A-36815_E_tif
  70
32
  10
177998.500
  20
4530072.293
  30
-9430.4
  0
VERTEX
  8
PNOA-H_AMS_1956-57_33k_ES_PAN_21mic_H50_0475_fot_57A-36815_E_tif
  70
32
  10
177997.500
  20
4530072.293
  30
-16098
  0
VERTEX
  8
PNOA-H_AMS_1956-57_33k_ES_PAN_21mic_H50_0475_fot_57A-36815_E_tif
  70
32
  10
177997.500
  20
4531992.793
  30
-14443.55
  0
VERTEX
  8
PNOA-H_AMS_1956-57_33k_ES_PAN_21mic_H50_0475_fot_57A-36815_E_tif
  70
32
  10
177995.500
  20
4531994.793
  30
-14442.35
  0
VERTEX
  8
PNOA-H_AMS_1956-57_33k_ES_PAN_21mic_H50_0475_fot_57A-36815_E_tif
  70
32
  10
177889.500
  20
4531994.793
  30
-17759.051
  0
VERTEX
  8
PNOA-H_AMS_1956-57_33k_ES_PAN_21mic_H50_0475_fot_57A-36815_E_tif
  70
32
  10
177884.500
  20
4531999.793
  30
-14422.65
  0
VERTEX
  8
PNOA-H_AMS_1956-57_33k_ES_PAN_21mic_H50_0475_fot_57A-36815_E_tif
  70
32
  10
177880.500
  20
4531994.793
  30
-17757.25
  0
VERTEX
  8
PNOA-H_AMS_1956-57_33k_ES_PAN_21mic_H50_0475_fot_57A-36815_E_tif
  70
32
  10
177564.500
  20
4531994.793
  30
-14417.9
  0
VERTEX
  8
PNOA-H_AMS_1956-57_33k_ES_PAN_21mic_H50_0475_fot_57A-36815_E_tif
  70
32
  10
177560.500
  20
4531989.793
  30
-17754.1
  0
VERTEX
  8
PNOA-H_AMS_1956-57_33k_ES_PAN_21mic_H50_0475_fot_57A-36815_E_tif
  70
32
  10
176004.500
  20
4531989.793
  30
-17724.4
  0
VERTEX
  8
PNOA-H_AMS_1956-57_33k_ES_PAN_21mic_H50_0475_fot_57A-36815_E_tif
  70
32
  10
175997.500
  20
4531996.793
  30
-17724.4
  0
VERTEX
  8
PNOA-H_AMS_1956-57_33k_ES_PAN_21mic_H50_0475_fot_57A-36815_E_tif
  70
32
  10
175997.500
  20
4533987.793
  30
-14475.4
  0
VERTEX
  8
PNOA-H_AMS_1956-57_33k_ES_PAN_21mic_H50_0475_fot_57A-36815_E_tif
  70
32
  10
175995.500
  20
4533989.793
  30
-14474.2
  0
VERTEX
  8
PNOA-H_AMS_1956-57_33k_ES_PAN_21mic_H50_0475_fot_57A-36815_E_tif
  70
32
  10
175297.715
  20
4533989.793
  30
-17146.236
  0
VERTEX
  8
PNOA-H_AMS_1956-57_33k_ES_PAN_21mic_H50_0475_fot_57A-36815_E_tif
  70
32
  10
175313.555
  20
4534348.990
  30
-13100.128
  0
SEQEND
  8
PNOA-H_AMS_1956-57_33k_ES_PAN_21mic_H50_0475_fot_57A-36815_E_tif
  0
TEXT
  8
PNOA-H_AMS_1956-57_33k_ES_PAN_21mic_H50_0475_fot_57A-36815_E_tif
 62
0
  1
PNOA-H_AMS_1956-57_33k_ES_PAN_21mic_H50_0475_fot_57A-36815_E.tif
 40
41.92443
  10
177179.669
  20
4532576.293
  0
POLYLINE
  8
PNOA-H_AMS_1956-57_33k_ES_PAN_21mic_H50_0475_fot_57A-36815_E_tif
  70
9
  66
1
  0
VERTEX
  8
PNOA-H_AMS_1956-57_33k_ES_PAN_21mic_H50_0475_fot_57A-36815_E_tif
  70
32
  10
177344.500
  20
4530004.793
  30
-16067.5
  0
VERTEX
  8
PNOA-H_AMS_1956-57_33k_ES_PAN_21mic_H50_0475_fot_57A-36815_E_tif
  70
32
  10
177872.000
  20
4530004.793
  30
-16097.7
  0
VERTEX
  8
PNOA-H_AMS_1956-57_33k_ES_PAN_21mic_H50_0475_fot_57A-36815_E_tif
  70
32
  10
177788.500
  20
4529959.293
  30
589.3
  0
VERTEX
  8
PNOA-H_AMS_1956-57_33k_ES_PAN_21mic_H50_0475_fot_57A-36815_E_tif
  70
32
  10
177349.500
  20
4530004.293
  30
-12728.14
  0
VERTEX
  8
PNOA-H_AMS_1956-57_33k_ES_PAN_21mic_H50_0475_fot_57A-36815_E_tif
  70
32
  10
177344.500
  20
4530004.793
  30
-16067.5
  0
SEQEND
  8
PNOA-H_AMS_1956-57_33k_ES_PAN_21mic_H50_0475_fot_57A-36815_E_tif
  0
TEXT
  8
PNOA-H_AMS_1956-57_33k_ES_PAN_21mic_H50_0475_fot_57A-36815_E_tif
 62
0
  1
PNOA-H_AMS_1956-57_33k_ES_PAN_21mic_H50_0475_fot_57A-36815_E.tif
 40
41.92443
  10
177698.406
  20
4529982.043
  0
POLYLINE
  8
PNOA-H_AMS_1956-57_33k_ES_PAN_21mic_H50_0475_fot_58A-40180_W_tif
  70
9
  66
1
  0
VERTEX
  8
PNOA-H_AMS_1956-57_33k_ES_PAN_21mic_H50_0475_fot_58A-40180_W_tif
  70
32
  10
177656.204
  20
4527292.745
  30
-8724.387
  0
VERTEX
  8
PNOA-H_AMS_1956-57_33k_ES_PAN_21mic_H50_0475_fot_58A-40180_W_tif
  70
32
  10
176010.822
  20
4527364.833
  30
644.072
  0
VERTEX
  8
PNOA-H_AMS_1956-57_33k_ES_PAN_21mic_H50_0475_fot_58A-40180_W_tif
  70
32
  10
176010.500
  20
4528017.793
  30
617
  0
VERTEX
  8
PNOA-H_AMS_1956-57_33k_ES_PAN_21mic_H50_0475_fot_58A-40180_W_tif
  70
32
  10
176008.500
  20
4528020.293
  30
-9398.2
  0
VERTEX
  8
PNOA-H_AMS_1956-57_33k_ES_PAN_21mic_H50_0475_fot_58A-40180_W_tif
  70
32
  10
176007.500
  20
4529997.793
  30
-16054
  0
VERTEX
  8
PNOA-H_AMS_1956-57_33k_ES_PAN_21mic_H50_0475_fot_58A-40180_W_tif
  70
32
  10
176014.500
  20
4530004.793
  30
-16054
  0
VERTEX
  8
PNOA-H_AMS_1956-57_33k_ES_PAN_21mic_H50_0475_fot_58A-40180_W_tif
  70
32
  10
177344.500
  20
4530004.793
  30
-16067.5
  0
VERTEX
  8
PNOA-H_AMS_1956-57_33k_ES_PAN_21mic_H50_0475_fot_58A-40180_W_tif
  70
32
  10
177559.000
  20
4529982.293
  30
609.2
  0
VERTEX
  8
PNOA-H_AMS_1956-57_33k_ES_PAN_21mic_H50_0475_fot_58A-40180_W_tif
  70
32
  10
177562.500
  20
4529982.293
  30
609
  0
VERTEX
  8
PNOA-H_AMS_1956-57_33k_ES_PAN_21mic_H50_0475_fot_58A-40180_W_tif
  70
32
  10
177787.500
  20
4529959.293
  30
589.5
  0
SEQEND
  8
PNOA-H_AMS_1956-57_33k_ES_PAN_21mic_H50_0475_fot_58A-40180_W_tif
  0
TEXT
  8
PNOA-H_AMS_1956-57_33k_ES_PAN_21mic_H50_0475_fot_58A-40180_W_tif
 62
0
  1
PNOA-H_AMS_1956-57_33k_ES_PAN_21mic_H50_0475_fot_58A-40180_W.tif
 40
41.92443
  10
176862.011
  20
4528502.397
  0
POLYLINE
  8
PNOA-H_AMS_1956-57_33k_ES_PAN_21mic_H50_0475_fot_58A-40179_W_tif
  70
9
  66
1
  0
VERTEX
  8
PNOA-H_AMS_1956-57_33k_ES_PAN_21mic_H50_0475_fot_58A-40179_W_tif
  70
32
  10
180631.823
  20
4527163.386
  30
-2661.115
  0
VERTEX
  8
PNOA-H_AMS_1956-57_33k_ES_PAN_21mic_H50_0475_fot_58A-40179_W_tif
  70
32
  10
178521.833
  20
4527254.820
  30
-7718.465
  0
VERTEX
  8
PNOA-H_AMS_1956-57_33k_ES_PAN_21mic_H50_0475_fot_58A-40179_W_tif
  70
32
  10
177656.204
  20
4527292.745
  30
-8724.387
  0
VERTEX
  8
PNOA-H_AMS_1956-57_33k_ES_PAN_21mic_H50_0475_fot_58A-40179_W_tif
  70
32
  10
177787.500
  20
4529959.293
  30
589.5
  0
VERTEX
  8
PNOA-H_AMS_1956-57_33k_ES_PAN_21mic_H50_0475_fot_58A-40179_W_tif
  70
32
  10
177872.000
  20
4530004.793
  30
-16097.7
  0
VERTEX
  8
PNOA-H_AMS_1956-57_33k_ES_PAN_21mic_H50_0475_fot_58A-40179_W_tif
  70
32
  10
177900.500
  20
4530004.793
  30
-17767.6
  0
VERTEX
  8
PNOA-H_AMS_1956-57_33k_ES_PAN_21mic_H50_0475_fot_58A-40179_W_tif
  70
32
  10
177904.500
  20
4529999.793
  30
-14434.85
  0
VERTEX
  8
PNOA-H_AMS_1956-57_33k_ES_PAN_21mic_H50_0475_fot_58A-40179_W_tif
  70
32
  10
177940.500
  20
4529999.793
  30
-14436.7
  0
VERTEX
  8
PNOA-H_AMS_1956-57_33k_ES_PAN_21mic_H50_0475_fot_58A-40179_W_tif
  70
32
  10
177944.500
  20
4530004.793
  30
-17769.85
  0
VERTEX
  8
PNOA-H_AMS_1956-57_33k_ES_PAN_21mic_H50_0475_fot_58A-40179_W_tif
  70
32
  10
177950.500
  20
4530004.793
  30
-17769.85
  0
VERTEX
  8
PNOA-H_AMS_1956-57_33k_ES_PAN_21mic_H50_0475_fot_58A-40179_W_tif
  70
32
  10
177954.500
  20
4529999.793
  30
-14437.15
  0
VERTEX
  8
PNOA-H_AMS_1956-57_33k_ES_PAN_21mic_H50_0475_fot_58A-40179_W_tif
  70
32
  10
177970.500
  20
4529999.793
  30
-14436.6
  0
VERTEX
  8
PNOA-H_AMS_1956-57_33k_ES_PAN_21mic_H50_0475_fot_58A-40179_W_tif
  70
32
  10
177974.500
  20
4530004.793
  30
-17769.4
  0
VERTEX
  8
PNOA-H_AMS_1956-57_33k_ES_PAN_21mic_H50_0475_fot_58A-40179_W_tif
  70
32
  10
177995.500
  20
4530004.793
  30
-14437.3
  0
VERTEX
  8
PNOA-H_AMS_1956-57_33k_ES_PAN_21mic_H50_0475_fot_58A-40179_W_tif
  70
32
  10
177997.500
  20
4530006.793
  30
-14438.1
  0
VERTEX
  8
PNOA-H_AMS_1956-57_33k_ES_PAN_21mic_H50_0475_fot_58A-40179_W_tif
  70
32
  10
177997.500
  20
4530072.293
  30
-16098
  0
VERTEX
  8
PNOA-H_AMS_1956-57_33k_ES_PAN_21mic_H50_0475_fot_58A-40179_W_tif
  70
32
  10
178334.500
  20
4530253.793
  30
527.8
  0
VERTEX
  8
PNOA-H_AMS_1956-57_33k_ES_PAN_21mic_H50_0475_fot_58A-40179_W_tif
  70
32
  10
179609.500
  20
4530004.293
  30
335.26
  0
VERTEX
  8
PNOA-H_AMS_1956-57_33k_ES_PAN_21mic_H50_0475_fot_58A-40179_W_tif
  70
32
  10
179610.500
  20
4530004.293
  30
335.66
  0
VERTEX
  8
PNOA-H_AMS_1956-57_33k_ES_PAN_21mic_H50_0475_fot_58A-40179_W_tif
  70
32
  10
180663.500
  20
4529798.793
  30
540.49
  0
SEQEND
  8
PNOA-H_AMS_1956-57_33k_ES_PAN_21mic_H50_0475_fot_58A-40179_W_tif
  0
TEXT
  8
PNOA-H_AMS_1956-57_33k_ES_PAN_21mic_H50_0475_fot_58A-40179_W_tif
 62
0
  1
PNOA-H_AMS_1956-57_33k_ES_PAN_21mic_H50_0475_fot_58A-40179_W.tif
 40
41.92443
  10
179185.655
  20
4528626.897
  0
POLYLINE
  8
PNOA-H_AMS_1956-57_33k_ES_PAN_21mic_H50_0500_fot_59A-35481_W_tif
  70
9
  66
1
  0
VERTEX
  8
PNOA-H_AMS_1956-57_33k_ES_PAN_21mic_H50_0500_fot_59A-35481_W_tif
  70
32
  10
176011.000
  20
4527364.825
  30
646.035
  0
VERTEX
  8
PNOA-H_AMS_1956-57_33k_ES_PAN_21mic_H50_0500_fot_59A-35481_W_tif
  70
32
  10
176007.500
  20
4527364.978
  30
-16054
  0
VERTEX
  8
PNOA-H_AMS_1956-57_33k_ES_PAN_21mic_H50_0500_fot_59A-35481_W_tif
  70
32
  10
176007.500
  20
4529997.293
  30
-16054
  0
VERTEX
  8
PNOA-H_AMS_1956-57_33k_ES_PAN_21mic_H50_0500_fot_59A-35481_W_tif
  70
32
  10
176008.500
  20
4528020.293
  30
-9398.2
  0
VERTEX
  8
PNOA-H_AMS_1956-57_33k_ES_PAN_21mic_H50_0500_fot_59A-35481_W_tif
  70
32
  10
176010.500
  20
4528017.793
  30
617
  0
VERTEX
  8
PNOA-H_AMS_1956-57_33k_ES_PAN_21mic_H50_0500_fot_59A-35481_W_tif
  70
32
  10
176011.000
  20
4527726.793
  30
633
  0
SEQEND
  8
PNOA-H_AMS_1956-57_33k_ES_PAN_21mic_H50_0500_fot_59A-35481_W_tif
  0
TEXT
  8
PNOA-H_AMS_1956-57_33k_ES_PAN_21mic_H50_0500_fot_59A-35481_W_tif
 62
0
  1
PNOA-H_AMS_1956-57_33k_ES_PAN_21mic_H50_0500_fot_59A-35481_W.tif
 40
41.92443
  10
176009.250
  20
4527511.450
  0
ENDSEC
  0
EOF
