  0
SECTION
  2
HEADER
  9
$ACADVER
  1
AC1009
  9
$LUNITS
  70
2
  9
$LIMMIN
  10
146893.186
  20
4527408.784
  9
$LIMMAX
  10
175824.273
  20
4547209.362
  9
$EXTMIN
  10
146893.186
  20
4527408.784
  9
$EXTMAX
  10
175824.273
  20
4547209.362
  999
Created by Global Mapper
  999
Projection: UTM
  999
Datum: ETRS89
  999
Ground Units: meters
  999
ZONE: 30
  0
ENDSEC
  0
SECTION
  2
TABLES
  0
ENDSEC
  0
SECTION
  2
BLOCKS
  0
ENDSEC
  0
SECTION
  2
ENTITIES
  0
POLYLINE
  8
PNOA-H_AMS_1956-57_33k_ES_PAN_21mic_H50_0448_fot_54A-29186_W_tif
  70
9
  66
1
  0
VERTEX
  8
PNOA-H_AMS_1956-57_33k_ES_PAN_21mic_H50_0448_fot_54A-29186_W_tif
  70
32
  10
170329.490
  20
4546161.227
  30
289.231
  0
VERTEX
  8
PNOA-H_AMS_1956-57_33k_ES_PAN_21mic_H50_0448_fot_54A-29186_W_tif
  70
32
  10
170255.500
  20
4545470.793
  30
358.47
  0
VERTEX
  8
PNOA-H_AMS_1956-57_33k_ES_PAN_21mic_H50_0448_fot_54A-29186_W_tif
  70
32
  10
169999.000
  20
4545384.293
  30
-6208.92
  0
VERTEX
  8
PNOA-H_AMS_1956-57_33k_ES_PAN_21mic_H50_0448_fot_54A-29186_W_tif
  70
32
  10
169997.500
  20
4545384.293
  30
-16168.2
  0
VERTEX
  8
PNOA-H_AMS_1956-57_33k_ES_PAN_21mic_H50_0448_fot_54A-29186_W_tif
  70
32
  10
169997.500
  20
4545992.793
  30
-14559.4
  0
VERTEX
  8
PNOA-H_AMS_1956-57_33k_ES_PAN_21mic_H50_0448_fot_54A-29186_W_tif
  70
32
  10
169995.500
  20
4545994.793
  30
-14557.4
  0
VERTEX
  8
PNOA-H_AMS_1956-57_33k_ES_PAN_21mic_H50_0448_fot_54A-29186_W_tif
  70
32
  10
168604.500
  20
4545994.793
  30
-14510.2
  0
VERTEX
  8
PNOA-H_AMS_1956-57_33k_ES_PAN_21mic_H50_0448_fot_54A-29186_W_tif
  70
32
  10
168600.500
  20
4545989.793
  30
-17829.25
  0
VERTEX
  8
PNOA-H_AMS_1956-57_33k_ES_PAN_21mic_H50_0448_fot_54A-29186_W_tif
  70
32
  10
168500.000
  20
4545989.793
  30
-9870.357
  0
VERTEX
  8
PNOA-H_AMS_1956-57_33k_ES_PAN_21mic_H50_0448_fot_54A-29186_W_tif
  70
32
  10
168500.000
  20
4546243.554
  30
-2229.895
  0
VERTEX
  8
PNOA-H_AMS_1956-57_33k_ES_PAN_21mic_H50_0448_fot_54A-29186_W_tif
  70
32
  10
168813.538
  20
4546229.320
  30
-16195.273
  0
SEQEND
  8
PNOA-H_AMS_1956-57_33k_ES_PAN_21mic_H50_0448_fot_54A-29186_W_tif
  0
TEXT
  8
PNOA-H_AMS_1956-57_33k_ES_PAN_21mic_H50_0448_fot_54A-29186_W_tif
 62
0
  1
PNOA-H_AMS_1956-57_33k_ES_PAN_21mic_H50_0448_fot_54A-29186_W.tif
 40
42.06973
  10
169414.745
  20
4545813.923
  0
POLYLINE
  8
PNOA-H_AMS_1956-57_33k_ES_PAN_21mic_H50_0448_fot_54A-29185_W_tif
  70
9
  66
1
  0
VERTEX
  8
PNOA-H_AMS_1956-57_33k_ES_PAN_21mic_H50_0448_fot_54A-29185_W_tif
  70
32
  10
173379.762
  20
4546024.724
  30
438.716
  0
VERTEX
  8
PNOA-H_AMS_1956-57_33k_ES_PAN_21mic_H50_0448_fot_54A-29185_W_tif
  70
32
  10
173323.500
  20
4545354.293
  30
439.6
  0
VERTEX
  8
PNOA-H_AMS_1956-57_33k_ES_PAN_21mic_H50_0448_fot_54A-29185_W_tif
  70
32
  10
171706.000
  20
4544744.293
  30
148.76
  0
VERTEX
  8
PNOA-H_AMS_1956-57_33k_ES_PAN_21mic_H50_0448_fot_54A-29185_W_tif
  70
32
  10
170255.500
  20
4545470.793
  30
358.47
  0
VERTEX
  8
PNOA-H_AMS_1956-57_33k_ES_PAN_21mic_H50_0448_fot_54A-29185_W_tif
  70
32
  10
170329.455
  20
4546161.228
  30
346.158
  0
VERTEX
  8
PNOA-H_AMS_1956-57_33k_ES_PAN_21mic_H50_0448_fot_54A-29185_W_tif
  70
32
  10
172318.917
  20
4546071.866
  30
324.059
  0
SEQEND
  8
PNOA-H_AMS_1956-57_33k_ES_PAN_21mic_H50_0448_fot_54A-29185_W_tif
  0
TEXT
  8
PNOA-H_AMS_1956-57_33k_ES_PAN_21mic_H50_0448_fot_54A-29185_W_tif
 62
0
  1
PNOA-H_AMS_1956-57_33k_ES_PAN_21mic_H50_0448_fot_54A-29185_W.tif
 40
42.06973
  10
171817.631
  20
4545452.761
  0
POLYLINE
  8
PNOA-H_AMS_1956-57_33k_ES_PAN_21mic_H50_0449_fot_54A-29184_W_tif
  70
9
  66
1
  0
VERTEX
  8
PNOA-H_AMS_1956-57_33k_ES_PAN_21mic_H50_0449_fot_54A-29184_W_tif
  70
32
  10
175779.625
  20
4544905.733
  30
540.937
  0
VERTEX
  8
PNOA-H_AMS_1956-57_33k_ES_PAN_21mic_H50_0449_fot_54A-29184_W_tif
  70
32
  10
174635.500
  20
4544548.793
  30
511
  0
VERTEX
  8
PNOA-H_AMS_1956-57_33k_ES_PAN_21mic_H50_0449_fot_54A-29184_W_tif
  70
32
  10
173323.500
  20
4545354.793
  30
439.5
  0
VERTEX
  8
PNOA-H_AMS_1956-57_33k_ES_PAN_21mic_H50_0449_fot_54A-29184_W_tif
  70
32
  10
173379.586
  20
4546024.731
  30
438.646
  0
VERTEX
  8
PNOA-H_AMS_1956-57_33k_ES_PAN_21mic_H50_0449_fot_54A-29184_W_tif
  70
32
  10
175824.273
  20
4545916.093
  30
444.712
  0
SEQEND
  8
PNOA-H_AMS_1956-57_33k_ES_PAN_21mic_H50_0449_fot_54A-29184_W_tif
  0
TEXT
  8
PNOA-H_AMS_1956-57_33k_ES_PAN_21mic_H50_0449_fot_54A-29184_W_tif
 62
0
  1
PNOA-H_AMS_1956-57_33k_ES_PAN_21mic_H50_0449_fot_54A-29184_W.tif
 40
42.06973
  10
174573.886
  20
4545286.762
  0
POLYLINE
  8
PNOA-H_AMS_1956-57_33k_ES_PAN_21mic_H50_0474_fot_55A-03757_W_tif
  70
9
  66
1
  0
VERTEX
  8
PNOA-H_AMS_1956-57_33k_ES_PAN_21mic_H50_0474_fot_55A-03757_W_tif
  70
32
  10
172001.500
  20
4541963.793
  30
533.79
  0
VERTEX
  8
PNOA-H_AMS_1956-57_33k_ES_PAN_21mic_H50_0474_fot_55A-03757_W_tif
  70
32
  10
172003.000
  20
4541963.793
  30
533.88
  0
VERTEX
  8
PNOA-H_AMS_1956-57_33k_ES_PAN_21mic_H50_0474_fot_55A-03757_W_tif
  70
32
  10
172006.500
  20
4541960.293
  30
534.4
  0
VERTEX
  8
PNOA-H_AMS_1956-57_33k_ES_PAN_21mic_H50_0474_fot_55A-03757_W_tif
  70
32
  10
172004.500
  20
4541954.793
  30
-16116
  0
VERTEX
  8
PNOA-H_AMS_1956-57_33k_ES_PAN_21mic_H50_0474_fot_55A-03757_W_tif
  70
32
  10
171999.500
  20
4541954.793
  30
-17781.1
  0
VERTEX
  8
PNOA-H_AMS_1956-57_33k_ES_PAN_21mic_H50_0474_fot_55A-03757_W_tif
  70
32
  10
171997.500
  20
4541956.793
  30
-17781.1
  0
VERTEX
  8
PNOA-H_AMS_1956-57_33k_ES_PAN_21mic_H50_0474_fot_55A-03757_W_tif
  70
32
  10
171997.500
  20
4541961.793
  30
-16116.45
  0
VERTEX
  8
PNOA-H_AMS_1956-57_33k_ES_PAN_21mic_H50_0474_fot_55A-03757_W_tif
  70
32
  10
172000.000
  20
4541963.293
  30
533.8
  0
VERTEX
  8
PNOA-H_AMS_1956-57_33k_ES_PAN_21mic_H50_0474_fot_55A-03757_W_tif
  70
32
  10
172001.500
  20
4541963.793
  30
533.79
  0
SEQEND
  8
PNOA-H_AMS_1956-57_33k_ES_PAN_21mic_H50_0474_fot_55A-03757_W_tif
  0
TEXT
  8
PNOA-H_AMS_1956-57_33k_ES_PAN_21mic_H50_0474_fot_55A-03757_W_tif
 62
0
  1
PNOA-H_AMS_1956-57_33k_ES_PAN_21mic_H50_0474_fot_55A-03757_W.tif
 40
42.06973
  10
172001.818
  20
4541959.293
  0
POLYLINE
  8
PNOA-H_AMS_1956-57_33k_ES_PAN_21mic_H50_0474_fot_55A-03757_W_tif
  70
9
  66
1
  0
VERTEX
  8
PNOA-H_AMS_1956-57_33k_ES_PAN_21mic_H50_0474_fot_55A-03757_W_tif
  70
32
  10
171418.500
  20
4544888.293
  30
173.66
  0
VERTEX
  8
PNOA-H_AMS_1956-57_33k_ES_PAN_21mic_H50_0474_fot_55A-03757_W_tif
  70
32
  10
171706.500
  20
4544744.293
  30
148.64
  0
VERTEX
  8
PNOA-H_AMS_1956-57_33k_ES_PAN_21mic_H50_0474_fot_55A-03757_W_tif
  70
32
  10
171674.500
  20
4543989.793
  30
-16179.4
  0
VERTEX
  8
PNOA-H_AMS_1956-57_33k_ES_PAN_21mic_H50_0474_fot_55A-03757_W_tif
  70
32
  10
171164.500
  20
4543989.793
  30
-17808.1
  0
VERTEX
  8
PNOA-H_AMS_1956-57_33k_ES_PAN_21mic_H50_0474_fot_55A-03757_W_tif
  70
32
  10
171160.500
  20
4543994.793
  30
-14482.95
  0
VERTEX
  8
PNOA-H_AMS_1956-57_33k_ES_PAN_21mic_H50_0474_fot_55A-03757_W_tif
  70
32
  10
169999.500
  20
4543994.793
  30
-17776.6
  0
VERTEX
  8
PNOA-H_AMS_1956-57_33k_ES_PAN_21mic_H50_0474_fot_55A-03757_W_tif
  70
32
  10
169997.500
  20
4543996.793
  30
-17776.6
  0
VERTEX
  8
PNOA-H_AMS_1956-57_33k_ES_PAN_21mic_H50_0474_fot_55A-03757_W_tif
  70
32
  10
169997.500
  20
4545384.293
  30
-16168.2
  0
VERTEX
  8
PNOA-H_AMS_1956-57_33k_ES_PAN_21mic_H50_0474_fot_55A-03757_W_tif
  70
32
  10
170233.000
  20
4545463.793
  30
365.92
  0
VERTEX
  8
PNOA-H_AMS_1956-57_33k_ES_PAN_21mic_H50_0474_fot_55A-03757_W_tif
  70
32
  10
170256.500
  20
4545470.793
  30
358.21
  0
VERTEX
  8
PNOA-H_AMS_1956-57_33k_ES_PAN_21mic_H50_0474_fot_55A-03757_W_tif
  70
32
  10
171417.500
  20
4544888.793
  30
173.55
  0
VERTEX
  8
PNOA-H_AMS_1956-57_33k_ES_PAN_21mic_H50_0474_fot_55A-03757_W_tif
  70
32
  10
171418.500
  20
4544888.293
  30
173.66
  0
SEQEND
  8
PNOA-H_AMS_1956-57_33k_ES_PAN_21mic_H50_0474_fot_55A-03757_W_tif
  0
TEXT
  8
PNOA-H_AMS_1956-57_33k_ES_PAN_21mic_H50_0474_fot_55A-03757_W_tif
 62
0
  1
PNOA-H_AMS_1956-57_33k_ES_PAN_21mic_H50_0474_fot_55A-03757_W.tif
 40
42.06973
  10
170851.703
  20
4544730.293
  0
POLYLINE
  8
PNOA-H_AMS_1956-57_33k_ES_PAN_21mic_H50_0474_fot_55A-03756_W_tif
  70
9
  66
1
  0
VERTEX
  8
PNOA-H_AMS_1956-57_33k_ES_PAN_21mic_H50_0474_fot_55A-03756_W_tif
  70
32
  10
173323.500
  20
4545354.793
  30
439.5
  0
VERTEX
  8
PNOA-H_AMS_1956-57_33k_ES_PAN_21mic_H50_0474_fot_55A-03756_W_tif
  70
32
  10
174631.000
  20
4544552.293
  30
510.2
  0
VERTEX
  8
PNOA-H_AMS_1956-57_33k_ES_PAN_21mic_H50_0474_fot_55A-03756_W_tif
  70
32
  10
174636.000
  20
4544548.793
  30
511
  0
VERTEX
  8
PNOA-H_AMS_1956-57_33k_ES_PAN_21mic_H50_0474_fot_55A-03756_W_tif
  70
32
  10
174636.000
  20
4544539.293
  30
511
  0
VERTEX
  8
PNOA-H_AMS_1956-57_33k_ES_PAN_21mic_H50_0474_fot_55A-03756_W_tif
  70
32
  10
174447.000
  20
4540484.793
  30
409.4
  0
VERTEX
  8
PNOA-H_AMS_1956-57_33k_ES_PAN_21mic_H50_0474_fot_55A-03756_W_tif
  70
32
  10
173260.500
  20
4539995.293
  30
-12780.4
  0
VERTEX
  8
PNOA-H_AMS_1956-57_33k_ES_PAN_21mic_H50_0474_fot_55A-03756_W_tif
  70
32
  10
172514.500
  20
4539994.793
  30
-16096.5
  0
VERTEX
  8
PNOA-H_AMS_1956-57_33k_ES_PAN_21mic_H50_0474_fot_55A-03756_W_tif
  70
32
  10
172516.500
  20
4539999.293
  30
574
  0
VERTEX
  8
PNOA-H_AMS_1956-57_33k_ES_PAN_21mic_H50_0474_fot_55A-03756_W_tif
  70
32
  10
172516.000
  20
4540000.793
  30
574
  0
VERTEX
  8
PNOA-H_AMS_1956-57_33k_ES_PAN_21mic_H50_0474_fot_55A-03756_W_tif
  70
32
  10
172512.500
  20
4540003.793
  30
574
  0
VERTEX
  8
PNOA-H_AMS_1956-57_33k_ES_PAN_21mic_H50_0474_fot_55A-03756_W_tif
  70
32
  10
172507.500
  20
4540001.793
  30
-16096.5
  0
VERTEX
  8
PNOA-H_AMS_1956-57_33k_ES_PAN_21mic_H50_0474_fot_55A-03756_W_tif
  70
32
  10
172502.500
  20
4540006.793
  30
-17764
  0
VERTEX
  8
PNOA-H_AMS_1956-57_33k_ES_PAN_21mic_H50_0474_fot_55A-03756_W_tif
  70
32
  10
172502.500
  20
4540012.793
  30
-14430.1
  0
VERTEX
  8
PNOA-H_AMS_1956-57_33k_ES_PAN_21mic_H50_0474_fot_55A-03756_W_tif
  70
32
  10
172497.500
  20
4540016.793
  30
-17764.449
  0
VERTEX
  8
PNOA-H_AMS_1956-57_33k_ES_PAN_21mic_H50_0474_fot_55A-03756_W_tif
  70
32
  10
172497.500
  20
4540022.793
  30
-14430.6
  0
VERTEX
  8
PNOA-H_AMS_1956-57_33k_ES_PAN_21mic_H50_0474_fot_55A-03756_W_tif
  70
32
  10
172492.500
  20
4540026.793
  30
-17764.9
  0
VERTEX
  8
PNOA-H_AMS_1956-57_33k_ES_PAN_21mic_H50_0474_fot_55A-03756_W_tif
  70
32
  10
172492.500
  20
4540037.793
  30
-14432.2
  0
VERTEX
  8
PNOA-H_AMS_1956-57_33k_ES_PAN_21mic_H50_0474_fot_55A-03756_W_tif
  70
32
  10
172482.500
  20
4540046.793
  30
-17765.801
  0
VERTEX
  8
PNOA-H_AMS_1956-57_33k_ES_PAN_21mic_H50_0474_fot_55A-03756_W_tif
  70
32
  10
172482.500
  20
4540052.793
  30
-14432.2
  0
VERTEX
  8
PNOA-H_AMS_1956-57_33k_ES_PAN_21mic_H50_0474_fot_55A-03756_W_tif
  70
32
  10
172477.500
  20
4540056.793
  30
-17765.801
  0
VERTEX
  8
PNOA-H_AMS_1956-57_33k_ES_PAN_21mic_H50_0474_fot_55A-03756_W_tif
  70
32
  10
172477.500
  20
4540067.793
  30
-14432.2
  0
VERTEX
  8
PNOA-H_AMS_1956-57_33k_ES_PAN_21mic_H50_0474_fot_55A-03756_W_tif
  70
32
  10
172472.500
  20
4540071.793
  30
-17765.801
  0
VERTEX
  8
PNOA-H_AMS_1956-57_33k_ES_PAN_21mic_H50_0474_fot_55A-03756_W_tif
  70
32
  10
172472.500
  20
4540077.793
  30
-14432.3
  0
VERTEX
  8
PNOA-H_AMS_1956-57_33k_ES_PAN_21mic_H50_0474_fot_55A-03756_W_tif
  70
32
  10
172467.500
  20
4540081.793
  30
-17766.25
  0
VERTEX
  8
PNOA-H_AMS_1956-57_33k_ES_PAN_21mic_H50_0474_fot_55A-03756_W_tif
  70
32
  10
172467.500
  20
4540087.793
  30
-14432.65
  0
VERTEX
  8
PNOA-H_AMS_1956-57_33k_ES_PAN_21mic_H50_0474_fot_55A-03756_W_tif
  70
32
  10
172462.500
  20
4540091.793
  30
-17765.801
  0
VERTEX
  8
PNOA-H_AMS_1956-57_33k_ES_PAN_21mic_H50_0474_fot_55A-03756_W_tif
  70
32
  10
172462.500
  20
4540097.793
  30
-14432.2
  0
VERTEX
  8
PNOA-H_AMS_1956-57_33k_ES_PAN_21mic_H50_0474_fot_55A-03756_W_tif
  70
32
  10
172457.500
  20
4540101.793
  30
-17765.801
  0
VERTEX
  8
PNOA-H_AMS_1956-57_33k_ES_PAN_21mic_H50_0474_fot_55A-03756_W_tif
  70
32
  10
172457.500
  20
4540107.793
  30
-14432.2
  0
VERTEX
  8
PNOA-H_AMS_1956-57_33k_ES_PAN_21mic_H50_0474_fot_55A-03756_W_tif
  70
32
  10
172452.500
  20
4540111.793
  30
-17765.801
  0
VERTEX
  8
PNOA-H_AMS_1956-57_33k_ES_PAN_21mic_H50_0474_fot_55A-03756_W_tif
  70
32
  10
172452.500
  20
4540122.793
  30
-14432.85
  0
VERTEX
  8
PNOA-H_AMS_1956-57_33k_ES_PAN_21mic_H50_0474_fot_55A-03756_W_tif
  70
32
  10
172447.500
  20
4540126.793
  30
-17766.699
  0
VERTEX
  8
PNOA-H_AMS_1956-57_33k_ES_PAN_21mic_H50_0474_fot_55A-03756_W_tif
  70
32
  10
172447.500
  20
4540132.793
  30
-14433.4
  0
VERTEX
  8
PNOA-H_AMS_1956-57_33k_ES_PAN_21mic_H50_0474_fot_55A-03756_W_tif
  70
32
  10
172442.500
  20
4540136.793
  30
-17767.15
  0
VERTEX
  8
PNOA-H_AMS_1956-57_33k_ES_PAN_21mic_H50_0474_fot_55A-03756_W_tif
  70
32
  10
172442.500
  20
4540142.793
  30
-14433.95
  0
VERTEX
  8
PNOA-H_AMS_1956-57_33k_ES_PAN_21mic_H50_0474_fot_55A-03756_W_tif
  70
32
  10
172437.500
  20
4540146.793
  30
-17767.6
  0
VERTEX
  8
PNOA-H_AMS_1956-57_33k_ES_PAN_21mic_H50_0474_fot_55A-03756_W_tif
  70
32
  10
172437.500
  20
4540152.793
  30
-14434.95
  0
VERTEX
  8
PNOA-H_AMS_1956-57_33k_ES_PAN_21mic_H50_0474_fot_55A-03756_W_tif
  70
32
  10
172432.500
  20
4540156.793
  30
-17768.051
  0
VERTEX
  8
PNOA-H_AMS_1956-57_33k_ES_PAN_21mic_H50_0474_fot_55A-03756_W_tif
  70
32
  10
172432.500
  20
4540162.793
  30
-14435.05
  0
VERTEX
  8
PNOA-H_AMS_1956-57_33k_ES_PAN_21mic_H50_0474_fot_55A-03756_W_tif
  70
32
  10
172427.500
  20
4540166.793
  30
-17768.5
  0
VERTEX
  8
PNOA-H_AMS_1956-57_33k_ES_PAN_21mic_H50_0474_fot_55A-03756_W_tif
  70
32
  10
172427.500
  20
4540177.793
  30
-14435.5
  0
VERTEX
  8
PNOA-H_AMS_1956-57_33k_ES_PAN_21mic_H50_0474_fot_55A-03756_W_tif
  70
32
  10
172422.500
  20
4540181.793
  30
-17768.5
  0
VERTEX
  8
PNOA-H_AMS_1956-57_33k_ES_PAN_21mic_H50_0474_fot_55A-03756_W_tif
  70
32
  10
172422.500
  20
4540187.793
  30
-14435.5
  0
VERTEX
  8
PNOA-H_AMS_1956-57_33k_ES_PAN_21mic_H50_0474_fot_55A-03756_W_tif
  70
32
  10
172417.500
  20
4540191.793
  30
-17768.5
  0
VERTEX
  8
PNOA-H_AMS_1956-57_33k_ES_PAN_21mic_H50_0474_fot_55A-03756_W_tif
  70
32
  10
172417.500
  20
4540197.793
  30
-14435.4
  0
VERTEX
  8
PNOA-H_AMS_1956-57_33k_ES_PAN_21mic_H50_0474_fot_55A-03756_W_tif
  70
32
  10
172412.500
  20
4540201.793
  30
-17768.051
  0
VERTEX
  8
PNOA-H_AMS_1956-57_33k_ES_PAN_21mic_H50_0474_fot_55A-03756_W_tif
  70
32
  10
172412.500
  20
4540207.793
  30
-14434.95
  0
VERTEX
  8
PNOA-H_AMS_1956-57_33k_ES_PAN_21mic_H50_0474_fot_55A-03756_W_tif
  70
32
  10
172407.500
  20
4540211.793
  30
-17768.051
  0
VERTEX
  8
PNOA-H_AMS_1956-57_33k_ES_PAN_21mic_H50_0474_fot_55A-03756_W_tif
  70
32
  10
172407.500
  20
4540222.793
  30
-14434.4
  0
VERTEX
  8
PNOA-H_AMS_1956-57_33k_ES_PAN_21mic_H50_0474_fot_55A-03756_W_tif
  70
32
  10
172402.500
  20
4540226.793
  30
-17767.6
  0
VERTEX
  8
PNOA-H_AMS_1956-57_33k_ES_PAN_21mic_H50_0474_fot_55A-03756_W_tif
  70
32
  10
172402.500
  20
4540232.793
  30
-14434.95
  0
VERTEX
  8
PNOA-H_AMS_1956-57_33k_ES_PAN_21mic_H50_0474_fot_55A-03756_W_tif
  70
32
  10
172397.500
  20
4540236.793
  30
-17768.051
  0
VERTEX
  8
PNOA-H_AMS_1956-57_33k_ES_PAN_21mic_H50_0474_fot_55A-03756_W_tif
  70
32
  10
172397.500
  20
4540242.793
  30
-14435.5
  0
VERTEX
  8
PNOA-H_AMS_1956-57_33k_ES_PAN_21mic_H50_0474_fot_55A-03756_W_tif
  70
32
  10
172392.500
  20
4540246.793
  30
-17768.5
  0
VERTEX
  8
PNOA-H_AMS_1956-57_33k_ES_PAN_21mic_H50_0474_fot_55A-03756_W_tif
  70
32
  10
172392.500
  20
4540252.793
  30
-14436.1
  0
VERTEX
  8
PNOA-H_AMS_1956-57_33k_ES_PAN_21mic_H50_0474_fot_55A-03756_W_tif
  70
32
  10
172387.500
  20
4540256.793
  30
-17769.4
  0
VERTEX
  8
PNOA-H_AMS_1956-57_33k_ES_PAN_21mic_H50_0474_fot_55A-03756_W_tif
  70
32
  10
172387.500
  20
4540262.793
  30
-14437.2
  0
VERTEX
  8
PNOA-H_AMS_1956-57_33k_ES_PAN_21mic_H50_0474_fot_55A-03756_W_tif
  70
32
  10
172382.500
  20
4540266.793
  30
-17770.301
  0
VERTEX
  8
PNOA-H_AMS_1956-57_33k_ES_PAN_21mic_H50_0474_fot_55A-03756_W_tif
  70
32
  10
172382.500
  20
4540272.793
  30
-14438.35
  0
VERTEX
  8
PNOA-H_AMS_1956-57_33k_ES_PAN_21mic_H50_0474_fot_55A-03756_W_tif
  70
32
  10
172377.500
  20
4540276.793
  30
-17771.199
  0
VERTEX
  8
PNOA-H_AMS_1956-57_33k_ES_PAN_21mic_H50_0474_fot_55A-03756_W_tif
  70
32
  10
172377.500
  20
4540282.793
  30
-17771.199
  0
VERTEX
  8
PNOA-H_AMS_1956-57_33k_ES_PAN_21mic_H50_0474_fot_55A-03756_W_tif
  70
32
  10
172389.500
  20
4540294.793
  30
-17770.75
  0
VERTEX
  8
PNOA-H_AMS_1956-57_33k_ES_PAN_21mic_H50_0474_fot_55A-03756_W_tif
  70
32
  10
172395.500
  20
4540294.793
  30
-14438.25
  0
VERTEX
  8
PNOA-H_AMS_1956-57_33k_ES_PAN_21mic_H50_0474_fot_55A-03756_W_tif
  70
32
  10
172409.500
  20
4540309.793
  30
-17770.75
  0
VERTEX
  8
PNOA-H_AMS_1956-57_33k_ES_PAN_21mic_H50_0474_fot_55A-03756_W_tif
  70
32
  10
172415.500
  20
4540309.793
  30
-14438.2
  0
VERTEX
  8
PNOA-H_AMS_1956-57_33k_ES_PAN_21mic_H50_0474_fot_55A-03756_W_tif
  70
32
  10
172429.500
  20
4540324.793
  30
-17770.301
  0
VERTEX
  8
PNOA-H_AMS_1956-57_33k_ES_PAN_21mic_H50_0474_fot_55A-03756_W_tif
  70
32
  10
172435.500
  20
4540324.793
  30
-14438.3
  0
VERTEX
  8
PNOA-H_AMS_1956-57_33k_ES_PAN_21mic_H50_0474_fot_55A-03756_W_tif
  70
32
  10
172449.500
  20
4540339.793
  30
-17771.65
  0
VERTEX
  8
PNOA-H_AMS_1956-57_33k_ES_PAN_21mic_H50_0474_fot_55A-03756_W_tif
  70
32
  10
172455.500
  20
4540339.793
  30
-14439.55
  0
VERTEX
  8
PNOA-H_AMS_1956-57_33k_ES_PAN_21mic_H50_0474_fot_55A-03756_W_tif
  70
32
  10
172484.500
  20
4540369.793
  30
-17777.5
  0
VERTEX
  8
PNOA-H_AMS_1956-57_33k_ES_PAN_21mic_H50_0474_fot_55A-03756_W_tif
  70
32
  10
172490.500
  20
4540369.793
  30
-14446.6
  0
VERTEX
  8
PNOA-H_AMS_1956-57_33k_ES_PAN_21mic_H50_0474_fot_55A-03756_W_tif
  70
32
  10
172499.500
  20
4540379.793
  30
-17778.85
  0
VERTEX
  8
PNOA-H_AMS_1956-57_33k_ES_PAN_21mic_H50_0474_fot_55A-03756_W_tif
  70
32
  10
172505.500
  20
4540379.793
  30
-14448.35
  0
VERTEX
  8
PNOA-H_AMS_1956-57_33k_ES_PAN_21mic_H50_0474_fot_55A-03756_W_tif
  70
32
  10
172529.500
  20
4540404.793
  30
-17781.551
  0
VERTEX
  8
PNOA-H_AMS_1956-57_33k_ES_PAN_21mic_H50_0474_fot_55A-03756_W_tif
  70
32
  10
172535.500
  20
4540404.793
  30
-14451.5
  0
VERTEX
  8
PNOA-H_AMS_1956-57_33k_ES_PAN_21mic_H50_0474_fot_55A-03756_W_tif
  70
32
  10
172544.500
  20
4540414.793
  30
-17782
  0
VERTEX
  8
PNOA-H_AMS_1956-57_33k_ES_PAN_21mic_H50_0474_fot_55A-03756_W_tif
  70
32
  10
172550.500
  20
4540414.793
  30
-14452.05
  0
VERTEX
  8
PNOA-H_AMS_1956-57_33k_ES_PAN_21mic_H50_0474_fot_55A-03756_W_tif
  70
32
  10
172584.500
  20
4540449.793
  30
-17788.75
  0
VERTEX
  8
PNOA-H_AMS_1956-57_33k_ES_PAN_21mic_H50_0474_fot_55A-03756_W_tif
  70
32
  10
172590.500
  20
4540449.793
  30
-14459.65
  0
VERTEX
  8
PNOA-H_AMS_1956-57_33k_ES_PAN_21mic_H50_0474_fot_55A-03756_W_tif
  70
32
  10
172594.500
  20
4540454.793
  30
-17787.85
  0
VERTEX
  8
PNOA-H_AMS_1956-57_33k_ES_PAN_21mic_H50_0474_fot_55A-03756_W_tif
  70
32
  10
172600.500
  20
4540454.793
  30
-14459.15
  0
VERTEX
  8
PNOA-H_AMS_1956-57_33k_ES_PAN_21mic_H50_0474_fot_55A-03756_W_tif
  70
32
  10
172614.500
  20
4540469.793
  30
-17789.199
  0
VERTEX
  8
PNOA-H_AMS_1956-57_33k_ES_PAN_21mic_H50_0474_fot_55A-03756_W_tif
  70
32
  10
172620.500
  20
4540469.793
  30
-14460.8
  0
VERTEX
  8
PNOA-H_AMS_1956-57_33k_ES_PAN_21mic_H50_0474_fot_55A-03756_W_tif
  70
32
  10
172624.500
  20
4540474.793
  30
-17789.199
  0
VERTEX
  8
PNOA-H_AMS_1956-57_33k_ES_PAN_21mic_H50_0474_fot_55A-03756_W_tif
  70
32
  10
172630.500
  20
4540474.793
  30
-14461
  0
VERTEX
  8
PNOA-H_AMS_1956-57_33k_ES_PAN_21mic_H50_0474_fot_55A-03756_W_tif
  70
32
  10
172654.500
  20
4540499.793
  30
-17792.35
  0
VERTEX
  8
PNOA-H_AMS_1956-57_33k_ES_PAN_21mic_H50_0474_fot_55A-03756_W_tif
  70
32
  10
172660.500
  20
4540499.793
  30
-14465.2
  0
VERTEX
  8
PNOA-H_AMS_1956-57_33k_ES_PAN_21mic_H50_0474_fot_55A-03756_W_tif
  70
32
  10
172664.500
  20
4540504.793
  30
-17792.801
  0
VERTEX
  8
PNOA-H_AMS_1956-57_33k_ES_PAN_21mic_H50_0474_fot_55A-03756_W_tif
  70
32
  10
172670.500
  20
4540504.793
  30
-14465.05
  0
VERTEX
  8
PNOA-H_AMS_1956-57_33k_ES_PAN_21mic_H50_0474_fot_55A-03756_W_tif
  70
32
  10
172679.500
  20
4540514.793
  30
-17791.449
  0
VERTEX
  8
PNOA-H_AMS_1956-57_33k_ES_PAN_21mic_H50_0474_fot_55A-03756_W_tif
  70
32
  10
172685.500
  20
4540514.793
  30
-14463.35
  0
VERTEX
  8
PNOA-H_AMS_1956-57_33k_ES_PAN_21mic_H50_0474_fot_55A-03756_W_tif
  70
32
  10
172694.500
  20
4540524.793
  30
-17791.449
  0
VERTEX
  8
PNOA-H_AMS_1956-57_33k_ES_PAN_21mic_H50_0474_fot_55A-03756_W_tif
  70
32
  10
172700.500
  20
4540524.793
  30
-14463.55
  0
VERTEX
  8
PNOA-H_AMS_1956-57_33k_ES_PAN_21mic_H50_0474_fot_55A-03756_W_tif
  70
32
  10
172709.500
  20
4540534.793
  30
-17791.449
  0
VERTEX
  8
PNOA-H_AMS_1956-57_33k_ES_PAN_21mic_H50_0474_fot_55A-03756_W_tif
  70
32
  10
172715.500
  20
4540534.793
  30
-14463.55
  0
VERTEX
  8
PNOA-H_AMS_1956-57_33k_ES_PAN_21mic_H50_0474_fot_55A-03756_W_tif
  70
32
  10
172724.500
  20
4540544.793
  30
-17791.9
  0
VERTEX
  8
PNOA-H_AMS_1956-57_33k_ES_PAN_21mic_H50_0474_fot_55A-03756_W_tif
  70
32
  10
172730.500
  20
4540544.793
  30
-14464.25
  0
VERTEX
  8
PNOA-H_AMS_1956-57_33k_ES_PAN_21mic_H50_0474_fot_55A-03756_W_tif
  70
32
  10
172759.500
  20
4540574.793
  30
-17795.5
  0
VERTEX
  8
PNOA-H_AMS_1956-57_33k_ES_PAN_21mic_H50_0474_fot_55A-03756_W_tif
  70
32
  10
172765.500
  20
4540574.793
  30
-14468.65
  0
VERTEX
  8
PNOA-H_AMS_1956-57_33k_ES_PAN_21mic_H50_0474_fot_55A-03756_W_tif
  70
32
  10
172767.500
  20
4540577.793
  30
-16133
  0
VERTEX
  8
PNOA-H_AMS_1956-57_33k_ES_PAN_21mic_H50_0474_fot_55A-03756_W_tif
  70
32
  10
172772.500
  20
4540575.793
  30
501.3
  0
VERTEX
  8
PNOA-H_AMS_1956-57_33k_ES_PAN_21mic_H50_0474_fot_55A-03756_W_tif
  70
32
  10
172776.500
  20
4540579.793
  30
501
  0
VERTEX
  8
PNOA-H_AMS_1956-57_33k_ES_PAN_21mic_H50_0474_fot_55A-03756_W_tif
  70
32
  10
172774.500
  20
4540584.793
  30
-16133
  0
VERTEX
  8
PNOA-H_AMS_1956-57_33k_ES_PAN_21mic_H50_0474_fot_55A-03756_W_tif
  70
32
  10
172784.500
  20
4540594.793
  30
-17796.4
  0
VERTEX
  8
PNOA-H_AMS_1956-57_33k_ES_PAN_21mic_H50_0474_fot_55A-03756_W_tif
  70
32
  10
172790.500
  20
4540594.793
  30
-14469.6
  0
VERTEX
  8
PNOA-H_AMS_1956-57_33k_ES_PAN_21mic_H50_0474_fot_55A-03756_W_tif
  70
32
  10
172802.500
  20
4540606.793
  30
-14470.05
  0
VERTEX
  8
PNOA-H_AMS_1956-57_33k_ES_PAN_21mic_H50_0474_fot_55A-03756_W_tif
  70
32
  10
172802.500
  20
4540612.793
  30
-14471.55
  0
VERTEX
  8
PNOA-H_AMS_1956-57_33k_ES_PAN_21mic_H50_0474_fot_55A-03756_W_tif
  70
32
  10
172777.500
  20
4540636.793
  30
-17800.9
  0
VERTEX
  8
PNOA-H_AMS_1956-57_33k_ES_PAN_21mic_H50_0474_fot_55A-03756_W_tif
  70
32
  10
172777.500
  20
4540642.793
  30
-14476.35
  0
VERTEX
  8
PNOA-H_AMS_1956-57_33k_ES_PAN_21mic_H50_0474_fot_55A-03756_W_tif
  70
32
  10
172722.500
  20
4540696.793
  30
-17800.449
  0
VERTEX
  8
PNOA-H_AMS_1956-57_33k_ES_PAN_21mic_H50_0474_fot_55A-03756_W_tif
  70
32
  10
172722.500
  20
4540702.793
  30
-14473.85
  0
VERTEX
  8
PNOA-H_AMS_1956-57_33k_ES_PAN_21mic_H50_0474_fot_55A-03756_W_tif
  70
32
  10
172642.500
  20
4540781.793
  30
-17789.199
  0
VERTEX
  8
PNOA-H_AMS_1956-57_33k_ES_PAN_21mic_H50_0474_fot_55A-03756_W_tif
  70
32
  10
172642.500
  20
4540787.793
  30
-14460
  0
VERTEX
  8
PNOA-H_AMS_1956-57_33k_ES_PAN_21mic_H50_0474_fot_55A-03756_W_tif
  70
32
  10
172572.500
  20
4540856.793
  30
-17783.35
  0
VERTEX
  8
PNOA-H_AMS_1956-57_33k_ES_PAN_21mic_H50_0474_fot_55A-03756_W_tif
  70
32
  10
172572.500
  20
4540862.793
  30
-14453
  0
VERTEX
  8
PNOA-H_AMS_1956-57_33k_ES_PAN_21mic_H50_0474_fot_55A-03756_W_tif
  70
32
  10
172569.500
  20
4540864.793
  30
-16117.45
  0
VERTEX
  8
PNOA-H_AMS_1956-57_33k_ES_PAN_21mic_H50_0474_fot_55A-03756_W_tif
  70
32
  10
172571.500
  20
4540869.793
  30
532.35
  0
VERTEX
  8
PNOA-H_AMS_1956-57_33k_ES_PAN_21mic_H50_0474_fot_55A-03756_W_tif
  70
32
  10
172567.500
  20
4540873.793
  30
533.5
  0
VERTEX
  8
PNOA-H_AMS_1956-57_33k_ES_PAN_21mic_H50_0474_fot_55A-03756_W_tif
  70
32
  10
172562.500
  20
4540871.793
  30
-16116.55
  0
VERTEX
  8
PNOA-H_AMS_1956-57_33k_ES_PAN_21mic_H50_0474_fot_55A-03756_W_tif
  70
32
  10
172497.500
  20
4540936.793
  30
-17775.699
  0
VERTEX
  8
PNOA-H_AMS_1956-57_33k_ES_PAN_21mic_H50_0474_fot_55A-03756_W_tif
  70
32
  10
172497.500
  20
4540942.793
  30
-14444.25
  0
VERTEX
  8
PNOA-H_AMS_1956-57_33k_ES_PAN_21mic_H50_0474_fot_55A-03756_W_tif
  70
32
  10
172387.500
  20
4541051.793
  30
-17775.25
  0
VERTEX
  8
PNOA-H_AMS_1956-57_33k_ES_PAN_21mic_H50_0474_fot_55A-03756_W_tif
  70
32
  10
172387.500
  20
4541057.793
  30
-14443.65
  0
VERTEX
  8
PNOA-H_AMS_1956-57_33k_ES_PAN_21mic_H50_0474_fot_55A-03756_W_tif
  70
32
  10
172332.500
  20
4541111.793
  30
-17774.35
  0
VERTEX
  8
PNOA-H_AMS_1956-57_33k_ES_PAN_21mic_H50_0474_fot_55A-03756_W_tif
  70
32
  10
172332.500
  20
4541117.793
  30
-14442.7
  0
VERTEX
  8
PNOA-H_AMS_1956-57_33k_ES_PAN_21mic_H50_0474_fot_55A-03756_W_tif
  70
32
  10
172282.500
  20
4541166.793
  30
-17777.051
  0
VERTEX
  8
PNOA-H_AMS_1956-57_33k_ES_PAN_21mic_H50_0474_fot_55A-03756_W_tif
  70
32
  10
172282.500
  20
4541172.793
  30
-14446
  0
VERTEX
  8
PNOA-H_AMS_1956-57_33k_ES_PAN_21mic_H50_0474_fot_55A-03756_W_tif
  70
32
  10
172242.500
  20
4541211.793
  30
-17780.199
  0
VERTEX
  8
PNOA-H_AMS_1956-57_33k_ES_PAN_21mic_H50_0474_fot_55A-03756_W_tif
  70
32
  10
172242.500
  20
4541217.793
  30
-14450.45
  0
VERTEX
  8
PNOA-H_AMS_1956-57_33k_ES_PAN_21mic_H50_0474_fot_55A-03756_W_tif
  70
32
  10
172197.500
  20
4541261.793
  30
-17782.9
  0
VERTEX
  8
PNOA-H_AMS_1956-57_33k_ES_PAN_21mic_H50_0474_fot_55A-03756_W_tif
  70
32
  10
172197.500
  20
4541267.793
  30
-14453
  0
VERTEX
  8
PNOA-H_AMS_1956-57_33k_ES_PAN_21mic_H50_0474_fot_55A-03756_W_tif
  70
32
  10
172132.500
  20
4541331.793
  30
-17780.199
  0
VERTEX
  8
PNOA-H_AMS_1956-57_33k_ES_PAN_21mic_H50_0474_fot_55A-03756_W_tif
  70
32
  10
172132.500
  20
4541337.793
  30
-14449.9
  0
VERTEX
  8
PNOA-H_AMS_1956-57_33k_ES_PAN_21mic_H50_0474_fot_55A-03756_W_tif
  70
32
  10
172072.500
  20
4541396.793
  30
-17778.85
  0
VERTEX
  8
PNOA-H_AMS_1956-57_33k_ES_PAN_21mic_H50_0474_fot_55A-03756_W_tif
  70
32
  10
172072.500
  20
4541402.793
  30
-14448.15
  0
VERTEX
  8
PNOA-H_AMS_1956-57_33k_ES_PAN_21mic_H50_0474_fot_55A-03756_W_tif
  70
32
  10
172047.500
  20
4541426.793
  30
-17777.051
  0
VERTEX
  8
PNOA-H_AMS_1956-57_33k_ES_PAN_21mic_H50_0474_fot_55A-03756_W_tif
  70
32
  10
172047.500
  20
4541432.793
  30
-14445.9
  0
VERTEX
  8
PNOA-H_AMS_1956-57_33k_ES_PAN_21mic_H50_0474_fot_55A-03756_W_tif
  70
32
  10
172012.500
  20
4541466.793
  30
-17774.801
  0
VERTEX
  8
PNOA-H_AMS_1956-57_33k_ES_PAN_21mic_H50_0474_fot_55A-03756_W_tif
  70
32
  10
172012.500
  20
4541472.793
  30
-14443.3
  0
VERTEX
  8
PNOA-H_AMS_1956-57_33k_ES_PAN_21mic_H50_0474_fot_55A-03756_W_tif
  70
32
  10
172007.500
  20
4541476.793
  30
-17775.25
  0
VERTEX
  8
PNOA-H_AMS_1956-57_33k_ES_PAN_21mic_H50_0474_fot_55A-03756_W_tif
  70
32
  10
172007.500
  20
4541952.793
  30
-14450.9
  0
VERTEX
  8
PNOA-H_AMS_1956-57_33k_ES_PAN_21mic_H50_0474_fot_55A-03756_W_tif
  70
32
  10
172004.500
  20
4541954.793
  30
-16116
  0
VERTEX
  8
PNOA-H_AMS_1956-57_33k_ES_PAN_21mic_H50_0474_fot_55A-03756_W_tif
  70
32
  10
172006.500
  20
4541960.293
  30
534.4
  0
VERTEX
  8
PNOA-H_AMS_1956-57_33k_ES_PAN_21mic_H50_0474_fot_55A-03756_W_tif
  70
32
  10
172003.000
  20
4541963.793
  30
533.88
  0
VERTEX
  8
PNOA-H_AMS_1956-57_33k_ES_PAN_21mic_H50_0474_fot_55A-03756_W_tif
  70
32
  10
171998.500
  20
4541962.793
  30
-9456.37
  0
VERTEX
  8
PNOA-H_AMS_1956-57_33k_ES_PAN_21mic_H50_0474_fot_55A-03756_W_tif
  70
32
  10
172000.500
  20
4541965.293
  30
533.46
  0
VERTEX
  8
PNOA-H_AMS_1956-57_33k_ES_PAN_21mic_H50_0474_fot_55A-03756_W_tif
  70
32
  10
172000.500
  20
4542057.293
  30
523
  0
VERTEX
  8
PNOA-H_AMS_1956-57_33k_ES_PAN_21mic_H50_0474_fot_55A-03756_W_tif
  70
32
  10
171998.500
  20
4542059.793
  30
-9464.35
  0
VERTEX
  8
PNOA-H_AMS_1956-57_33k_ES_PAN_21mic_H50_0474_fot_55A-03756_W_tif
  70
32
  10
171998.500
  20
4543111.293
  30
-9553.46
  0
VERTEX
  8
PNOA-H_AMS_1956-57_33k_ES_PAN_21mic_H50_0474_fot_55A-03756_W_tif
  70
32
  10
171997.500
  20
4543112.793
  30
-17844.1
  0
VERTEX
  8
PNOA-H_AMS_1956-57_33k_ES_PAN_21mic_H50_0474_fot_55A-03756_W_tif
  70
32
  10
172002.500
  20
4543116.793
  30
-14528.8
  0
VERTEX
  8
PNOA-H_AMS_1956-57_33k_ES_PAN_21mic_H50_0474_fot_55A-03756_W_tif
  70
32
  10
172002.500
  20
4543122.793
  30
-14527.8
  0
VERTEX
  8
PNOA-H_AMS_1956-57_33k_ES_PAN_21mic_H50_0474_fot_55A-03756_W_tif
  70
32
  10
171997.500
  20
4543126.793
  30
-17843.65
  0
VERTEX
  8
PNOA-H_AMS_1956-57_33k_ES_PAN_21mic_H50_0474_fot_55A-03756_W_tif
  70
32
  10
171998.500
  20
4543128.293
  30
-9553.04
  0
VERTEX
  8
PNOA-H_AMS_1956-57_33k_ES_PAN_21mic_H50_0474_fot_55A-03756_W_tif
  70
32
  10
171998.500
  20
4543171.293
  30
-9559.48
  0
VERTEX
  8
PNOA-H_AMS_1956-57_33k_ES_PAN_21mic_H50_0474_fot_55A-03756_W_tif
  70
32
  10
171997.500
  20
4543172.293
  30
-16190.5
  0
VERTEX
  8
PNOA-H_AMS_1956-57_33k_ES_PAN_21mic_H50_0474_fot_55A-03756_W_tif
  70
32
  10
171997.500
  20
4543192.293
  30
-16196
  0
VERTEX
  8
PNOA-H_AMS_1956-57_33k_ES_PAN_21mic_H50_0474_fot_55A-03756_W_tif
  70
32
  10
171998.500
  20
4543193.293
  30
-9567.74
  0
VERTEX
  8
PNOA-H_AMS_1956-57_33k_ES_PAN_21mic_H50_0474_fot_55A-03756_W_tif
  70
32
  10
171997.500
  20
4543992.793
  30
-14569.8
  0
VERTEX
  8
PNOA-H_AMS_1956-57_33k_ES_PAN_21mic_H50_0474_fot_55A-03756_W_tif
  70
32
  10
171995.500
  20
4543994.793
  30
-14567.4
  0
VERTEX
  8
PNOA-H_AMS_1956-57_33k_ES_PAN_21mic_H50_0474_fot_55A-03756_W_tif
  70
32
  10
171804.500
  20
4543994.793
  30
-14535.55
  0
VERTEX
  8
PNOA-H_AMS_1956-57_33k_ES_PAN_21mic_H50_0474_fot_55A-03756_W_tif
  70
32
  10
171800.500
  20
4543989.793
  30
-17850.4
  0
VERTEX
  8
PNOA-H_AMS_1956-57_33k_ES_PAN_21mic_H50_0474_fot_55A-03756_W_tif
  70
32
  10
171674.500
  20
4543989.793
  30
-16179.4
  0
VERTEX
  8
PNOA-H_AMS_1956-57_33k_ES_PAN_21mic_H50_0474_fot_55A-03756_W_tif
  70
32
  10
171674.500
  20
4543998.293
  30
409.22
  0
VERTEX
  8
PNOA-H_AMS_1956-57_33k_ES_PAN_21mic_H50_0474_fot_55A-03756_W_tif
  70
32
  10
171706.000
  20
4544741.293
  30
148.6
  0
VERTEX
  8
PNOA-H_AMS_1956-57_33k_ES_PAN_21mic_H50_0474_fot_55A-03756_W_tif
  70
32
  10
171707.000
  20
4544744.793
  30
148.6
  0
VERTEX
  8
PNOA-H_AMS_1956-57_33k_ES_PAN_21mic_H50_0474_fot_55A-03756_W_tif
  70
32
  10
173322.000
  20
4545354.293
  30
439.6
  0
VERTEX
  8
PNOA-H_AMS_1956-57_33k_ES_PAN_21mic_H50_0474_fot_55A-03756_W_tif
  70
32
  10
173323.500
  20
4545354.793
  30
439.5
  0
SEQEND
  8
PNOA-H_AMS_1956-57_33k_ES_PAN_21mic_H50_0474_fot_55A-03756_W_tif
  0
TEXT
  8
PNOA-H_AMS_1956-57_33k_ES_PAN_21mic_H50_0474_fot_55A-03756_W_tif
 62
0
  1
PNOA-H_AMS_1956-57_33k_ES_PAN_21mic_H50_0474_fot_55A-03756_W.tif
 40
42.06973
  10
173273.793
  20
4542674.793
  0
POLYLINE
  8
PNOA-H_AMS_1956-57_33k_ES_PAN_21mic_H50_0475_fot_55A-03755_W_tif
  70
9
  66
1
  0
VERTEX
  8
PNOA-H_AMS_1956-57_33k_ES_PAN_21mic_H50_0475_fot_55A-03755_W_tif
  70
32
  10
175579.599
  20
4540377.447
  30
483.792
  0
VERTEX
  8
PNOA-H_AMS_1956-57_33k_ES_PAN_21mic_H50_0475_fot_55A-03755_W_tif
  70
32
  10
174447.000
  20
4540484.793
  30
409.4
  0
VERTEX
  8
PNOA-H_AMS_1956-57_33k_ES_PAN_21mic_H50_0475_fot_55A-03755_W_tif
  70
32
  10
174636.000
  20
4544548.793
  30
511
  0
VERTEX
  8
PNOA-H_AMS_1956-57_33k_ES_PAN_21mic_H50_0475_fot_55A-03755_W_tif
  70
32
  10
175779.624
  20
4544905.708
  30
535.521
  0
VERTEX
  8
PNOA-H_AMS_1956-57_33k_ES_PAN_21mic_H50_0475_fot_55A-03755_W_tif
  70
32
  10
175722.043
  20
4543602.664
  30
488.658
  0
VERTEX
  8
PNOA-H_AMS_1956-57_33k_ES_PAN_21mic_H50_0475_fot_55A-03755_W_tif
  70
32
  10
175619.857
  20
4541289.238
  30
480.787
  0
SEQEND
  8
PNOA-H_AMS_1956-57_33k_ES_PAN_21mic_H50_0475_fot_55A-03755_W_tif
  0
TEXT
  8
PNOA-H_AMS_1956-57_33k_ES_PAN_21mic_H50_0475_fot_55A-03755_W_tif
 62
0
  1
PNOA-H_AMS_1956-57_33k_ES_PAN_21mic_H50_0475_fot_55A-03755_W.tif
 40
42.06973
  10
175113.312
  20
4542641.577
  0
POLYLINE
  8
PNOA-H_AMS_1956-57_33k_ES_PAN_21mic_H50_0475_fot_56A-04399_W_tif
  70
9
  66
1
  0
VERTEX
  8
PNOA-H_AMS_1956-57_33k_ES_PAN_21mic_H50_0475_fot_56A-04399_W_tif
  70
32
  10
171997.500
  20
4543846.293
  30
-16238.9
  0
VERTEX
  8
PNOA-H_AMS_1956-57_33k_ES_PAN_21mic_H50_0475_fot_56A-04399_W_tif
  70
32
  10
171998.500
  20
4543542.793
  30
-9584.33
  0
VERTEX
  8
PNOA-H_AMS_1956-57_33k_ES_PAN_21mic_H50_0475_fot_56A-04399_W_tif
  70
32
  10
171998.500
  20
4543458.293
  30
-9584.4
  0
VERTEX
  8
PNOA-H_AMS_1956-57_33k_ES_PAN_21mic_H50_0475_fot_56A-04399_W_tif
  70
32
  10
171997.500
  20
4543457.293
  30
-16208
  0
VERTEX
  8
PNOA-H_AMS_1956-57_33k_ES_PAN_21mic_H50_0475_fot_56A-04399_W_tif
  70
32
  10
171997.500
  20
4543846.293
  30
-16238.9
  0
SEQEND
  8
PNOA-H_AMS_1956-57_33k_ES_PAN_21mic_H50_0475_fot_56A-04399_W_tif
  0
TEXT
  8
PNOA-H_AMS_1956-57_33k_ES_PAN_21mic_H50_0475_fot_56A-04399_W_tif
 62
0
  1
PNOA-H_AMS_1956-57_33k_ES_PAN_21mic_H50_0475_fot_56A-04399_W.tif
 40
42.06973
  10
171998.000
  20
4543576.168
  0
POLYLINE
  8
PNOA-H_AMS_1956-57_33k_ES_PAN_21mic_H50_0475_fot_56A-04399_W_tif
  70
9
  66
1
  0
VERTEX
  8
PNOA-H_AMS_1956-57_33k_ES_PAN_21mic_H50_0475_fot_56A-04399_W_tif
  70
32
  10
171997.500
  20
4543437.293
  30
-16203.5
  0
VERTEX
  8
PNOA-H_AMS_1956-57_33k_ES_PAN_21mic_H50_0475_fot_56A-04399_W_tif
  70
32
  10
171998.500
  20
4543436.293
  30
-9577.68
  0
VERTEX
  8
PNOA-H_AMS_1956-57_33k_ES_PAN_21mic_H50_0475_fot_56A-04399_W_tif
  70
32
  10
171998.500
  20
4543193.293
  30
-9567.74
  0
VERTEX
  8
PNOA-H_AMS_1956-57_33k_ES_PAN_21mic_H50_0475_fot_56A-04399_W_tif
  70
32
  10
171997.500
  20
4543192.293
  30
-16196
  0
VERTEX
  8
PNOA-H_AMS_1956-57_33k_ES_PAN_21mic_H50_0475_fot_56A-04399_W_tif
  70
32
  10
171997.500
  20
4543437.293
  30
-16203.5
  0
SEQEND
  8
PNOA-H_AMS_1956-57_33k_ES_PAN_21mic_H50_0475_fot_56A-04399_W_tif
  0
TEXT
  8
PNOA-H_AMS_1956-57_33k_ES_PAN_21mic_H50_0475_fot_56A-04399_W_tif
 62
0
  1
PNOA-H_AMS_1956-57_33k_ES_PAN_21mic_H50_0475_fot_56A-04399_W.tif
 40
42.06973
  10
171998.000
  20
4543314.793
  0
POLYLINE
  8
PNOA-H_AMS_1956-57_33k_ES_PAN_21mic_H50_0475_fot_56A-04399_W_tif
  70
9
  66
1
  0
VERTEX
  8
PNOA-H_AMS_1956-57_33k_ES_PAN_21mic_H50_0475_fot_56A-04399_W_tif
  70
32
  10
171997.500
  20
4543172.293
  30
-16190.5
  0
VERTEX
  8
PNOA-H_AMS_1956-57_33k_ES_PAN_21mic_H50_0475_fot_56A-04399_W_tif
  70
32
  10
171998.500
  20
4543171.293
  30
-9559.48
  0
VERTEX
  8
PNOA-H_AMS_1956-57_33k_ES_PAN_21mic_H50_0475_fot_56A-04399_W_tif
  70
32
  10
171998.500
  20
4543128.293
  30
-9553.04
  0
VERTEX
  8
PNOA-H_AMS_1956-57_33k_ES_PAN_21mic_H50_0475_fot_56A-04399_W_tif
  70
32
  10
171997.500
  20
4543127.293
  30
-16185.5
  0
VERTEX
  8
PNOA-H_AMS_1956-57_33k_ES_PAN_21mic_H50_0475_fot_56A-04399_W_tif
  70
32
  10
171997.500
  20
4543172.293
  30
-16190.5
  0
SEQEND
  8
PNOA-H_AMS_1956-57_33k_ES_PAN_21mic_H50_0475_fot_56A-04399_W_tif
  0
TEXT
  8
PNOA-H_AMS_1956-57_33k_ES_PAN_21mic_H50_0475_fot_56A-04399_W_tif
 62
0
  1
PNOA-H_AMS_1956-57_33k_ES_PAN_21mic_H50_0475_fot_56A-04399_W.tif
 40
42.06973
  10
171998.000
  20
4543149.793
  0
POLYLINE
  8
PNOA-H_AMS_1956-57_33k_ES_PAN_21mic_H50_0475_fot_56A-04399_W_tif
  70
9
  66
1
  0
VERTEX
  8
PNOA-H_AMS_1956-57_33k_ES_PAN_21mic_H50_0475_fot_56A-04399_W_tif
  70
32
  10
171997.500
  20
4543112.293
  30
-16186
  0
VERTEX
  8
PNOA-H_AMS_1956-57_33k_ES_PAN_21mic_H50_0475_fot_56A-04399_W_tif
  70
32
  10
171998.500
  20
4543111.293
  30
-9553.46
  0
VERTEX
  8
PNOA-H_AMS_1956-57_33k_ES_PAN_21mic_H50_0475_fot_56A-04399_W_tif
  70
32
  10
171998.500
  20
4542059.793
  30
-9464.35
  0
VERTEX
  8
PNOA-H_AMS_1956-57_33k_ES_PAN_21mic_H50_0475_fot_56A-04399_W_tif
  70
32
  10
172000.500
  20
4542057.293
  30
523
  0
VERTEX
  8
PNOA-H_AMS_1956-57_33k_ES_PAN_21mic_H50_0475_fot_56A-04399_W_tif
  70
32
  10
172000.500
  20
4541965.293
  30
533.46
  0
VERTEX
  8
PNOA-H_AMS_1956-57_33k_ES_PAN_21mic_H50_0475_fot_56A-04399_W_tif
  70
32
  10
171997.500
  20
4541962.293
  30
-16116.5
  0
VERTEX
  8
PNOA-H_AMS_1956-57_33k_ES_PAN_21mic_H50_0475_fot_56A-04399_W_tif
  70
32
  10
171997.500
  20
4543112.293
  30
-16186
  0
SEQEND
  8
PNOA-H_AMS_1956-57_33k_ES_PAN_21mic_H50_0475_fot_56A-04399_W_tif
  0
TEXT
  8
PNOA-H_AMS_1956-57_33k_ES_PAN_21mic_H50_0475_fot_56A-04399_W_tif
 62
0
  1
PNOA-H_AMS_1956-57_33k_ES_PAN_21mic_H50_0475_fot_56A-04399_W.tif
 40
42.06973
  10
171998.000
  20
4542537.293
  0
POLYLINE
  8
PNOA-H_AMS_1956-57_33k_ES_PAN_21mic_H50_0475_fot_57A-36815_E_tif
  70
9
  66
1
  0
VERTEX
  8
PNOA-H_AMS_1956-57_33k_ES_PAN_21mic_H50_0475_fot_57A-36815_E_tif
  70
32
  10
173997.500
  20
4538662.293
  30
-16098.5
  0
VERTEX
  8
PNOA-H_AMS_1956-57_33k_ES_PAN_21mic_H50_0475_fot_57A-36815_E_tif
  70
32
  10
173998.500
  20
4538142.793
  30
-9457
  0
VERTEX
  8
PNOA-H_AMS_1956-57_33k_ES_PAN_21mic_H50_0475_fot_57A-36815_E_tif
  70
32
  10
173998.500
  20
4537962.793
  30
-9466.73
  0
VERTEX
  8
PNOA-H_AMS_1956-57_33k_ES_PAN_21mic_H50_0475_fot_57A-36815_E_tif
  70
32
  10
173997.500
  20
4537962.293
  30
-16124
  0
VERTEX
  8
PNOA-H_AMS_1956-57_33k_ES_PAN_21mic_H50_0475_fot_57A-36815_E_tif
  70
32
  10
173997.500
  20
4538662.293
  30
-16098.5
  0
SEQEND
  8
PNOA-H_AMS_1956-57_33k_ES_PAN_21mic_H50_0475_fot_57A-36815_E_tif
  0
TEXT
  8
PNOA-H_AMS_1956-57_33k_ES_PAN_21mic_H50_0475_fot_57A-36815_E_tif
 62
0
  1
PNOA-H_AMS_1956-57_33k_ES_PAN_21mic_H50_0475_fot_57A-36815_E.tif
 40
42.06973
  10
173998.000
  20
4538182.543
  0
POLYLINE
  8
PNOA-H_AMS_1956-57_33k_ES_PAN_21mic_H50_0474_fot_55A-03757_W_tif
  70
9
  66
1
  0
VERTEX
  8
PNOA-H_AMS_1956-57_33k_ES_PAN_21mic_H50_0474_fot_55A-03757_W_tif
  70
32
  10
172567.000
  20
4540873.793
  30
533.6
  0
VERTEX
  8
PNOA-H_AMS_1956-57_33k_ES_PAN_21mic_H50_0474_fot_55A-03757_W_tif
  70
32
  10
172571.500
  20
4540869.793
  30
532.35
  0
VERTEX
  8
PNOA-H_AMS_1956-57_33k_ES_PAN_21mic_H50_0474_fot_55A-03757_W_tif
  70
32
  10
172569.500
  20
4540864.793
  30
-16117.45
  0
VERTEX
  8
PNOA-H_AMS_1956-57_33k_ES_PAN_21mic_H50_0474_fot_55A-03757_W_tif
  70
32
  10
172564.500
  20
4540864.793
  30
-17782
  0
VERTEX
  8
PNOA-H_AMS_1956-57_33k_ES_PAN_21mic_H50_0474_fot_55A-03757_W_tif
  70
32
  10
172562.500
  20
4540866.793
  30
-17782
  0
VERTEX
  8
PNOA-H_AMS_1956-57_33k_ES_PAN_21mic_H50_0474_fot_55A-03757_W_tif
  70
32
  10
172562.500
  20
4540871.793
  30
-16116.55
  0
VERTEX
  8
PNOA-H_AMS_1956-57_33k_ES_PAN_21mic_H50_0474_fot_55A-03757_W_tif
  70
32
  10
172565.500
  20
4540873.293
  30
533.9
  0
VERTEX
  8
PNOA-H_AMS_1956-57_33k_ES_PAN_21mic_H50_0474_fot_55A-03757_W_tif
  70
32
  10
172567.000
  20
4540873.793
  30
533.6
  0
SEQEND
  8
PNOA-H_AMS_1956-57_33k_ES_PAN_21mic_H50_0474_fot_55A-03757_W_tif
  0
TEXT
  8
PNOA-H_AMS_1956-57_33k_ES_PAN_21mic_H50_0474_fot_55A-03757_W_tif
 62
0
  1
PNOA-H_AMS_1956-57_33k_ES_PAN_21mic_H50_0474_fot_55A-03757_W.tif
 40
42.06973
  10
172566.900
  20
4540869.293
  0
POLYLINE
  8
PNOA-H_AMS_1956-57_33k_ES_PAN_21mic_H50_0474_fot_55A-03757_W_tif
  70
9
  66
1
  0
VERTEX
  8
PNOA-H_AMS_1956-57_33k_ES_PAN_21mic_H50_0474_fot_55A-03757_W_tif
  70
32
  10
172769.500
  20
4540584.793
  30
-17796.4
  0
VERTEX
  8
PNOA-H_AMS_1956-57_33k_ES_PAN_21mic_H50_0474_fot_55A-03757_W_tif
  70
32
  10
172774.500
  20
4540584.793
  30
-16133
  0
VERTEX
  8
PNOA-H_AMS_1956-57_33k_ES_PAN_21mic_H50_0474_fot_55A-03757_W_tif
  70
32
  10
172776.500
  20
4540579.793
  30
501
  0
VERTEX
  8
PNOA-H_AMS_1956-57_33k_ES_PAN_21mic_H50_0474_fot_55A-03757_W_tif
  70
32
  10
172772.500
  20
4540575.793
  30
501.3
  0
VERTEX
  8
PNOA-H_AMS_1956-57_33k_ES_PAN_21mic_H50_0474_fot_55A-03757_W_tif
  70
32
  10
172768.000
  20
4540577.293
  30
-12806.2
  0
VERTEX
  8
PNOA-H_AMS_1956-57_33k_ES_PAN_21mic_H50_0474_fot_55A-03757_W_tif
  70
32
  10
172767.500
  20
4540582.793
  30
-17796.4
  0
VERTEX
  8
PNOA-H_AMS_1956-57_33k_ES_PAN_21mic_H50_0474_fot_55A-03757_W_tif
  70
32
  10
172769.000
  20
4540583.793
  30
-14136.92
  0
VERTEX
  8
PNOA-H_AMS_1956-57_33k_ES_PAN_21mic_H50_0474_fot_55A-03757_W_tif
  70
32
  10
172769.500
  20
4540584.793
  30
-17796.4
  0
SEQEND
  8
PNOA-H_AMS_1956-57_33k_ES_PAN_21mic_H50_0474_fot_55A-03757_W_tif
  0
TEXT
  8
PNOA-H_AMS_1956-57_33k_ES_PAN_21mic_H50_0474_fot_55A-03757_W_tif
 62
0
  1
PNOA-H_AMS_1956-57_33k_ES_PAN_21mic_H50_0474_fot_55A-03757_W.tif
 40
42.06973
  10
172772.014
  20
4540580.293
  0
POLYLINE
  8
PNOA-H_AMS_1956-57_33k_ES_PAN_21mic_H50_0474_fot_55A-03757_W_tif
  70
9
  66
1
  0
VERTEX
  8
PNOA-H_AMS_1956-57_33k_ES_PAN_21mic_H50_0474_fot_55A-03757_W_tif
  70
32
  10
172511.500
  20
4540003.793
  30
574
  0
VERTEX
  8
PNOA-H_AMS_1956-57_33k_ES_PAN_21mic_H50_0474_fot_55A-03757_W_tif
  70
32
  10
172513.500
  20
4540003.293
  30
574
  0
VERTEX
  8
PNOA-H_AMS_1956-57_33k_ES_PAN_21mic_H50_0474_fot_55A-03757_W_tif
  70
32
  10
172516.500
  20
4539999.793
  30
574
  0
VERTEX
  8
PNOA-H_AMS_1956-57_33k_ES_PAN_21mic_H50_0474_fot_55A-03757_W_tif
  70
32
  10
172514.500
  20
4539994.793
  30
-16096.5
  0
VERTEX
  8
PNOA-H_AMS_1956-57_33k_ES_PAN_21mic_H50_0474_fot_55A-03757_W_tif
  70
32
  10
172509.500
  20
4539994.793
  30
-17763.551
  0
VERTEX
  8
PNOA-H_AMS_1956-57_33k_ES_PAN_21mic_H50_0474_fot_55A-03757_W_tif
  70
32
  10
172507.500
  20
4539996.793
  30
-17763.551
  0
VERTEX
  8
PNOA-H_AMS_1956-57_33k_ES_PAN_21mic_H50_0474_fot_55A-03757_W_tif
  70
32
  10
172507.500
  20
4540001.793
  30
-16096.5
  0
VERTEX
  8
PNOA-H_AMS_1956-57_33k_ES_PAN_21mic_H50_0474_fot_55A-03757_W_tif
  70
32
  10
172510.000
  20
4540003.293
  30
574
  0
VERTEX
  8
PNOA-H_AMS_1956-57_33k_ES_PAN_21mic_H50_0474_fot_55A-03757_W_tif
  70
32
  10
172511.500
  20
4540003.793
  30
574
  0
SEQEND
  8
PNOA-H_AMS_1956-57_33k_ES_PAN_21mic_H50_0474_fot_55A-03757_W_tif
  0
TEXT
  8
PNOA-H_AMS_1956-57_33k_ES_PAN_21mic_H50_0474_fot_55A-03757_W_tif
 62
0
  1
PNOA-H_AMS_1956-57_33k_ES_PAN_21mic_H50_0474_fot_55A-03757_W.tif
 40
42.06973
  10
172511.900
  20
4539999.293
  0
POLYLINE
  8
PNOA-H_AMS_1956-57_33k_ES_PAN_21mic_H50_0475_fot_56A-04399_W_tif
  70
9
  66
1
  0
VERTEX
  8
PNOA-H_AMS_1956-57_33k_ES_PAN_21mic_H50_0475_fot_56A-04399_W_tif
  70
32
  10
175579.606
  20
4540377.607
  30
483.716
  0
VERTEX
  8
PNOA-H_AMS_1956-57_33k_ES_PAN_21mic_H50_0475_fot_56A-04399_W_tif
  70
32
  10
175517.713
  20
4538975.818
  30
488.319
  0
VERTEX
  8
PNOA-H_AMS_1956-57_33k_ES_PAN_21mic_H50_0475_fot_56A-04399_W_tif
  70
32
  10
175415.612
  20
4536662.402
  30
-1142.698
  0
VERTEX
  8
PNOA-H_AMS_1956-57_33k_ES_PAN_21mic_H50_0475_fot_56A-04399_W_tif
  70
32
  10
175331.716
  20
4534760.664
  30
-7566.022
  0
VERTEX
  8
PNOA-H_AMS_1956-57_33k_ES_PAN_21mic_H50_0475_fot_56A-04399_W_tif
  70
32
  10
175110.000
  20
4534711.126
  30
-10223.2
  0
VERTEX
  8
PNOA-H_AMS_1956-57_33k_ES_PAN_21mic_H50_0475_fot_56A-04399_W_tif
  70
32
  10
175110.000
  20
4536560.000
  30
-1142.698
  0
VERTEX
  8
PNOA-H_AMS_1956-57_33k_ES_PAN_21mic_H50_0475_fot_56A-04399_W_tif
  70
32
  10
174007.500
  20
4536560.000
  30
-10680.346
  0
VERTEX
  8
PNOA-H_AMS_1956-57_33k_ES_PAN_21mic_H50_0475_fot_56A-04399_W_tif
  70
32
  10
174007.500
  20
4537952.793
  30
-14461.2
  0
VERTEX
  8
PNOA-H_AMS_1956-57_33k_ES_PAN_21mic_H50_0475_fot_56A-04399_W_tif
  70
32
  10
173997.500
  20
4537961.793
  30
-16124.05
  0
VERTEX
  8
PNOA-H_AMS_1956-57_33k_ES_PAN_21mic_H50_0475_fot_56A-04399_W_tif
  70
32
  10
173998.500
  20
4537962.793
  30
-9466.73
  0
VERTEX
  8
PNOA-H_AMS_1956-57_33k_ES_PAN_21mic_H50_0475_fot_56A-04399_W_tif
  70
32
  10
173997.500
  20
4538752.793
  30
-14434.4
  0
VERTEX
  8
PNOA-H_AMS_1956-57_33k_ES_PAN_21mic_H50_0475_fot_56A-04399_W_tif
  70
32
  10
173992.500
  20
4538756.793
  30
-17767.6
  0
VERTEX
  8
PNOA-H_AMS_1956-57_33k_ES_PAN_21mic_H50_0475_fot_56A-04399_W_tif
  70
32
  10
173992.500
  20
4538777.793
  30
-17768.949
  0
VERTEX
  8
PNOA-H_AMS_1956-57_33k_ES_PAN_21mic_H50_0475_fot_56A-04399_W_tif
  70
32
  10
173997.500
  20
4538781.793
  30
-14437.4
  0
VERTEX
  8
PNOA-H_AMS_1956-57_33k_ES_PAN_21mic_H50_0475_fot_56A-04399_W_tif
  70
32
  10
173997.500
  20
4539582.793
  30
-14460.25
  0
VERTEX
  8
PNOA-H_AMS_1956-57_33k_ES_PAN_21mic_H50_0475_fot_56A-04399_W_tif
  70
32
  10
173992.500
  20
4539586.793
  30
-17788.75
  0
VERTEX
  8
PNOA-H_AMS_1956-57_33k_ES_PAN_21mic_H50_0475_fot_56A-04399_W_tif
  70
32
  10
173992.500
  20
4539602.793
  30
-17789.199
  0
VERTEX
  8
PNOA-H_AMS_1956-57_33k_ES_PAN_21mic_H50_0475_fot_56A-04399_W_tif
  70
32
  10
173997.500
  20
4539606.793
  30
-14460.8
  0
VERTEX
  8
PNOA-H_AMS_1956-57_33k_ES_PAN_21mic_H50_0475_fot_56A-04399_W_tif
  70
32
  10
173997.500
  20
4539992.793
  30
-14471.7
  0
VERTEX
  8
PNOA-H_AMS_1956-57_33k_ES_PAN_21mic_H50_0475_fot_56A-04399_W_tif
  70
32
  10
173995.500
  20
4539994.793
  30
-14471.3
  0
VERTEX
  8
PNOA-H_AMS_1956-57_33k_ES_PAN_21mic_H50_0475_fot_56A-04399_W_tif
  70
32
  10
173259.000
  20
4539994.793
  30
-16111.5
  0
VERTEX
  8
PNOA-H_AMS_1956-57_33k_ES_PAN_21mic_H50_0475_fot_56A-04399_W_tif
  70
32
  10
174446.000
  20
4540484.793
  30
409.2
  0
SEQEND
  8
PNOA-H_AMS_1956-57_33k_ES_PAN_21mic_H50_0475_fot_56A-04399_W_tif
  0
TEXT
  8
PNOA-H_AMS_1956-57_33k_ES_PAN_21mic_H50_0475_fot_56A-04399_W_tif
 62
0
  1
PNOA-H_AMS_1956-57_33k_ES_PAN_21mic_H50_0475_fot_56A-04399_W.tif
 40
42.06973
  10
174419.303
  20
4537597.960
  0
POLYLINE
  8
PNOA-H_AMS_1956-57_33k_ES_PAN_21mic_H50_0475_fot_57A-36815_E_tif
  70
9
  66
1
  0
VERTEX
  8
PNOA-H_AMS_1956-57_33k_ES_PAN_21mic_H50_0475_fot_57A-36815_E_tif
  70
32
  10
175297.715
  20
4533989.793
  30
-17146.236
  0
VERTEX
  8
PNOA-H_AMS_1956-57_33k_ES_PAN_21mic_H50_0475_fot_57A-36815_E_tif
  70
32
  10
175110.000
  20
4533989.793
  30
-17865.057
  0
VERTEX
  8
PNOA-H_AMS_1956-57_33k_ES_PAN_21mic_H50_0475_fot_57A-36815_E_tif
  70
32
  10
175110.000
  20
4534711.567
  30
-8290.374
  0
VERTEX
  8
PNOA-H_AMS_1956-57_33k_ES_PAN_21mic_H50_0475_fot_57A-36815_E_tif
  70
32
  10
175331.736
  20
4534761.120
  30
-3489.762
  0
VERTEX
  8
PNOA-H_AMS_1956-57_33k_ES_PAN_21mic_H50_0475_fot_57A-36815_E_tif
  70
32
  10
175313.555
  20
4534348.990
  30
-13100.128
  0
SEQEND
  8
PNOA-H_AMS_1956-57_33k_ES_PAN_21mic_H50_0475_fot_57A-36815_E_tif
  0
TEXT
  8
PNOA-H_AMS_1956-57_33k_ES_PAN_21mic_H50_0475_fot_57A-36815_E_tif
 62
0
  1
PNOA-H_AMS_1956-57_33k_ES_PAN_21mic_H50_0475_fot_57A-36815_E.tif
 40
42.06973
  10
175220.868
  20
4534375.457
  0
ENDSEC
  0
EOF
