  0
SECTION
  2
HEADER
  9
$ACADVER
  1
AC1009
  9
$LUNITS
  70
2
  9
$LIMMIN
  10
231906.879
  20
4542681.448
  9
$LIMMAX
  10
260552.497
  20
4562158.024
  9
$EXTMIN
  10
231906.879
  20
4542681.448
  9
$EXTMAX
  10
260552.497
  20
4562158.024
  999
Created by Global Mapper
  999
Projection: UTM
  999
Datum: ETRS89
  999
Ground Units: meters
  999
ZONE: 30
  0
ENDSEC
  0
SECTION
  2
TABLES
  0
ENDSEC
  0
SECTION
  2
BLOCKS
  0
ENDSEC
  0
SECTION
  2
ENTITIES
  0
POLYLINE
  8
PNOA-H_AMS_1956-57_33k_ES_PAN_21mic_H50_0450_fot_50A-08786_E_tif
  70
9
  66
1
  0
VERTEX
  8
PNOA-H_AMS_1956-57_33k_ES_PAN_21mic_H50_0450_fot_50A-08786_E_tif
  70
32
  10
233372.038
  20
4562129.330
  30
763.885
  0
VERTEX
  8
PNOA-H_AMS_1956-57_33k_ES_PAN_21mic_H50_0450_fot_50A-08786_E_tif
  70
32
  10
233293.000
  20
4558874.793
  30
790
  0
VERTEX
  8
PNOA-H_AMS_1956-57_33k_ES_PAN_21mic_H50_0450_fot_50A-08786_E_tif
  70
32
  10
232863.500
  20
4558643.793
  30
798
  0
VERTEX
  8
PNOA-H_AMS_1956-57_33k_ES_PAN_21mic_H50_0450_fot_50A-08786_E_tif
  70
32
  10
232456.686
  20
4558680.046
  30
799.237
  0
VERTEX
  8
PNOA-H_AMS_1956-57_33k_ES_PAN_21mic_H50_0450_fot_50A-08786_E_tif
  70
32
  10
232499.357
  20
4559844.779
  30
782.376
  0
VERTEX
  8
PNOA-H_AMS_1956-57_33k_ES_PAN_21mic_H50_0450_fot_50A-08786_E_tif
  70
32
  10
232584.138
  20
4562158.024
  30
763.808
  0
SEQEND
  8
PNOA-H_AMS_1956-57_33k_ES_PAN_21mic_H50_0450_fot_50A-08786_E_tif
  0
TEXT
  8
PNOA-H_AMS_1956-57_33k_ES_PAN_21mic_H50_0450_fot_50A-08786_E_tif
 62
0
  1
PNOA-H_AMS_1956-57_33k_ES_PAN_21mic_H50_0450_fot_50A-08786_E.tif
 40
41.56763
  10
232914.362
  20
4560400.909
  0
POLYLINE
  8
PNOA-H_AMS_1956-57_33k_ES_PAN_21mic_H50_0451_fot_50A-08787_E_tif
  70
9
  66
1
  0
VERTEX
  8
PNOA-H_AMS_1956-57_33k_ES_PAN_21mic_H50_0451_fot_50A-08787_E_tif
  70
32
  10
236395.674
  20
4562019.366
  30
753.773
  0
VERTEX
  8
PNOA-H_AMS_1956-57_33k_ES_PAN_21mic_H50_0451_fot_50A-08787_E_tif
  70
32
  10
236336.000
  20
4558835.293
  30
732
  0
VERTEX
  8
PNOA-H_AMS_1956-57_33k_ES_PAN_21mic_H50_0451_fot_50A-08787_E_tif
  70
32
  10
235634.000
  20
4558508.793
  30
744.06
  0
VERTEX
  8
PNOA-H_AMS_1956-57_33k_ES_PAN_21mic_H50_0451_fot_50A-08787_E_tif
  70
32
  10
233293.000
  20
4558874.793
  30
790
  0
VERTEX
  8
PNOA-H_AMS_1956-57_33k_ES_PAN_21mic_H50_0451_fot_50A-08787_E_tif
  70
32
  10
233372.038
  20
4562129.330
  30
763.885
  0
VERTEX
  8
PNOA-H_AMS_1956-57_33k_ES_PAN_21mic_H50_0451_fot_50A-08787_E_tif
  70
32
  10
236080.247
  20
4562030.702
  30
753.81
  0
SEQEND
  8
PNOA-H_AMS_1956-57_33k_ES_PAN_21mic_H50_0451_fot_50A-08787_E_tif
  0
TEXT
  8
PNOA-H_AMS_1956-57_33k_ES_PAN_21mic_H50_0451_fot_50A-08787_E_tif
 62
0
  1
PNOA-H_AMS_1956-57_33k_ES_PAN_21mic_H50_0451_fot_50A-08787_E.tif
 40
41.56763
  10
234858.182
  20
4560888.043
  0
POLYLINE
  8
PNOA-H_AMS_1956-57_33k_ES_PAN_21mic_H50_0451_fot_50A-08789_E_tif
  70
9
  66
1
  0
VERTEX
  8
PNOA-H_AMS_1956-57_33k_ES_PAN_21mic_H50_0451_fot_50A-08789_E_tif
  70
32
  10
242310.731
  20
4561808.104
  30
767.074
  0
VERTEX
  8
PNOA-H_AMS_1956-57_33k_ES_PAN_21mic_H50_0451_fot_50A-08789_E_tif
  70
32
  10
242199.000
  20
4558717.793
  30
784.92
  0
VERTEX
  8
PNOA-H_AMS_1956-57_33k_ES_PAN_21mic_H50_0451_fot_50A-08789_E_tif
  70
32
  10
241237.500
  20
4558350.793
  30
785
  0
VERTEX
  8
PNOA-H_AMS_1956-57_33k_ES_PAN_21mic_H50_0451_fot_50A-08789_E_tif
  70
32
  10
239293.500
  20
4558783.293
  30
781
  0
VERTEX
  8
PNOA-H_AMS_1956-57_33k_ES_PAN_21mic_H50_0451_fot_50A-08789_E_tif
  70
32
  10
239362.646
  20
4561912.740
  30
746.03
  0
VERTEX
  8
PNOA-H_AMS_1956-57_33k_ES_PAN_21mic_H50_0451_fot_50A-08789_E_tif
  70
32
  10
239576.337
  20
4561905.060
  30
746.063
  0
SEQEND
  8
PNOA-H_AMS_1956-57_33k_ES_PAN_21mic_H50_0451_fot_50A-08789_E_tif
  0
TEXT
  8
PNOA-H_AMS_1956-57_33k_ES_PAN_21mic_H50_0451_fot_50A-08789_E_tif
 62
0
  1
PNOA-H_AMS_1956-57_33k_ES_PAN_21mic_H50_0451_fot_50A-08789_E.tif
 40
41.56763
  10
240804.272
  20
4560734.793
  0
POLYLINE
  8
PNOA-H_AMS_1956-57_33k_ES_PAN_21mic_H50_0451_fot_50A-08788_E_tif
  70
9
  66
1
  0
VERTEX
  8
PNOA-H_AMS_1956-57_33k_ES_PAN_21mic_H50_0451_fot_50A-08788_E_tif
  70
32
  10
239362.744
  20
4561912.736
  30
746.032
  0
VERTEX
  8
PNOA-H_AMS_1956-57_33k_ES_PAN_21mic_H50_0451_fot_50A-08788_E_tif
  70
32
  10
239294.000
  20
4558784.293
  30
781
  0
VERTEX
  8
PNOA-H_AMS_1956-57_33k_ES_PAN_21mic_H50_0451_fot_50A-08788_E_tif
  70
32
  10
239290.000
  20
4558781.293
  30
781
  0
VERTEX
  8
PNOA-H_AMS_1956-57_33k_ES_PAN_21mic_H50_0451_fot_50A-08788_E_tif
  70
32
  10
239267.500
  20
4558771.293
  30
780.5
  0
VERTEX
  8
PNOA-H_AMS_1956-57_33k_ES_PAN_21mic_H50_0451_fot_50A-08788_E_tif
  70
32
  10
238445.000
  20
4558407.293
  30
781
  0
VERTEX
  8
PNOA-H_AMS_1956-57_33k_ES_PAN_21mic_H50_0451_fot_50A-08788_E_tif
  70
32
  10
236336.000
  20
4558835.793
  30
732
  0
VERTEX
  8
PNOA-H_AMS_1956-57_33k_ES_PAN_21mic_H50_0451_fot_50A-08788_E_tif
  70
32
  10
236395.664
  20
4562019.367
  30
753.769
  0
SEQEND
  8
PNOA-H_AMS_1956-57_33k_ES_PAN_21mic_H50_0451_fot_50A-08788_E_tif
  0
TEXT
  8
PNOA-H_AMS_1956-57_33k_ES_PAN_21mic_H50_0451_fot_50A-08788_E_tif
 62
0
  1
PNOA-H_AMS_1956-57_33k_ES_PAN_21mic_H50_0451_fot_50A-08788_E.tif
 40
41.56763
  10
237855.675
  20
4560806.043
  0
POLYLINE
  8
PNOA-H_AMS_1956-57_33k_ES_PAN_21mic_H50_0451_fot_50A-08790_E_tif
  70
9
  66
1
  0
VERTEX
  8
PNOA-H_AMS_1956-57_33k_ES_PAN_21mic_H50_0451_fot_50A-08790_E_tif
  70
32
  10
245097.026
  20
4561710.280
  30
796.5
  0
VERTEX
  8
PNOA-H_AMS_1956-57_33k_ES_PAN_21mic_H50_0451_fot_50A-08790_E_tif
  70
32
  10
244935.000
  20
4558568.793
  30
760.3
  0
VERTEX
  8
PNOA-H_AMS_1956-57_33k_ES_PAN_21mic_H50_0451_fot_50A-08790_E_tif
  70
32
  10
244002.000
  20
4558224.293
  30
740.24
  0
VERTEX
  8
PNOA-H_AMS_1956-57_33k_ES_PAN_21mic_H50_0451_fot_50A-08790_E_tif
  70
32
  10
243984.500
  20
4558228.293
  30
739.82
  0
VERTEX
  8
PNOA-H_AMS_1956-57_33k_ES_PAN_21mic_H50_0451_fot_50A-08790_E_tif
  70
32
  10
242199.000
  20
4558717.793
  30
784.92
  0
VERTEX
  8
PNOA-H_AMS_1956-57_33k_ES_PAN_21mic_H50_0451_fot_50A-08790_E_tif
  70
32
  10
242310.731
  20
4561808.104
  30
767.074
  0
VERTEX
  8
PNOA-H_AMS_1956-57_33k_ES_PAN_21mic_H50_0451_fot_50A-08790_E_tif
  70
32
  10
243072.408
  20
4561781.097
  30
767.071
  0
SEQEND
  8
PNOA-H_AMS_1956-57_33k_ES_PAN_21mic_H50_0451_fot_50A-08790_E_tif
  0
TEXT
  8
PNOA-H_AMS_1956-57_33k_ES_PAN_21mic_H50_0451_fot_50A-08790_E_tif
 62
0
  1
PNOA-H_AMS_1956-57_33k_ES_PAN_21mic_H50_0451_fot_50A-08790_E.tif
 40
41.56763
  10
243655.032
  20
4560637.043
  0
POLYLINE
  8
PNOA-H_AMS_1956-57_33k_ES_PAN_21mic_H50_0451_fot_50A-08791_E_tif
  70
9
  66
1
  0
VERTEX
  8
PNOA-H_AMS_1956-57_33k_ES_PAN_21mic_H50_0451_fot_50A-08791_E_tif
  70
32
  10
247753.870
  20
4561617.919
  30
814.719
  0
VERTEX
  8
PNOA-H_AMS_1956-57_33k_ES_PAN_21mic_H50_0451_fot_50A-08791_E_tif
  70
32
  10
247638.500
  20
4558500.293
  30
791.6
  0
VERTEX
  8
PNOA-H_AMS_1956-57_33k_ES_PAN_21mic_H50_0451_fot_50A-08791_E_tif
  70
32
  10
246804.000
  20
4558141.793
  30
783.98
  0
VERTEX
  8
PNOA-H_AMS_1956-57_33k_ES_PAN_21mic_H50_0451_fot_50A-08791_E_tif
  70
32
  10
244935.000
  20
4558568.793
  30
760.3
  0
VERTEX
  8
PNOA-H_AMS_1956-57_33k_ES_PAN_21mic_H50_0451_fot_50A-08791_E_tif
  70
32
  10
245097.027
  20
4561710.280
  30
795.393
  0
VERTEX
  8
PNOA-H_AMS_1956-57_33k_ES_PAN_21mic_H50_0451_fot_50A-08791_E_tif
  70
32
  10
246568.462
  20
4561658.813
  30
823.085
  0
SEQEND
  8
PNOA-H_AMS_1956-57_33k_ES_PAN_21mic_H50_0451_fot_50A-08791_E_tif
  0
TEXT
  8
PNOA-H_AMS_1956-57_33k_ES_PAN_21mic_H50_0451_fot_50A-08791_E_tif
 62
0
  1
PNOA-H_AMS_1956-57_33k_ES_PAN_21mic_H50_0451_fot_50A-08791_E.tif
 40
41.56763
  10
246376.101
  20
4560557.543
  0
POLYLINE
  8
PNOA-H_AMS_1956-57_33k_ES_PAN_21mic_H50_0451_fot_50A-08793_E_tif
  70
9
  66
1
  0
VERTEX
  8
PNOA-H_AMS_1956-57_33k_ES_PAN_21mic_H50_0451_fot_50A-08793_E_tif
  70
32
  10
253105.800
  20
4561434.749
  30
833.729
  0
VERTEX
  8
PNOA-H_AMS_1956-57_33k_ES_PAN_21mic_H50_0451_fot_50A-08793_E_tif
  70
32
  10
252997.000
  20
4558265.293
  30
791
  0
VERTEX
  8
PNOA-H_AMS_1956-57_33k_ES_PAN_21mic_H50_0451_fot_50A-08793_E_tif
  70
32
  10
252996.500
  20
4558261.793
  30
791
  0
VERTEX
  8
PNOA-H_AMS_1956-57_33k_ES_PAN_21mic_H50_0451_fot_50A-08793_E_tif
  70
32
  10
252991.000
  20
4558258.793
  30
791
  0
VERTEX
  8
PNOA-H_AMS_1956-57_33k_ES_PAN_21mic_H50_0451_fot_50A-08793_E_tif
  70
32
  10
252545.000
  20
4558042.293
  30
796
  0
VERTEX
  8
PNOA-H_AMS_1956-57_33k_ES_PAN_21mic_H50_0451_fot_50A-08793_E_tif
  70
32
  10
250350.500
  20
4558388.293
  30
811
  0
VERTEX
  8
PNOA-H_AMS_1956-57_33k_ES_PAN_21mic_H50_0451_fot_50A-08793_E_tif
  70
32
  10
250457.051
  20
4561524.854
  30
818.638
  0
SEQEND
  8
PNOA-H_AMS_1956-57_33k_ES_PAN_21mic_H50_0451_fot_50A-08793_E_tif
  0
TEXT
  8
PNOA-H_AMS_1956-57_33k_ES_PAN_21mic_H50_0451_fot_50A-08793_E_tif
 62
0
  1
PNOA-H_AMS_1956-57_33k_ES_PAN_21mic_H50_0451_fot_50A-08793_E.tif
 40
41.56763
  10
251740.070
  20
4560268.543
  0
POLYLINE
  8
PNOA-H_AMS_1956-57_33k_ES_PAN_21mic_H50_0451_fot_50A-08792_E_tif
  70
9
  66
1
  0
VERTEX
  8
PNOA-H_AMS_1956-57_33k_ES_PAN_21mic_H50_0451_fot_50A-08792_E_tif
  70
32
  10
250457.051
  20
4561524.854
  30
818.638
  0
VERTEX
  8
PNOA-H_AMS_1956-57_33k_ES_PAN_21mic_H50_0451_fot_50A-08792_E_tif
  70
32
  10
250350.500
  20
4558388.293
  30
811
  0
VERTEX
  8
PNOA-H_AMS_1956-57_33k_ES_PAN_21mic_H50_0451_fot_50A-08792_E_tif
  70
32
  10
249711.000
  20
4558086.293
  30
807
  0
VERTEX
  8
PNOA-H_AMS_1956-57_33k_ES_PAN_21mic_H50_0451_fot_50A-08792_E_tif
  70
32
  10
249706.500
  20
4558084.293
  30
806.58
  0
VERTEX
  8
PNOA-H_AMS_1956-57_33k_ES_PAN_21mic_H50_0451_fot_50A-08792_E_tif
  70
32
  10
249703.000
  20
4558084.293
  30
806.24
  0
VERTEX
  8
PNOA-H_AMS_1956-57_33k_ES_PAN_21mic_H50_0451_fot_50A-08792_E_tif
  70
32
  10
247638.500
  20
4558500.793
  30
791.7
  0
VERTEX
  8
PNOA-H_AMS_1956-57_33k_ES_PAN_21mic_H50_0451_fot_50A-08792_E_tif
  70
32
  10
247753.865
  20
4561617.919
  30
814.743
  0
VERTEX
  8
PNOA-H_AMS_1956-57_33k_ES_PAN_21mic_H50_0451_fot_50A-08792_E_tif
  70
32
  10
250064.497
  20
4561538.208
  30
818.638
  0
SEQEND
  8
PNOA-H_AMS_1956-57_33k_ES_PAN_21mic_H50_0451_fot_50A-08792_E_tif
  0
TEXT
  8
PNOA-H_AMS_1956-57_33k_ES_PAN_21mic_H50_0451_fot_50A-08792_E_tif
 62
0
  1
PNOA-H_AMS_1956-57_33k_ES_PAN_21mic_H50_0451_fot_50A-08792_E.tif
 40
41.56763
  10
249066.859
  20
4560485.793
  0
POLYLINE
  8
PNOA-H_AMS_1956-57_33k_ES_PAN_21mic_H50_0451_fot_50A-08794_E_tif
  70
9
  66
1
  0
VERTEX
  8
PNOA-H_AMS_1956-57_33k_ES_PAN_21mic_H50_0451_fot_50A-08794_E_tif
  70
32
  10
255838.199
  20
4561342.893
  30
826.845
  0
VERTEX
  8
PNOA-H_AMS_1956-57_33k_ES_PAN_21mic_H50_0451_fot_50A-08794_E_tif
  70
32
  10
255692.000
  20
4558182.293
  30
818.4
  0
VERTEX
  8
PNOA-H_AMS_1956-57_33k_ES_PAN_21mic_H50_0451_fot_50A-08794_E_tif
  70
32
  10
255294.000
  20
4557983.293
  30
803.8
  0
VERTEX
  8
PNOA-H_AMS_1956-57_33k_ES_PAN_21mic_H50_0451_fot_50A-08794_E_tif
  70
32
  10
255290.500
  20
4557983.293
  30
803.1
  0
VERTEX
  8
PNOA-H_AMS_1956-57_33k_ES_PAN_21mic_H50_0451_fot_50A-08794_E_tif
  70
32
  10
252996.500
  20
4558261.793
  30
791
  0
VERTEX
  8
PNOA-H_AMS_1956-57_33k_ES_PAN_21mic_H50_0451_fot_50A-08794_E_tif
  70
32
  10
253105.448
  20
4561434.761
  30
833.787
  0
VERTEX
  8
PNOA-H_AMS_1956-57_33k_ES_PAN_21mic_H50_0451_fot_50A-08794_E_tif
  70
32
  10
253560.514
  20
4561419.281
  30
833.789
  0
SEQEND
  8
PNOA-H_AMS_1956-57_33k_ES_PAN_21mic_H50_0451_fot_50A-08794_E_tif
  0
TEXT
  8
PNOA-H_AMS_1956-57_33k_ES_PAN_21mic_H50_0451_fot_50A-08794_E_tif
 62
0
  1
PNOA-H_AMS_1956-57_33k_ES_PAN_21mic_H50_0451_fot_50A-08794_E.tif
 40
41.56763
  10
254424.727
  20
4560213.293
  0
POLYLINE
  8
PNOA-H_AMS_1956-57_33k_ES_PAN_21mic_H50_0451_fot_50A-08795_E_tif
  70
9
  66
1
  0
VERTEX
  8
PNOA-H_AMS_1956-57_33k_ES_PAN_21mic_H50_0451_fot_50A-08795_E_tif
  70
32
  10
258598.949
  20
4561251.044
  30
837.857
  0
VERTEX
  8
PNOA-H_AMS_1956-57_33k_ES_PAN_21mic_H50_0451_fot_50A-08795_E_tif
  70
32
  10
258442.000
  20
4558027.793
  30
793.64
  0
VERTEX
  8
PNOA-H_AMS_1956-57_33k_ES_PAN_21mic_H50_0451_fot_50A-08795_E_tif
  70
32
  10
258012.500
  20
4557816.293
  30
802
  0
VERTEX
  8
PNOA-H_AMS_1956-57_33k_ES_PAN_21mic_H50_0451_fot_50A-08795_E_tif
  70
32
  10
255692.500
  20
4558182.793
  30
818.55
  0
VERTEX
  8
PNOA-H_AMS_1956-57_33k_ES_PAN_21mic_H50_0451_fot_50A-08795_E_tif
  70
32
  10
255838.295
  20
4561342.889
  30
826.875
  0
VERTEX
  8
PNOA-H_AMS_1956-57_33k_ES_PAN_21mic_H50_0451_fot_50A-08795_E_tif
  70
32
  10
257056.514
  20
4561302.033
  30
833.117
  0
SEQEND
  8
PNOA-H_AMS_1956-57_33k_ES_PAN_21mic_H50_0451_fot_50A-08795_E_tif
  0
TEXT
  8
PNOA-H_AMS_1956-57_33k_ES_PAN_21mic_H50_0451_fot_50A-08795_E_tif
 62
0
  1
PNOA-H_AMS_1956-57_33k_ES_PAN_21mic_H50_0451_fot_50A-08795_E.tif
 40
41.56763
  10
257160.673
  20
4560073.543
  0
POLYLINE
  8
PNOA-H_AMS_1956-57_33k_ES_PAN_21mic_H50_0451_fot_50A-08796_E_tif
  70
9
  66
1
  0
VERTEX
  8
PNOA-H_AMS_1956-57_33k_ES_PAN_21mic_H50_0451_fot_50A-08796_E_tif
  70
32
  10
260440.271
  20
4557765.656
  30
825.83
  0
VERTEX
  8
PNOA-H_AMS_1956-57_33k_ES_PAN_21mic_H50_0451_fot_50A-08796_E_tif
  70
32
  10
258442.000
  20
4558027.793
  30
793.64
  0
VERTEX
  8
PNOA-H_AMS_1956-57_33k_ES_PAN_21mic_H50_0451_fot_50A-08796_E_tif
  70
32
  10
258598.949
  20
4561251.044
  30
837.857
  0
VERTEX
  8
PNOA-H_AMS_1956-57_33k_ES_PAN_21mic_H50_0451_fot_50A-08796_E_tif
  70
32
  10
260552.497
  20
4561186.464
  30
846.923
  0
VERTEX
  8
PNOA-H_AMS_1956-57_33k_ES_PAN_21mic_H50_0451_fot_50A-08796_E_tif
  70
32
  10
260476.600
  20
4558873.314
  30
835.337
  0
SEQEND
  8
PNOA-H_AMS_1956-57_33k_ES_PAN_21mic_H50_0451_fot_50A-08796_E_tif
  0
TEXT
  8
PNOA-H_AMS_1956-57_33k_ES_PAN_21mic_H50_0451_fot_50A-08796_E_tif
 62
0
  1
PNOA-H_AMS_1956-57_33k_ES_PAN_21mic_H50_0451_fot_50A-08796_E.tif
 40
41.56763
  10
259598.677
  20
4559986.063
  0
POLYLINE
  8
PNOA-H_AMS_1956-57_33k_ES_PAN_21mic_H50_0450_fot_51A-08837_E_tif
  70
9
  66
1
  0
VERTEX
  8
PNOA-H_AMS_1956-57_33k_ES_PAN_21mic_H50_0450_fot_51A-08837_E_tif
  70
32
  10
232456.671
  20
4558679.622
  30
799.208
  0
VERTEX
  8
PNOA-H_AMS_1956-57_33k_ES_PAN_21mic_H50_0450_fot_51A-08837_E_tif
  70
32
  10
232852.000
  20
4558644.293
  30
798
  0
VERTEX
  8
PNOA-H_AMS_1956-57_33k_ES_PAN_21mic_H50_0450_fot_51A-08837_E_tif
  70
32
  10
232858.500
  20
4558643.793
  30
798
  0
VERTEX
  8
PNOA-H_AMS_1956-57_33k_ES_PAN_21mic_H50_0450_fot_51A-08837_E_tif
  70
32
  10
232862.500
  20
4558643.793
  30
798
  0
VERTEX
  8
PNOA-H_AMS_1956-57_33k_ES_PAN_21mic_H50_0450_fot_51A-08837_E_tif
  70
32
  10
232862.500
  20
4558629.293
  30
798
  0
VERTEX
  8
PNOA-H_AMS_1956-57_33k_ES_PAN_21mic_H50_0450_fot_51A-08837_E_tif
  70
32
  10
232754.500
  20
4554814.793
  30
775
  0
VERTEX
  8
PNOA-H_AMS_1956-57_33k_ES_PAN_21mic_H50_0450_fot_51A-08837_E_tif
  70
32
  10
232309.704
  20
4554666.587
  30
784.12
  0
VERTEX
  8
PNOA-H_AMS_1956-57_33k_ES_PAN_21mic_H50_0450_fot_51A-08837_E_tif
  70
32
  10
232329.900
  20
4555218.307
  30
777.359
  0
VERTEX
  8
PNOA-H_AMS_1956-57_33k_ES_PAN_21mic_H50_0450_fot_51A-08837_E_tif
  70
32
  10
232414.611
  20
4557531.540
  30
791.31
  0
SEQEND
  8
PNOA-H_AMS_1956-57_33k_ES_PAN_21mic_H50_0450_fot_51A-08837_E_tif
  0
TEXT
  8
PNOA-H_AMS_1956-57_33k_ES_PAN_21mic_H50_0450_fot_51A-08837_E_tif
 62
0
  1
PNOA-H_AMS_1956-57_33k_ES_PAN_21mic_H50_0450_fot_51A-08837_E.tif
 40
41.56763
  10
232586.102
  20
4556673.104
  0
POLYLINE
  8
PNOA-H_AMS_1956-57_33k_ES_PAN_21mic_H50_0451_fot_52B-10279_W_tif
  70
9
  66
1
  0
VERTEX
  8
PNOA-H_AMS_1956-57_33k_ES_PAN_21mic_H50_0451_fot_52B-10279_W_tif
  70
32
  10
232309.706
  20
4554666.637
  30
784.117
  0
VERTEX
  8
PNOA-H_AMS_1956-57_33k_ES_PAN_21mic_H50_0451_fot_52B-10279_W_tif
  70
32
  10
232754.000
  20
4554814.793
  30
775
  0
VERTEX
  8
PNOA-H_AMS_1956-57_33k_ES_PAN_21mic_H50_0451_fot_52B-10279_W_tif
  70
32
  10
233708.000
  20
4554450.793
  30
764
  0
VERTEX
  8
PNOA-H_AMS_1956-57_33k_ES_PAN_21mic_H50_0451_fot_52B-10279_W_tif
  70
32
  10
232311.500
  20
4551158.793
  30
777.7
  0
VERTEX
  8
PNOA-H_AMS_1956-57_33k_ES_PAN_21mic_H50_0451_fot_52B-10279_W_tif
  70
32
  10
232311.000
  20
4551157.793
  30
777.9
  0
VERTEX
  8
PNOA-H_AMS_1956-57_33k_ES_PAN_21mic_H50_0451_fot_52B-10279_W_tif
  70
32
  10
232169.031
  20
4550822.677
  30
786.657
  0
VERTEX
  8
PNOA-H_AMS_1956-57_33k_ES_PAN_21mic_H50_0451_fot_52B-10279_W_tif
  70
32
  10
232245.225
  20
4552905.080
  30
771.64
  0
SEQEND
  8
PNOA-H_AMS_1956-57_33k_ES_PAN_21mic_H50_0451_fot_52B-10279_W_tif
  0
TEXT
  8
PNOA-H_AMS_1956-57_33k_ES_PAN_21mic_H50_0451_fot_52B-10279_W_tif
 62
0
  1
PNOA-H_AMS_1956-57_33k_ES_PAN_21mic_H50_0451_fot_52B-10279_W.tif
 40
41.56763
  10
232938.515
  20
4552818.735
  0
POLYLINE
  8
PNOA-H_AMS_1956-57_33k_ES_PAN_21mic_H50_0450_fot_53A-25879_W_tif
  70
9
  66
1
  0
VERTEX
  8
PNOA-H_AMS_1956-57_33k_ES_PAN_21mic_H50_0450_fot_53A-25879_W_tif
  70
32
  10
232147.399
  20
4550231.344
  30
798.339
  0
VERTEX
  8
PNOA-H_AMS_1956-57_33k_ES_PAN_21mic_H50_0450_fot_53A-25879_W_tif
  70
32
  10
233684.000
  20
4549922.793
  30
779
  0
VERTEX
  8
PNOA-H_AMS_1956-57_33k_ES_PAN_21mic_H50_0450_fot_53A-25879_W_tif
  70
32
  10
233300.500
  20
4545732.293
  30
822
  0
VERTEX
  8
PNOA-H_AMS_1956-57_33k_ES_PAN_21mic_H50_0450_fot_53A-25879_W_tif
  70
32
  10
233246.000
  20
4545699.293
  30
820
  0
VERTEX
  8
PNOA-H_AMS_1956-57_33k_ES_PAN_21mic_H50_0450_fot_53A-25879_W_tif
  70
32
  10
233243.500
  20
4545698.793
  30
820
  0
VERTEX
  8
PNOA-H_AMS_1956-57_33k_ES_PAN_21mic_H50_0450_fot_53A-25879_W_tif
  70
32
  10
231985.363
  20
4545799.902
  30
826.2
  0
VERTEX
  8
PNOA-H_AMS_1956-57_33k_ES_PAN_21mic_H50_0450_fot_53A-25879_W_tif
  70
32
  10
231991.412
  20
4545965.433
  30
826.236
  0
VERTEX
  8
PNOA-H_AMS_1956-57_33k_ES_PAN_21mic_H50_0450_fot_53A-25879_W_tif
  70
32
  10
232075.981
  20
4548278.643
  30
839.401
  0
SEQEND
  8
PNOA-H_AMS_1956-57_33k_ES_PAN_21mic_H50_0450_fot_53A-25879_W_tif
  0
TEXT
  8
PNOA-H_AMS_1956-57_33k_ES_PAN_21mic_H50_0450_fot_53A-25879_W_tif
 62
0
  1
PNOA-H_AMS_1956-57_33k_ES_PAN_21mic_H50_0450_fot_53A-25879_W.tif
 40
41.56763
  10
232159.933
  20
4548016.043
  0
POLYLINE
  8
PNOA-H_AMS_1956-57_33k_ES_PAN_21mic_H50_0450_fot_52A-25923_E_tif
  70
9
  66
1
  0
VERTEX
  8
PNOA-H_AMS_1956-57_33k_ES_PAN_21mic_H50_0450_fot_52A-25923_E_tif
  70
32
  10
232169.025
  20
4550822.519
  30
796.134
  0
VERTEX
  8
PNOA-H_AMS_1956-57_33k_ES_PAN_21mic_H50_0450_fot_52A-25923_E_tif
  70
32
  10
233708.000
  20
4554449.793
  30
764
  0
VERTEX
  8
PNOA-H_AMS_1956-57_33k_ES_PAN_21mic_H50_0450_fot_52A-25923_E_tif
  70
32
  10
233708.000
  20
4554450.793
  30
764
  0
VERTEX
  8
PNOA-H_AMS_1956-57_33k_ES_PAN_21mic_H50_0450_fot_52A-25923_E_tif
  70
32
  10
234222.500
  20
4554305.793
  30
749.35
  0
VERTEX
  8
PNOA-H_AMS_1956-57_33k_ES_PAN_21mic_H50_0450_fot_52A-25923_E_tif
  70
32
  10
234281.000
  20
4550578.293
  30
780
  0
VERTEX
  8
PNOA-H_AMS_1956-57_33k_ES_PAN_21mic_H50_0450_fot_52A-25923_E_tif
  70
32
  10
234281.000
  20
4550558.793
  30
780
  0
VERTEX
  8
PNOA-H_AMS_1956-57_33k_ES_PAN_21mic_H50_0450_fot_52A-25923_E_tif
  70
32
  10
234241.500
  20
4550122.793
  30
795
  0
VERTEX
  8
PNOA-H_AMS_1956-57_33k_ES_PAN_21mic_H50_0450_fot_52A-25923_E_tif
  70
32
  10
233695.500
  20
4549926.293
  30
778
  0
VERTEX
  8
PNOA-H_AMS_1956-57_33k_ES_PAN_21mic_H50_0450_fot_52A-25923_E_tif
  70
32
  10
233685.500
  20
4549922.793
  30
778.9
  0
VERTEX
  8
PNOA-H_AMS_1956-57_33k_ES_PAN_21mic_H50_0450_fot_52A-25923_E_tif
  70
32
  10
233681.500
  20
4549922.793
  30
779
  0
VERTEX
  8
PNOA-H_AMS_1956-57_33k_ES_PAN_21mic_H50_0450_fot_52A-25923_E_tif
  70
32
  10
232147.381
  20
4550230.848
  30
798.336
  0
VERTEX
  8
PNOA-H_AMS_1956-57_33k_ES_PAN_21mic_H50_0450_fot_52A-25923_E_tif
  70
32
  10
232160.585
  20
4550591.859
  30
797.893
  0
SEQEND
  8
PNOA-H_AMS_1956-57_33k_ES_PAN_21mic_H50_0450_fot_52A-25923_E_tif
  0
TEXT
  8
PNOA-H_AMS_1956-57_33k_ES_PAN_21mic_H50_0450_fot_52A-25923_E_tif
 62
0
  1
PNOA-H_AMS_1956-57_33k_ES_PAN_21mic_H50_0450_fot_52A-25923_E.tif
 40
41.56763
  10
233501.807
  20
4552186.793
  0
POLYLINE
  8
PNOA-H_AMS_1956-57_33k_ES_PAN_21mic_H50_0451_fot_51A-08839_E_tif
  70
9
  66
1
  0
VERTEX
  8
PNOA-H_AMS_1956-57_33k_ES_PAN_21mic_H50_0451_fot_51A-08839_E_tif
  70
32
  10
236954.500
  20
4558710.293
  30
749
  0
VERTEX
  8
PNOA-H_AMS_1956-57_33k_ES_PAN_21mic_H50_0451_fot_51A-08839_E_tif
  70
32
  10
238444.000
  20
4558407.793
  30
780.8
  0
VERTEX
  8
PNOA-H_AMS_1956-57_33k_ES_PAN_21mic_H50_0451_fot_51A-08839_E_tif
  70
32
  10
238444.500
  20
4558389.793
  30
780
  0
VERTEX
  8
PNOA-H_AMS_1956-57_33k_ES_PAN_21mic_H50_0451_fot_51A-08839_E_tif
  70
32
  10
238363.000
  20
4554648.293
  30
805
  0
VERTEX
  8
PNOA-H_AMS_1956-57_33k_ES_PAN_21mic_H50_0451_fot_51A-08839_E_tif
  70
32
  10
236862.000
  20
4554196.793
  30
801.06
  0
VERTEX
  8
PNOA-H_AMS_1956-57_33k_ES_PAN_21mic_H50_0451_fot_51A-08839_E_tif
  70
32
  10
235541.000
  20
4554712.793
  30
769
  0
VERTEX
  8
PNOA-H_AMS_1956-57_33k_ES_PAN_21mic_H50_0451_fot_51A-08839_E_tif
  70
32
  10
235539.500
  20
4554713.793
  30
769
  0
VERTEX
  8
PNOA-H_AMS_1956-57_33k_ES_PAN_21mic_H50_0451_fot_51A-08839_E_tif
  70
32
  10
235539.500
  20
4554731.293
  30
769
  0
VERTEX
  8
PNOA-H_AMS_1956-57_33k_ES_PAN_21mic_H50_0451_fot_51A-08839_E_tif
  70
32
  10
235633.000
  20
4558508.793
  30
744.12
  0
VERTEX
  8
PNOA-H_AMS_1956-57_33k_ES_PAN_21mic_H50_0451_fot_51A-08839_E_tif
  70
32
  10
236336.000
  20
4558835.793
  30
732
  0
VERTEX
  8
PNOA-H_AMS_1956-57_33k_ES_PAN_21mic_H50_0451_fot_51A-08839_E_tif
  70
32
  10
236952.500
  20
4558710.293
  30
749
  0
VERTEX
  8
PNOA-H_AMS_1956-57_33k_ES_PAN_21mic_H50_0451_fot_51A-08839_E_tif
  70
32
  10
236954.500
  20
4558710.293
  30
749
  0
SEQEND
  8
PNOA-H_AMS_1956-57_33k_ES_PAN_21mic_H50_0451_fot_51A-08839_E_tif
  0
TEXT
  8
PNOA-H_AMS_1956-57_33k_ES_PAN_21mic_H50_0451_fot_51A-08839_E_tif
 62
0
  1
PNOA-H_AMS_1956-57_33k_ES_PAN_21mic_H50_0451_fot_51A-08839_E.tif
 40
41.56763
  10
236993.686
  20
4556516.293
  0
POLYLINE
  8
PNOA-H_AMS_1956-57_33k_ES_PAN_21mic_H50_0451_fot_51A-08838_E_tif
  70
9
  66
1
  0
VERTEX
  8
PNOA-H_AMS_1956-57_33k_ES_PAN_21mic_H50_0451_fot_51A-08838_E_tif
  70
32
  10
232858.000
  20
4558470.293
  30
793
  0
VERTEX
  8
PNOA-H_AMS_1956-57_33k_ES_PAN_21mic_H50_0451_fot_51A-08838_E_tif
  70
32
  10
232858.000
  20
4558487.793
  30
793.46
  0
VERTEX
  8
PNOA-H_AMS_1956-57_33k_ES_PAN_21mic_H50_0451_fot_51A-08838_E_tif
  70
32
  10
232862.500
  20
4558643.793
  30
798
  0
VERTEX
  8
PNOA-H_AMS_1956-57_33k_ES_PAN_21mic_H50_0451_fot_51A-08838_E_tif
  70
32
  10
233292.000
  20
4558874.793
  30
790
  0
VERTEX
  8
PNOA-H_AMS_1956-57_33k_ES_PAN_21mic_H50_0451_fot_51A-08838_E_tif
  70
32
  10
235633.000
  20
4558508.793
  30
744.12
  0
VERTEX
  8
PNOA-H_AMS_1956-57_33k_ES_PAN_21mic_H50_0451_fot_51A-08838_E_tif
  70
32
  10
235539.500
  20
4554713.793
  30
769
  0
VERTEX
  8
PNOA-H_AMS_1956-57_33k_ES_PAN_21mic_H50_0451_fot_51A-08838_E_tif
  70
32
  10
234222.500
  20
4554305.793
  30
749.35
  0
VERTEX
  8
PNOA-H_AMS_1956-57_33k_ES_PAN_21mic_H50_0451_fot_51A-08838_E_tif
  70
32
  10
233706.000
  20
4554451.293
  30
764
  0
VERTEX
  8
PNOA-H_AMS_1956-57_33k_ES_PAN_21mic_H50_0451_fot_51A-08838_E_tif
  70
32
  10
232754.500
  20
4554814.293
  30
775
  0
SEQEND
  8
PNOA-H_AMS_1956-57_33k_ES_PAN_21mic_H50_0451_fot_51A-08838_E_tif
  0
TEXT
  8
PNOA-H_AMS_1956-57_33k_ES_PAN_21mic_H50_0451_fot_51A-08838_E_tif
 62
0
  1
PNOA-H_AMS_1956-57_33k_ES_PAN_21mic_H50_0451_fot_51A-08838_E.tif
 40
41.56763
  10
234195.255
  20
4556590.293
  0
POLYLINE
  8
PNOA-H_AMS_1956-57_33k_ES_PAN_21mic_H50_0451_fot_51A-08840_E_tif
  70
9
  66
1
  0
VERTEX
  8
PNOA-H_AMS_1956-57_33k_ES_PAN_21mic_H50_0451_fot_51A-08840_E_tif
  70
32
  10
239002.000
  20
4558654.293
  30
778.64
  0
VERTEX
  8
PNOA-H_AMS_1956-57_33k_ES_PAN_21mic_H50_0451_fot_51A-08840_E_tif
  70
32
  10
239294.500
  20
4558783.293
  30
781
  0
VERTEX
  8
PNOA-H_AMS_1956-57_33k_ES_PAN_21mic_H50_0451_fot_51A-08840_E_tif
  70
32
  10
241238.000
  20
4558350.793
  30
785
  0
VERTEX
  8
PNOA-H_AMS_1956-57_33k_ES_PAN_21mic_H50_0451_fot_51A-08840_E_tif
  70
32
  10
241132.500
  20
4554514.293
  30
780
  0
VERTEX
  8
PNOA-H_AMS_1956-57_33k_ES_PAN_21mic_H50_0451_fot_51A-08840_E_tif
  70
32
  10
239525.500
  20
4554156.793
  30
789
  0
VERTEX
  8
PNOA-H_AMS_1956-57_33k_ES_PAN_21mic_H50_0451_fot_51A-08840_E_tif
  70
32
  10
238363.000
  20
4554648.293
  30
805
  0
VERTEX
  8
PNOA-H_AMS_1956-57_33k_ES_PAN_21mic_H50_0451_fot_51A-08840_E_tif
  70
32
  10
238444.500
  20
4558407.293
  30
780.9
  0
VERTEX
  8
PNOA-H_AMS_1956-57_33k_ES_PAN_21mic_H50_0451_fot_51A-08840_E_tif
  70
32
  10
239000.500
  20
4558653.793
  30
778.37
  0
VERTEX
  8
PNOA-H_AMS_1956-57_33k_ES_PAN_21mic_H50_0451_fot_51A-08840_E_tif
  70
32
  10
239002.000
  20
4558654.293
  30
778.64
  0
SEQEND
  8
PNOA-H_AMS_1956-57_33k_ES_PAN_21mic_H50_0451_fot_51A-08840_E_tif
  0
TEXT
  8
PNOA-H_AMS_1956-57_33k_ES_PAN_21mic_H50_0451_fot_51A-08840_E_tif
 62
0
  1
PNOA-H_AMS_1956-57_33k_ES_PAN_21mic_H50_0451_fot_51A-08840_E.tif
 40
41.56763
  10
239794.390
  20
4556470.043
  0
POLYLINE
  8
PNOA-H_AMS_1956-57_33k_ES_PAN_21mic_H50_0451_fot_52A-25924_E_tif
  70
9
  66
1
  0
VERTEX
  8
PNOA-H_AMS_1956-57_33k_ES_PAN_21mic_H50_0451_fot_52A-25924_E_tif
  70
32
  10
236954.500
  20
4552766.293
  30
805
  0
VERTEX
  8
PNOA-H_AMS_1956-57_33k_ES_PAN_21mic_H50_0451_fot_52A-25924_E_tif
  70
32
  10
237180.500
  20
4549973.793
  30
825
  0
VERTEX
  8
PNOA-H_AMS_1956-57_33k_ES_PAN_21mic_H50_0451_fot_52A-25924_E_tif
  70
32
  10
236332.500
  20
4549678.293
  30
815
  0
VERTEX
  8
PNOA-H_AMS_1956-57_33k_ES_PAN_21mic_H50_0451_fot_52A-25924_E_tif
  70
32
  10
236327.000
  20
4549677.793
  30
815
  0
VERTEX
  8
PNOA-H_AMS_1956-57_33k_ES_PAN_21mic_H50_0451_fot_52A-25924_E_tif
  70
32
  10
234241.500
  20
4550122.793
  30
795
  0
VERTEX
  8
PNOA-H_AMS_1956-57_33k_ES_PAN_21mic_H50_0451_fot_52A-25924_E_tif
  70
32
  10
234280.500
  20
4550558.793
  30
780
  0
VERTEX
  8
PNOA-H_AMS_1956-57_33k_ES_PAN_21mic_H50_0451_fot_52A-25924_E_tif
  70
32
  10
234282.000
  20
4550563.293
  30
780
  0
VERTEX
  8
PNOA-H_AMS_1956-57_33k_ES_PAN_21mic_H50_0451_fot_52A-25924_E_tif
  70
32
  10
236854.500
  20
4554000.293
  30
802
  0
VERTEX
  8
PNOA-H_AMS_1956-57_33k_ES_PAN_21mic_H50_0451_fot_52A-25924_E_tif
  70
32
  10
236954.500
  20
4552772.293
  30
805
  0
VERTEX
  8
PNOA-H_AMS_1956-57_33k_ES_PAN_21mic_H50_0451_fot_52A-25924_E_tif
  70
32
  10
236954.500
  20
4552766.293
  30
805
  0
SEQEND
  8
PNOA-H_AMS_1956-57_33k_ES_PAN_21mic_H50_0451_fot_52A-25924_E_tif
  0
TEXT
  8
PNOA-H_AMS_1956-57_33k_ES_PAN_21mic_H50_0451_fot_52A-25924_E_tif
 62
0
  1
PNOA-H_AMS_1956-57_33k_ES_PAN_21mic_H50_0451_fot_52A-25924_E.tif
 40
41.56763
  10
236133.204
  20
4551839.043
  0
POLYLINE
  8
PNOA-H_AMS_1956-57_33k_ES_PAN_21mic_H50_0451_fot_52B-10276_W_tif
  70
9
  66
1
  0
VERTEX
  8
PNOA-H_AMS_1956-57_33k_ES_PAN_21mic_H50_0451_fot_52B-10276_W_tif
  70
32
  10
241131.000
  20
4554514.293
  30
780
  0
VERTEX
  8
PNOA-H_AMS_1956-57_33k_ES_PAN_21mic_H50_0451_fot_52B-10276_W_tif
  70
32
  10
241133.500
  20
4554514.293
  30
780
  0
VERTEX
  8
PNOA-H_AMS_1956-57_33k_ES_PAN_21mic_H50_0451_fot_52B-10276_W_tif
  70
32
  10
241141.500
  20
4554510.793
  30
780
  0
VERTEX
  8
PNOA-H_AMS_1956-57_33k_ES_PAN_21mic_H50_0451_fot_52B-10276_W_tif
  70
32
  10
242226.500
  20
4554022.793
  30
747
  0
VERTEX
  8
PNOA-H_AMS_1956-57_33k_ES_PAN_21mic_H50_0451_fot_52B-10276_W_tif
  70
32
  10
241946.000
  20
4549725.293
  30
755
  0
VERTEX
  8
PNOA-H_AMS_1956-57_33k_ES_PAN_21mic_H50_0451_fot_52B-10276_W_tif
  70
32
  10
241722.000
  20
4549630.793
  30
755.4
  0
VERTEX
  8
PNOA-H_AMS_1956-57_33k_ES_PAN_21mic_H50_0451_fot_52B-10276_W_tif
  70
32
  10
239355.000
  20
4549861.293
  30
800
  0
VERTEX
  8
PNOA-H_AMS_1956-57_33k_ES_PAN_21mic_H50_0451_fot_52B-10276_W_tif
  70
32
  10
239526.000
  20
4554156.793
  30
789
  0
VERTEX
  8
PNOA-H_AMS_1956-57_33k_ES_PAN_21mic_H50_0451_fot_52B-10276_W_tif
  70
32
  10
241128.500
  20
4554513.793
  30
780
  0
VERTEX
  8
PNOA-H_AMS_1956-57_33k_ES_PAN_21mic_H50_0451_fot_52B-10276_W_tif
  70
32
  10
241131.000
  20
4554514.293
  30
780
  0
SEQEND
  8
PNOA-H_AMS_1956-57_33k_ES_PAN_21mic_H50_0451_fot_52B-10276_W_tif
  0
TEXT
  8
PNOA-H_AMS_1956-57_33k_ES_PAN_21mic_H50_0451_fot_52B-10276_W_tif
 62
0
  1
PNOA-H_AMS_1956-57_33k_ES_PAN_21mic_H50_0451_fot_52B-10276_W.tif
 40
41.56763
  10
240771.117
  20
4552072.543
  0
POLYLINE
  8
PNOA-H_AMS_1956-57_33k_ES_PAN_21mic_H50_0451_fot_52B-10277_W_tif
  70
9
  66
1
  0
VERTEX
  8
PNOA-H_AMS_1956-57_33k_ES_PAN_21mic_H50_0451_fot_52B-10277_W_tif
  70
32
  10
236953.500
  20
4554224.793
  30
797
  0
VERTEX
  8
PNOA-H_AMS_1956-57_33k_ES_PAN_21mic_H50_0451_fot_52B-10277_W_tif
  70
32
  10
238363.500
  20
4554648.293
  30
805
  0
VERTEX
  8
PNOA-H_AMS_1956-57_33k_ES_PAN_21mic_H50_0451_fot_52B-10277_W_tif
  70
32
  10
239526.000
  20
4554156.793
  30
789
  0
VERTEX
  8
PNOA-H_AMS_1956-57_33k_ES_PAN_21mic_H50_0451_fot_52B-10277_W_tif
  70
32
  10
239355.000
  20
4549861.293
  30
800
  0
VERTEX
  8
PNOA-H_AMS_1956-57_33k_ES_PAN_21mic_H50_0451_fot_52B-10277_W_tif
  70
32
  10
239025.000
  20
4549729.793
  30
804
  0
VERTEX
  8
PNOA-H_AMS_1956-57_33k_ES_PAN_21mic_H50_0451_fot_52B-10277_W_tif
  70
32
  10
239019.500
  20
4549729.293
  30
804
  0
VERTEX
  8
PNOA-H_AMS_1956-57_33k_ES_PAN_21mic_H50_0451_fot_52B-10277_W_tif
  70
32
  10
237180.500
  20
4549973.793
  30
825
  0
VERTEX
  8
PNOA-H_AMS_1956-57_33k_ES_PAN_21mic_H50_0451_fot_52B-10277_W_tif
  70
32
  10
236855.000
  20
4553995.793
  30
802
  0
VERTEX
  8
PNOA-H_AMS_1956-57_33k_ES_PAN_21mic_H50_0451_fot_52B-10277_W_tif
  70
32
  10
236861.500
  20
4554196.793
  30
801.07
  0
VERTEX
  8
PNOA-H_AMS_1956-57_33k_ES_PAN_21mic_H50_0451_fot_52B-10277_W_tif
  70
32
  10
236952.000
  20
4554224.293
  30
797
  0
VERTEX
  8
PNOA-H_AMS_1956-57_33k_ES_PAN_21mic_H50_0451_fot_52B-10277_W_tif
  70
32
  10
236953.500
  20
4554224.793
  30
797
  0
SEQEND
  8
PNOA-H_AMS_1956-57_33k_ES_PAN_21mic_H50_0451_fot_52B-10277_W_tif
  0
TEXT
  8
PNOA-H_AMS_1956-57_33k_ES_PAN_21mic_H50_0451_fot_52B-10277_W_tif
 62
0
  1
PNOA-H_AMS_1956-57_33k_ES_PAN_21mic_H50_0451_fot_52B-10277_W.tif
 40
41.56763
  10
238224.448
  20
4552188.793
  0
POLYLINE
  8
PNOA-H_AMS_1956-57_33k_ES_PAN_21mic_H50_0451_fot_52B-10278_W_tif
  70
9
  66
1
  0
VERTEX
  8
PNOA-H_AMS_1956-57_33k_ES_PAN_21mic_H50_0451_fot_52B-10278_W_tif
  70
32
  10
234727.000
  20
4551157.793
  30
784.04
  0
VERTEX
  8
PNOA-H_AMS_1956-57_33k_ES_PAN_21mic_H50_0451_fot_52B-10278_W_tif
  70
32
  10
234281.000
  20
4550561.793
  30
780
  0
VERTEX
  8
PNOA-H_AMS_1956-57_33k_ES_PAN_21mic_H50_0451_fot_52B-10278_W_tif
  70
32
  10
234222.500
  20
4554306.293
  30
749.4
  0
VERTEX
  8
PNOA-H_AMS_1956-57_33k_ES_PAN_21mic_H50_0451_fot_52B-10278_W_tif
  70
32
  10
235540.000
  20
4554713.793
  30
769
  0
VERTEX
  8
PNOA-H_AMS_1956-57_33k_ES_PAN_21mic_H50_0451_fot_52B-10278_W_tif
  70
32
  10
236861.500
  20
4554197.293
  30
801
  0
VERTEX
  8
PNOA-H_AMS_1956-57_33k_ES_PAN_21mic_H50_0451_fot_52B-10278_W_tif
  70
32
  10
236855.500
  20
4554011.293
  30
802
  0
VERTEX
  8
PNOA-H_AMS_1956-57_33k_ES_PAN_21mic_H50_0451_fot_52B-10278_W_tif
  70
32
  10
236855.000
  20
4554000.293
  30
802
  0
VERTEX
  8
PNOA-H_AMS_1956-57_33k_ES_PAN_21mic_H50_0451_fot_52B-10278_W_tif
  70
32
  10
236854.000
  20
4553998.793
  30
802
  0
VERTEX
  8
PNOA-H_AMS_1956-57_33k_ES_PAN_21mic_H50_0451_fot_52B-10278_W_tif
  70
32
  10
234728.000
  20
4551158.293
  30
784.12
  0
VERTEX
  8
PNOA-H_AMS_1956-57_33k_ES_PAN_21mic_H50_0451_fot_52B-10278_W_tif
  70
32
  10
234727.000
  20
4551157.793
  30
784.04
  0
SEQEND
  8
PNOA-H_AMS_1956-57_33k_ES_PAN_21mic_H50_0451_fot_52B-10278_W_tif
  0
TEXT
  8
PNOA-H_AMS_1956-57_33k_ES_PAN_21mic_H50_0451_fot_52B-10278_W_tif
 62
0
  1
PNOA-H_AMS_1956-57_33k_ES_PAN_21mic_H50_0451_fot_52B-10278_W.tif
 40
41.56763
  10
235041.957
  20
4552637.793
  0
POLYLINE
  8
PNOA-H_AMS_1956-57_33k_ES_PAN_21mic_H50_0451_fot_53A-25878_W_tif
  70
9
  66
1
  0
VERTEX
  8
PNOA-H_AMS_1956-57_33k_ES_PAN_21mic_H50_0451_fot_53A-25878_W_tif
  70
32
  10
233684.000
  20
4549922.793
  30
779
  0
VERTEX
  8
PNOA-H_AMS_1956-57_33k_ES_PAN_21mic_H50_0451_fot_53A-25878_W_tif
  70
32
  10
234241.000
  20
4550122.793
  30
795
  0
VERTEX
  8
PNOA-H_AMS_1956-57_33k_ES_PAN_21mic_H50_0451_fot_53A-25878_W_tif
  70
32
  10
234903.500
  20
4549981.293
  30
802
  0
VERTEX
  8
PNOA-H_AMS_1956-57_33k_ES_PAN_21mic_H50_0451_fot_53A-25878_W_tif
  70
32
  10
234906.500
  20
4549980.793
  30
802
  0
VERTEX
  8
PNOA-H_AMS_1956-57_33k_ES_PAN_21mic_H50_0451_fot_53A-25878_W_tif
  70
32
  10
236329.500
  20
4549677.793
  30
815
  0
VERTEX
  8
PNOA-H_AMS_1956-57_33k_ES_PAN_21mic_H50_0451_fot_53A-25878_W_tif
  70
32
  10
236024.500
  20
4545644.793
  30
828.05
  0
VERTEX
  8
PNOA-H_AMS_1956-57_33k_ES_PAN_21mic_H50_0451_fot_53A-25878_W_tif
  70
32
  10
235928.500
  20
4545580.793
  30
830
  0
VERTEX
  8
PNOA-H_AMS_1956-57_33k_ES_PAN_21mic_H50_0451_fot_53A-25878_W_tif
  70
32
  10
235921.500
  20
4545580.793
  30
830
  0
VERTEX
  8
PNOA-H_AMS_1956-57_33k_ES_PAN_21mic_H50_0451_fot_53A-25878_W_tif
  70
32
  10
233304.000
  20
4545732.293
  30
822
  0
VERTEX
  8
PNOA-H_AMS_1956-57_33k_ES_PAN_21mic_H50_0451_fot_53A-25878_W_tif
  70
32
  10
233301.000
  20
4545732.793
  30
822
  0
VERTEX
  8
PNOA-H_AMS_1956-57_33k_ES_PAN_21mic_H50_0451_fot_53A-25878_W_tif
  70
32
  10
233301.000
  20
4545736.793
  30
822
  0
SEQEND
  8
PNOA-H_AMS_1956-57_33k_ES_PAN_21mic_H50_0451_fot_53A-25878_W_tif
  0
TEXT
  8
PNOA-H_AMS_1956-57_33k_ES_PAN_21mic_H50_0451_fot_53A-25878_W_tif
 62
0
  1
PNOA-H_AMS_1956-57_33k_ES_PAN_21mic_H50_0451_fot_53A-25878_W.tif
 40
41.56763
  10
234842.960
  20
4547851.793
  0
POLYLINE
  8
PNOA-H_AMS_1956-57_33k_ES_PAN_21mic_H50_0451_fot_53A-25876_W_tif
  70
9
  66
1
  0
VERTEX
  8
PNOA-H_AMS_1956-57_33k_ES_PAN_21mic_H50_0451_fot_53A-25876_W_tif
  70
32
  10
239002.000
  20
4549400.793
  30
809.72
  0
VERTEX
  8
PNOA-H_AMS_1956-57_33k_ES_PAN_21mic_H50_0451_fot_53A-25876_W_tif
  70
32
  10
239022.500
  20
4549729.293
  30
804
  0
VERTEX
  8
PNOA-H_AMS_1956-57_33k_ES_PAN_21mic_H50_0451_fot_53A-25876_W_tif
  70
32
  10
239354.000
  20
4549861.293
  30
800
  0
VERTEX
  8
PNOA-H_AMS_1956-57_33k_ES_PAN_21mic_H50_0451_fot_53A-25876_W_tif
  70
32
  10
241721.000
  20
4549630.793
  30
755.2
  0
VERTEX
  8
PNOA-H_AMS_1956-57_33k_ES_PAN_21mic_H50_0451_fot_53A-25876_W_tif
  70
32
  10
241506.000
  20
4545432.293
  30
832
  0
VERTEX
  8
PNOA-H_AMS_1956-57_33k_ES_PAN_21mic_H50_0451_fot_53A-25876_W_tif
  70
32
  10
238763.500
  20
4545559.793
  30
826
  0
VERTEX
  8
PNOA-H_AMS_1956-57_33k_ES_PAN_21mic_H50_0451_fot_53A-25876_W_tif
  70
32
  10
239002.000
  20
4549392.793
  30
810
  0
VERTEX
  8
PNOA-H_AMS_1956-57_33k_ES_PAN_21mic_H50_0451_fot_53A-25876_W_tif
  70
32
  10
239002.000
  20
4549400.793
  30
809.72
  0
SEQEND
  8
PNOA-H_AMS_1956-57_33k_ES_PAN_21mic_H50_0451_fot_53A-25876_W_tif
  0
TEXT
  8
PNOA-H_AMS_1956-57_33k_ES_PAN_21mic_H50_0451_fot_53A-25876_W_tif
 62
0
  1
PNOA-H_AMS_1956-57_33k_ES_PAN_21mic_H50_0451_fot_53A-25876_W.tif
 40
41.56763
  10
240256.380
  20
4547646.793
  0
POLYLINE
  8
PNOA-H_AMS_1956-57_33k_ES_PAN_21mic_H50_0451_fot_53A-25877_W_tif
  70
9
  66
1
  0
VERTEX
  8
PNOA-H_AMS_1956-57_33k_ES_PAN_21mic_H50_0451_fot_53A-25877_W_tif
  70
32
  10
239002.500
  20
4549731.793
  30
804
  0
VERTEX
  8
PNOA-H_AMS_1956-57_33k_ES_PAN_21mic_H50_0451_fot_53A-25877_W_tif
  70
32
  10
239022.500
  20
4549729.293
  30
804
  0
VERTEX
  8
PNOA-H_AMS_1956-57_33k_ES_PAN_21mic_H50_0451_fot_53A-25877_W_tif
  70
32
  10
239022.500
  20
4549723.293
  30
804
  0
VERTEX
  8
PNOA-H_AMS_1956-57_33k_ES_PAN_21mic_H50_0451_fot_53A-25877_W_tif
  70
32
  10
238764.000
  20
4545560.293
  30
826
  0
VERTEX
  8
PNOA-H_AMS_1956-57_33k_ES_PAN_21mic_H50_0451_fot_53A-25877_W_tif
  70
32
  10
238713.000
  20
4545522.793
  30
825.4
  0
VERTEX
  8
PNOA-H_AMS_1956-57_33k_ES_PAN_21mic_H50_0451_fot_53A-25877_W_tif
  70
32
  10
236033.500
  20
4545644.293
  30
828
  0
VERTEX
  8
PNOA-H_AMS_1956-57_33k_ES_PAN_21mic_H50_0451_fot_53A-25877_W_tif
  70
32
  10
236024.500
  20
4545644.793
  30
828.05
  0
VERTEX
  8
PNOA-H_AMS_1956-57_33k_ES_PAN_21mic_H50_0451_fot_53A-25877_W_tif
  70
32
  10
236024.500
  20
4545648.793
  30
828
  0
VERTEX
  8
PNOA-H_AMS_1956-57_33k_ES_PAN_21mic_H50_0451_fot_53A-25877_W_tif
  70
32
  10
236329.500
  20
4549677.793
  30
815
  0
VERTEX
  8
PNOA-H_AMS_1956-57_33k_ES_PAN_21mic_H50_0451_fot_53A-25877_W_tif
  70
32
  10
237179.500
  20
4549973.793
  30
825
  0
VERTEX
  8
PNOA-H_AMS_1956-57_33k_ES_PAN_21mic_H50_0451_fot_53A-25877_W_tif
  70
32
  10
239001.000
  20
4549731.793
  30
804
  0
VERTEX
  8
PNOA-H_AMS_1956-57_33k_ES_PAN_21mic_H50_0451_fot_53A-25877_W_tif
  70
32
  10
239002.500
  20
4549731.793
  30
804
  0
SEQEND
  8
PNOA-H_AMS_1956-57_33k_ES_PAN_21mic_H50_0451_fot_53A-25877_W_tif
  0
TEXT
  8
PNOA-H_AMS_1956-57_33k_ES_PAN_21mic_H50_0451_fot_53A-25877_W_tif
 62
0
  1
PNOA-H_AMS_1956-57_33k_ES_PAN_21mic_H50_0451_fot_53A-25877_W.tif
 40
41.56763
  10
237541.649
  20
4547748.293
  0
POLYLINE
  8
PNOA-H_AMS_1956-57_33k_ES_PAN_21mic_H50_0450_fot_54A-29164_W_tif
  70
9
  66
1
  0
VERTEX
  8
PNOA-H_AMS_1956-57_33k_ES_PAN_21mic_H50_0450_fot_54A-29164_W_tif
  70
32
  10
233204.276
  20
4543605.138
  30
811.273
  0
VERTEX
  8
PNOA-H_AMS_1956-57_33k_ES_PAN_21mic_H50_0450_fot_54A-29164_W_tif
  70
32
  10
231906.879
  20
4543652.229
  30
811.364
  0
VERTEX
  8
PNOA-H_AMS_1956-57_33k_ES_PAN_21mic_H50_0450_fot_54A-29164_W_tif
  70
32
  10
231985.365
  20
4545799.965
  30
826.204
  0
VERTEX
  8
PNOA-H_AMS_1956-57_33k_ES_PAN_21mic_H50_0450_fot_54A-29164_W_tif
  70
32
  10
233245.000
  20
4545698.793
  30
820
  0
SEQEND
  8
PNOA-H_AMS_1956-57_33k_ES_PAN_21mic_H50_0450_fot_54A-29164_W_tif
  0
TEXT
  8
PNOA-H_AMS_1956-57_33k_ES_PAN_21mic_H50_0450_fot_54A-29164_W_tif
 62
0
  1
PNOA-H_AMS_1956-57_33k_ES_PAN_21mic_H50_0450_fot_54A-29164_W.tif
 40
41.56763
  10
232575.940
  20
4544702.552
  0
POLYLINE
  8
PNOA-H_AMS_1956-57_33k_ES_PAN_21mic_H50_0451_fot_54A-29162_W_tif
  70
9
  66
1
  0
VERTEX
  8
PNOA-H_AMS_1956-57_33k_ES_PAN_21mic_H50_0451_fot_54A-29162_W_tif
  70
32
  10
238710.157
  20
4543406.871
  30
822.091
  0
VERTEX
  8
PNOA-H_AMS_1956-57_33k_ES_PAN_21mic_H50_0451_fot_54A-29162_W_tif
  70
32
  10
235976.354
  20
4543504.791
  30
826.528
  0
VERTEX
  8
PNOA-H_AMS_1956-57_33k_ES_PAN_21mic_H50_0451_fot_54A-29162_W_tif
  70
32
  10
235928.000
  20
4545580.793
  30
830
  0
VERTEX
  8
PNOA-H_AMS_1956-57_33k_ES_PAN_21mic_H50_0451_fot_54A-29162_W_tif
  70
32
  10
236024.000
  20
4545644.793
  30
828.1
  0
VERTEX
  8
PNOA-H_AMS_1956-57_33k_ES_PAN_21mic_H50_0451_fot_54A-29162_W_tif
  70
32
  10
236948.500
  20
4545602.793
  30
823
  0
VERTEX
  8
PNOA-H_AMS_1956-57_33k_ES_PAN_21mic_H50_0451_fot_54A-29162_W_tif
  70
32
  10
236954.500
  20
4545602.793
  30
823.09
  0
VERTEX
  8
PNOA-H_AMS_1956-57_33k_ES_PAN_21mic_H50_0451_fot_54A-29162_W_tif
  70
32
  10
238713.000
  20
4545522.793
  30
825.4
  0
SEQEND
  8
PNOA-H_AMS_1956-57_33k_ES_PAN_21mic_H50_0451_fot_54A-29162_W_tif
  0
TEXT
  8
PNOA-H_AMS_1956-57_33k_ES_PAN_21mic_H50_0451_fot_54A-29162_W_tif
 62
0
  1
PNOA-H_AMS_1956-57_33k_ES_PAN_21mic_H50_0451_fot_54A-29162_W.tif
 40
41.56763
  10
237320.500
  20
4544525.832
  0
POLYLINE
  8
PNOA-H_AMS_1956-57_33k_ES_PAN_21mic_H50_0451_fot_54A-29163_W_tif
  70
9
  66
1
  0
VERTEX
  8
PNOA-H_AMS_1956-57_33k_ES_PAN_21mic_H50_0451_fot_54A-29163_W_tif
  70
32
  10
235976.354
  20
4543504.791
  30
826.528
  0
VERTEX
  8
PNOA-H_AMS_1956-57_33k_ES_PAN_21mic_H50_0451_fot_54A-29163_W_tif
  70
32
  10
235411.863
  20
4543525.010
  30
826.584
  0
VERTEX
  8
PNOA-H_AMS_1956-57_33k_ES_PAN_21mic_H50_0451_fot_54A-29163_W_tif
  70
32
  10
233204.508
  20
4543605.130
  30
811.271
  0
VERTEX
  8
PNOA-H_AMS_1956-57_33k_ES_PAN_21mic_H50_0451_fot_54A-29163_W_tif
  70
32
  10
233245.000
  20
4545699.293
  30
820
  0
VERTEX
  8
PNOA-H_AMS_1956-57_33k_ES_PAN_21mic_H50_0451_fot_54A-29163_W_tif
  70
32
  10
233299.500
  20
4545732.293
  30
822
  0
VERTEX
  8
PNOA-H_AMS_1956-57_33k_ES_PAN_21mic_H50_0451_fot_54A-29163_W_tif
  70
32
  10
233304.000
  20
4545732.793
  30
822
  0
VERTEX
  8
PNOA-H_AMS_1956-57_33k_ES_PAN_21mic_H50_0451_fot_54A-29163_W_tif
  70
32
  10
234902.000
  20
4545639.793
  30
822
  0
VERTEX
  8
PNOA-H_AMS_1956-57_33k_ES_PAN_21mic_H50_0451_fot_54A-29163_W_tif
  70
32
  10
234906.500
  20
4545639.793
  30
822
  0
VERTEX
  8
PNOA-H_AMS_1956-57_33k_ES_PAN_21mic_H50_0451_fot_54A-29163_W_tif
  70
32
  10
235928.000
  20
4545580.793
  30
830
  0
SEQEND
  8
PNOA-H_AMS_1956-57_33k_ES_PAN_21mic_H50_0451_fot_54A-29163_W_tif
  0
TEXT
  8
PNOA-H_AMS_1956-57_33k_ES_PAN_21mic_H50_0451_fot_54A-29163_W_tif
 62
0
  1
PNOA-H_AMS_1956-57_33k_ES_PAN_21mic_H50_0451_fot_54A-29163_W.tif
 40
41.56763
  10
234590.431
  20
4544618.792
  0
POLYLINE
  8
PNOA-H_AMS_1956-57_33k_ES_PAN_21mic_H50_0451_fot_54A-29161_W_tif
  70
9
  66
1
  0
VERTEX
  8
PNOA-H_AMS_1956-57_33k_ES_PAN_21mic_H50_0451_fot_54A-29161_W_tif
  70
32
  10
241475.629
  20
4543309.041
  30
838.412
  0
VERTEX
  8
PNOA-H_AMS_1956-57_33k_ES_PAN_21mic_H50_0451_fot_54A-29161_W_tif
  70
32
  10
238916.826
  20
4543399.468
  30
822.08
  0
VERTEX
  8
PNOA-H_AMS_1956-57_33k_ES_PAN_21mic_H50_0451_fot_54A-29161_W_tif
  70
32
  10
238710.156
  20
4543406.871
  30
822.091
  0
VERTEX
  8
PNOA-H_AMS_1956-57_33k_ES_PAN_21mic_H50_0451_fot_54A-29161_W_tif
  70
32
  10
238713.000
  20
4545523.293
  30
825.4
  0
VERTEX
  8
PNOA-H_AMS_1956-57_33k_ES_PAN_21mic_H50_0451_fot_54A-29161_W_tif
  70
32
  10
238763.000
  20
4545558.793
  30
826
  0
VERTEX
  8
PNOA-H_AMS_1956-57_33k_ES_PAN_21mic_H50_0451_fot_54A-29161_W_tif
  70
32
  10
238763.500
  20
4545559.793
  30
826
  0
VERTEX
  8
PNOA-H_AMS_1956-57_33k_ES_PAN_21mic_H50_0451_fot_54A-29161_W_tif
  70
32
  10
241503.000
  20
4545432.793
  30
832
  0
VERTEX
  8
PNOA-H_AMS_1956-57_33k_ES_PAN_21mic_H50_0451_fot_54A-29161_W_tif
  70
32
  10
241506.500
  20
4545432.293
  30
832
  0
VERTEX
  8
PNOA-H_AMS_1956-57_33k_ES_PAN_21mic_H50_0451_fot_54A-29161_W_tif
  70
32
  10
241564.500
  20
4545381.293
  30
830.1
  0
SEQEND
  8
PNOA-H_AMS_1956-57_33k_ES_PAN_21mic_H50_0451_fot_54A-29161_W_tif
  0
TEXT
  8
PNOA-H_AMS_1956-57_33k_ES_PAN_21mic_H50_0451_fot_54A-29161_W_tif
 62
0
  1
PNOA-H_AMS_1956-57_33k_ES_PAN_21mic_H50_0451_fot_54A-29161_W.tif
 40
41.56763
  10
240094.104
  20
4543366.793
  0
POLYLINE
  8
PNOA-H_AMS_1956-57_33k_ES_PAN_21mic_H50_0451_fot_51A-08841_E_tif
  70
9
  66
1
  0
VERTEX
  8
PNOA-H_AMS_1956-57_33k_ES_PAN_21mic_H50_0451_fot_51A-08841_E_tif
  70
32
  10
243098.500
  20
4558471.293
  30
747.3
  0
VERTEX
  8
PNOA-H_AMS_1956-57_33k_ES_PAN_21mic_H50_0451_fot_51A-08841_E_tif
  70
32
  10
244001.000
  20
4558224.293
  30
740.12
  0
VERTEX
  8
PNOA-H_AMS_1956-57_33k_ES_PAN_21mic_H50_0451_fot_51A-08841_E_tif
  70
32
  10
243897.500
  20
4554404.793
  30
735
  0
VERTEX
  8
PNOA-H_AMS_1956-57_33k_ES_PAN_21mic_H50_0451_fot_51A-08841_E_tif
  70
32
  10
242227.000
  20
4554022.293
  30
747
  0
VERTEX
  8
PNOA-H_AMS_1956-57_33k_ES_PAN_21mic_H50_0451_fot_51A-08841_E_tif
  70
32
  10
241132.500
  20
4554514.293
  30
780
  0
VERTEX
  8
PNOA-H_AMS_1956-57_33k_ES_PAN_21mic_H50_0451_fot_51A-08841_E_tif
  70
32
  10
241238.000
  20
4558351.293
  30
785
  0
VERTEX
  8
PNOA-H_AMS_1956-57_33k_ES_PAN_21mic_H50_0451_fot_51A-08841_E_tif
  70
32
  10
242198.000
  20
4558717.793
  30
784.94
  0
VERTEX
  8
PNOA-H_AMS_1956-57_33k_ES_PAN_21mic_H50_0451_fot_51A-08841_E_tif
  70
32
  10
243097.500
  20
4558471.293
  30
747.5
  0
VERTEX
  8
PNOA-H_AMS_1956-57_33k_ES_PAN_21mic_H50_0451_fot_51A-08841_E_tif
  70
32
  10
243098.500
  20
4558471.293
  30
747.3
  0
SEQEND
  8
PNOA-H_AMS_1956-57_33k_ES_PAN_21mic_H50_0451_fot_51A-08841_E_tif
  0
TEXT
  8
PNOA-H_AMS_1956-57_33k_ES_PAN_21mic_H50_0451_fot_51A-08841_E_tif
 62
0
  1
PNOA-H_AMS_1956-57_33k_ES_PAN_21mic_H50_0451_fot_51A-08841_E.tif
 40
41.56763
  10
242567.139
  20
4556370.043
  0
POLYLINE
  8
PNOA-H_AMS_1956-57_33k_ES_PAN_21mic_H50_0451_fot_51A-08842_E_tif
  70
9
  66
1
  0
VERTEX
  8
PNOA-H_AMS_1956-57_33k_ES_PAN_21mic_H50_0451_fot_51A-08842_E_tif
  70
32
  10
245146.500
  20
4558520.293
  30
752
  0
VERTEX
  8
PNOA-H_AMS_1956-57_33k_ES_PAN_21mic_H50_0451_fot_51A-08842_E_tif
  70
32
  10
246804.500
  20
4558141.793
  30
783.99
  0
VERTEX
  8
PNOA-H_AMS_1956-57_33k_ES_PAN_21mic_H50_0451_fot_51A-08842_E_tif
  70
32
  10
246780.000
  20
4554325.793
  30
752.7
  0
VERTEX
  8
PNOA-H_AMS_1956-57_33k_ES_PAN_21mic_H50_0451_fot_51A-08842_E_tif
  70
32
  10
244904.000
  20
4553938.293
  30
757.8
  0
VERTEX
  8
PNOA-H_AMS_1956-57_33k_ES_PAN_21mic_H50_0451_fot_51A-08842_E_tif
  70
32
  10
243897.500
  20
4554404.793
  30
735
  0
VERTEX
  8
PNOA-H_AMS_1956-57_33k_ES_PAN_21mic_H50_0451_fot_51A-08842_E_tif
  70
32
  10
244000.500
  20
4558216.293
  30
741.02
  0
VERTEX
  8
PNOA-H_AMS_1956-57_33k_ES_PAN_21mic_H50_0451_fot_51A-08842_E_tif
  70
32
  10
244001.000
  20
4558224.293
  30
740.12
  0
VERTEX
  8
PNOA-H_AMS_1956-57_33k_ES_PAN_21mic_H50_0451_fot_51A-08842_E_tif
  70
32
  10
244002.000
  20
4558224.793
  30
740.2
  0
VERTEX
  8
PNOA-H_AMS_1956-57_33k_ES_PAN_21mic_H50_0451_fot_51A-08842_E_tif
  70
32
  10
244933.500
  20
4558568.793
  30
760.21
  0
VERTEX
  8
PNOA-H_AMS_1956-57_33k_ES_PAN_21mic_H50_0451_fot_51A-08842_E_tif
  70
32
  10
245144.500
  20
4558520.793
  30
752
  0
VERTEX
  8
PNOA-H_AMS_1956-57_33k_ES_PAN_21mic_H50_0451_fot_51A-08842_E_tif
  70
32
  10
245146.500
  20
4558520.293
  30
752
  0
SEQEND
  8
PNOA-H_AMS_1956-57_33k_ES_PAN_21mic_H50_0451_fot_51A-08842_E_tif
  0
TEXT
  8
PNOA-H_AMS_1956-57_33k_ES_PAN_21mic_H50_0451_fot_51A-08842_E_tif
 62
0
  1
PNOA-H_AMS_1956-57_33k_ES_PAN_21mic_H50_0451_fot_51A-08842_E.tif
 40
41.56763
  10
245369.918
  20
4556253.543
  0
POLYLINE
  8
PNOA-H_AMS_1956-57_33k_ES_PAN_21mic_H50_0451_fot_52B-10275_W_tif
  70
9
  66
1
  0
VERTEX
  8
PNOA-H_AMS_1956-57_33k_ES_PAN_21mic_H50_0451_fot_52B-10275_W_tif
  70
32
  10
243895.500
  20
4554404.793
  30
735
  0
VERTEX
  8
PNOA-H_AMS_1956-57_33k_ES_PAN_21mic_H50_0451_fot_52B-10275_W_tif
  70
32
  10
243899.500
  20
4554404.293
  30
735
  0
VERTEX
  8
PNOA-H_AMS_1956-57_33k_ES_PAN_21mic_H50_0451_fot_52B-10275_W_tif
  70
32
  10
244905.000
  20
4553938.293
  30
757.8
  0
VERTEX
  8
PNOA-H_AMS_1956-57_33k_ES_PAN_21mic_H50_0451_fot_52B-10275_W_tif
  70
32
  10
244783.000
  20
4549632.793
  30
798
  0
VERTEX
  8
PNOA-H_AMS_1956-57_33k_ES_PAN_21mic_H50_0451_fot_52B-10275_W_tif
  70
32
  10
244400.500
  20
4549466.793
  30
803.01
  0
VERTEX
  8
PNOA-H_AMS_1956-57_33k_ES_PAN_21mic_H50_0451_fot_52B-10275_W_tif
  70
32
  10
241946.000
  20
4549725.293
  30
755
  0
VERTEX
  8
PNOA-H_AMS_1956-57_33k_ES_PAN_21mic_H50_0451_fot_52B-10275_W_tif
  70
32
  10
242226.500
  20
4554022.293
  30
747
  0
VERTEX
  8
PNOA-H_AMS_1956-57_33k_ES_PAN_21mic_H50_0451_fot_52B-10275_W_tif
  70
32
  10
243893.000
  20
4554404.293
  30
735
  0
VERTEX
  8
PNOA-H_AMS_1956-57_33k_ES_PAN_21mic_H50_0451_fot_52B-10275_W_tif
  70
32
  10
243895.500
  20
4554404.793
  30
735
  0
SEQEND
  8
PNOA-H_AMS_1956-57_33k_ES_PAN_21mic_H50_0451_fot_52B-10275_W_tif
  0
TEXT
  8
PNOA-H_AMS_1956-57_33k_ES_PAN_21mic_H50_0451_fot_52B-10275_W_tif
 62
0
  1
PNOA-H_AMS_1956-57_33k_ES_PAN_21mic_H50_0451_fot_52B-10275_W.tif
 40
41.56763
  10
243469.277
  20
4551935.793
  0
POLYLINE
  8
PNOA-H_AMS_1956-57_33k_ES_PAN_21mic_H50_0451_fot_52B-10274_W_tif
  70
9
  66
1
  0
VERTEX
  8
PNOA-H_AMS_1956-57_33k_ES_PAN_21mic_H50_0451_fot_52B-10274_W_tif
  70
32
  10
245146.000
  20
4553988.293
  30
760
  0
VERTEX
  8
PNOA-H_AMS_1956-57_33k_ES_PAN_21mic_H50_0451_fot_52B-10274_W_tif
  70
32
  10
246780.500
  20
4554325.793
  30
752.7
  0
VERTEX
  8
PNOA-H_AMS_1956-57_33k_ES_PAN_21mic_H50_0451_fot_52B-10274_W_tif
  70
32
  10
247604.000
  20
4553929.793
  30
729
  0
VERTEX
  8
PNOA-H_AMS_1956-57_33k_ES_PAN_21mic_H50_0451_fot_52B-10274_W_tif
  70
32
  10
247428.000
  20
4549523.293
  30
799
  0
VERTEX
  8
PNOA-H_AMS_1956-57_33k_ES_PAN_21mic_H50_0451_fot_52B-10274_W_tif
  70
32
  10
247119.500
  20
4549393.293
  30
806
  0
VERTEX
  8
PNOA-H_AMS_1956-57_33k_ES_PAN_21mic_H50_0451_fot_52B-10274_W_tif
  70
32
  10
244783.000
  20
4549632.793
  30
798
  0
VERTEX
  8
PNOA-H_AMS_1956-57_33k_ES_PAN_21mic_H50_0451_fot_52B-10274_W_tif
  70
32
  10
244904.500
  20
4553936.793
  30
758
  0
VERTEX
  8
PNOA-H_AMS_1956-57_33k_ES_PAN_21mic_H50_0451_fot_52B-10274_W_tif
  70
32
  10
244906.500
  20
4553938.793
  30
757.79
  0
VERTEX
  8
PNOA-H_AMS_1956-57_33k_ES_PAN_21mic_H50_0451_fot_52B-10274_W_tif
  70
32
  10
245143.500
  20
4553987.793
  30
759.97
  0
VERTEX
  8
PNOA-H_AMS_1956-57_33k_ES_PAN_21mic_H50_0451_fot_52B-10274_W_tif
  70
32
  10
245146.000
  20
4553988.293
  30
760
  0
SEQEND
  8
PNOA-H_AMS_1956-57_33k_ES_PAN_21mic_H50_0451_fot_52B-10274_W_tif
  0
TEXT
  8
PNOA-H_AMS_1956-57_33k_ES_PAN_21mic_H50_0451_fot_52B-10274_W_tif
 62
0
  1
PNOA-H_AMS_1956-57_33k_ES_PAN_21mic_H50_0451_fot_52B-10274_W.tif
 40
41.56763
  10
246183.586
  20
4551859.543
  0
POLYLINE
  8
PNOA-H_AMS_1956-57_33k_ES_PAN_21mic_H50_0451_fot_53A-25875_W_tif
  70
9
  66
1
  0
VERTEX
  8
PNOA-H_AMS_1956-57_33k_ES_PAN_21mic_H50_0451_fot_53A-25875_W_tif
  70
32
  10
243098.500
  20
4549603.793
  30
769
  0
VERTEX
  8
PNOA-H_AMS_1956-57_33k_ES_PAN_21mic_H50_0451_fot_53A-25875_W_tif
  70
32
  10
244400.000
  20
4549466.793
  30
803
  0
VERTEX
  8
PNOA-H_AMS_1956-57_33k_ES_PAN_21mic_H50_0451_fot_53A-25875_W_tif
  70
32
  10
244276.000
  20
4545348.793
  30
851
  0
VERTEX
  8
PNOA-H_AMS_1956-57_33k_ES_PAN_21mic_H50_0451_fot_53A-25875_W_tif
  70
32
  10
241564.000
  20
4545381.293
  30
830.2
  0
VERTEX
  8
PNOA-H_AMS_1956-57_33k_ES_PAN_21mic_H50_0451_fot_53A-25875_W_tif
  70
32
  10
241506.000
  20
4545432.293
  30
832
  0
VERTEX
  8
PNOA-H_AMS_1956-57_33k_ES_PAN_21mic_H50_0451_fot_53A-25875_W_tif
  70
32
  10
241721.000
  20
4549630.793
  30
755.2
  0
VERTEX
  8
PNOA-H_AMS_1956-57_33k_ES_PAN_21mic_H50_0451_fot_53A-25875_W_tif
  70
32
  10
241945.000
  20
4549725.293
  30
755
  0
VERTEX
  8
PNOA-H_AMS_1956-57_33k_ES_PAN_21mic_H50_0451_fot_53A-25875_W_tif
  70
32
  10
241948.000
  20
4549725.293
  30
755
  0
VERTEX
  8
PNOA-H_AMS_1956-57_33k_ES_PAN_21mic_H50_0451_fot_53A-25875_W_tif
  70
32
  10
243096.000
  20
4549603.793
  30
769
  0
VERTEX
  8
PNOA-H_AMS_1956-57_33k_ES_PAN_21mic_H50_0451_fot_53A-25875_W_tif
  70
32
  10
243098.500
  20
4549603.793
  30
769
  0
SEQEND
  8
PNOA-H_AMS_1956-57_33k_ES_PAN_21mic_H50_0451_fot_53A-25875_W_tif
  0
TEXT
  8
PNOA-H_AMS_1956-57_33k_ES_PAN_21mic_H50_0451_fot_53A-25875_W_tif
 62
0
  1
PNOA-H_AMS_1956-57_33k_ES_PAN_21mic_H50_0451_fot_53A-25875_W.tif
 40
41.56763
  10
242977.837
  20
4547537.043
  0
POLYLINE
  8
PNOA-H_AMS_1956-57_33k_ES_PAN_21mic_H50_0451_fot_53A-25874_W_tif
  70
9
  66
1
  0
VERTEX
  8
PNOA-H_AMS_1956-57_33k_ES_PAN_21mic_H50_0451_fot_53A-25874_W_tif
  70
32
  10
245146.500
  20
4549595.293
  30
796
  0
VERTEX
  8
PNOA-H_AMS_1956-57_33k_ES_PAN_21mic_H50_0451_fot_53A-25874_W_tif
  70
32
  10
247119.000
  20
4549393.293
  30
806
  0
VERTEX
  8
PNOA-H_AMS_1956-57_33k_ES_PAN_21mic_H50_0451_fot_53A-25874_W_tif
  70
32
  10
247003.000
  20
4545265.293
  30
846
  0
VERTEX
  8
PNOA-H_AMS_1956-57_33k_ES_PAN_21mic_H50_0451_fot_53A-25874_W_tif
  70
32
  10
247002.500
  20
4545259.793
  30
846
  0
VERTEX
  8
PNOA-H_AMS_1956-57_33k_ES_PAN_21mic_H50_0451_fot_53A-25874_W_tif
  70
32
  10
246990.500
  20
4545250.293
  30
845
  0
VERTEX
  8
PNOA-H_AMS_1956-57_33k_ES_PAN_21mic_H50_0451_fot_53A-25874_W_tif
  70
32
  10
244300.000
  20
4545332.293
  30
851
  0
VERTEX
  8
PNOA-H_AMS_1956-57_33k_ES_PAN_21mic_H50_0451_fot_53A-25874_W_tif
  70
32
  10
244294.500
  20
4545332.793
  30
851
  0
VERTEX
  8
PNOA-H_AMS_1956-57_33k_ES_PAN_21mic_H50_0451_fot_53A-25874_W_tif
  70
32
  10
244276.000
  20
4545348.293
  30
851
  0
VERTEX
  8
PNOA-H_AMS_1956-57_33k_ES_PAN_21mic_H50_0451_fot_53A-25874_W_tif
  70
32
  10
244399.500
  20
4549465.293
  30
803
  0
VERTEX
  8
PNOA-H_AMS_1956-57_33k_ES_PAN_21mic_H50_0451_fot_53A-25874_W_tif
  70
32
  10
244400.500
  20
4549467.293
  30
803
  0
VERTEX
  8
PNOA-H_AMS_1956-57_33k_ES_PAN_21mic_H50_0451_fot_53A-25874_W_tif
  70
32
  10
244782.500
  20
4549632.793
  30
798
  0
VERTEX
  8
PNOA-H_AMS_1956-57_33k_ES_PAN_21mic_H50_0451_fot_53A-25874_W_tif
  70
32
  10
245145.500
  20
4549595.293
  30
796
  0
VERTEX
  8
PNOA-H_AMS_1956-57_33k_ES_PAN_21mic_H50_0451_fot_53A-25874_W_tif
  70
32
  10
245146.500
  20
4549595.293
  30
796
  0
SEQEND
  8
PNOA-H_AMS_1956-57_33k_ES_PAN_21mic_H50_0451_fot_53A-25874_W_tif
  0
TEXT
  8
PNOA-H_AMS_1956-57_33k_ES_PAN_21mic_H50_0451_fot_53A-25874_W_tif
 62
0
  1
PNOA-H_AMS_1956-57_33k_ES_PAN_21mic_H50_0451_fot_53A-25874_W.tif
 40
41.56763
  10
245701.473
  20
4547441.543
  0
POLYLINE
  8
PNOA-H_AMS_1956-57_33k_ES_PAN_21mic_H50_0451_fot_54A-29160_W_tif
  70
9
  66
1
  0
VERTEX
  8
PNOA-H_AMS_1956-57_33k_ES_PAN_21mic_H50_0451_fot_54A-29160_W_tif
  70
32
  10
244243.940
  20
4543212.081
  30
848.354
  0
VERTEX
  8
PNOA-H_AMS_1956-57_33k_ES_PAN_21mic_H50_0451_fot_54A-29160_W_tif
  70
32
  10
242421.771
  20
4543275.604
  30
838.431
  0
VERTEX
  8
PNOA-H_AMS_1956-57_33k_ES_PAN_21mic_H50_0451_fot_54A-29160_W_tif
  70
32
  10
241475.401
  20
4543309.049
  30
838.459
  0
VERTEX
  8
PNOA-H_AMS_1956-57_33k_ES_PAN_21mic_H50_0451_fot_54A-29160_W_tif
  70
32
  10
241564.000
  20
4545380.793
  30
830.2
  0
VERTEX
  8
PNOA-H_AMS_1956-57_33k_ES_PAN_21mic_H50_0451_fot_54A-29160_W_tif
  70
32
  10
241591.000
  20
4545381.293
  30
830
  0
VERTEX
  8
PNOA-H_AMS_1956-57_33k_ES_PAN_21mic_H50_0451_fot_54A-29160_W_tif
  70
32
  10
243087.000
  20
4545362.793
  30
842.36
  0
VERTEX
  8
PNOA-H_AMS_1956-57_33k_ES_PAN_21mic_H50_0451_fot_54A-29160_W_tif
  70
32
  10
243098.500
  20
4545362.793
  30
842.9
  0
VERTEX
  8
PNOA-H_AMS_1956-57_33k_ES_PAN_21mic_H50_0451_fot_54A-29160_W_tif
  70
32
  10
244276.000
  20
4545348.793
  30
851
  0
VERTEX
  8
PNOA-H_AMS_1956-57_33k_ES_PAN_21mic_H50_0451_fot_54A-29160_W_tif
  70
32
  10
244295.000
  20
4545332.793
  30
851
  0
SEQEND
  8
PNOA-H_AMS_1956-57_33k_ES_PAN_21mic_H50_0451_fot_54A-29160_W_tif
  0
TEXT
  8
PNOA-H_AMS_1956-57_33k_ES_PAN_21mic_H50_0451_fot_54A-29160_W_tif
 62
0
  1
PNOA-H_AMS_1956-57_33k_ES_PAN_21mic_H50_0451_fot_54A-29160_W.tif
 40
41.56763
  10
242885.201
  20
4544296.687
  0
POLYLINE
  8
PNOA-H_AMS_1956-57_33k_ES_PAN_21mic_H50_0451_fot_54A-29159_W_tif
  70
9
  66
1
  0
VERTEX
  8
PNOA-H_AMS_1956-57_33k_ES_PAN_21mic_H50_0451_fot_54A-29159_W_tif
  70
32
  10
246980.914
  20
4543117.171
  30
835.914
  0
VERTEX
  8
PNOA-H_AMS_1956-57_33k_ES_PAN_21mic_H50_0451_fot_54A-29159_W_tif
  70
32
  10
245926.696
  20
4543153.418
  30
836.049
  0
VERTEX
  8
PNOA-H_AMS_1956-57_33k_ES_PAN_21mic_H50_0451_fot_54A-29159_W_tif
  70
32
  10
244243.716
  20
4543212.089
  30
848.355
  0
VERTEX
  8
PNOA-H_AMS_1956-57_33k_ES_PAN_21mic_H50_0451_fot_54A-29159_W_tif
  70
32
  10
244294.500
  20
4545331.793
  30
851
  0
VERTEX
  8
PNOA-H_AMS_1956-57_33k_ES_PAN_21mic_H50_0451_fot_54A-29159_W_tif
  70
32
  10
244295.000
  20
4545332.793
  30
851
  0
VERTEX
  8
PNOA-H_AMS_1956-57_33k_ES_PAN_21mic_H50_0451_fot_54A-29159_W_tif
  70
32
  10
244300.000
  20
4545332.793
  30
851
  0
VERTEX
  8
PNOA-H_AMS_1956-57_33k_ES_PAN_21mic_H50_0451_fot_54A-29159_W_tif
  70
32
  10
245132.500
  20
4545306.793
  30
854.55
  0
VERTEX
  8
PNOA-H_AMS_1956-57_33k_ES_PAN_21mic_H50_0451_fot_54A-29159_W_tif
  70
32
  10
245146.500
  20
4545306.793
  30
855.37
  0
VERTEX
  8
PNOA-H_AMS_1956-57_33k_ES_PAN_21mic_H50_0451_fot_54A-29159_W_tif
  70
32
  10
246990.000
  20
4545250.293
  30
845
  0
SEQEND
  8
PNOA-H_AMS_1956-57_33k_ES_PAN_21mic_H50_0451_fot_54A-29159_W_tif
  0
TEXT
  8
PNOA-H_AMS_1956-57_33k_ES_PAN_21mic_H50_0451_fot_54A-29159_W_tif
 62
0
  1
PNOA-H_AMS_1956-57_33k_ES_PAN_21mic_H50_0451_fot_54A-29159_W.tif
 40
41.56763
  10
245613.317
  20
4543268.793
  0
POLYLINE
  8
PNOA-H_AMS_1956-57_33k_ES_PAN_21mic_H50_0451_fot_51A-08844_E_tif
  70
9
  66
1
  0
VERTEX
  8
PNOA-H_AMS_1956-57_33k_ES_PAN_21mic_H50_0451_fot_51A-08844_E_tif
  70
32
  10
251290.500
  20
4558239.793
  30
821.95
  0
VERTEX
  8
PNOA-H_AMS_1956-57_33k_ES_PAN_21mic_H50_0451_fot_51A-08844_E_tif
  70
32
  10
252544.000
  20
4558042.293
  30
796
  0
VERTEX
  8
PNOA-H_AMS_1956-57_33k_ES_PAN_21mic_H50_0451_fot_51A-08844_E_tif
  70
32
  10
252410.000
  20
4554028.293
  30
792.2
  0
VERTEX
  8
PNOA-H_AMS_1956-57_33k_ES_PAN_21mic_H50_0451_fot_51A-08844_E_tif
  70
32
  10
252409.500
  20
4554026.793
  30
792.09
  0
VERTEX
  8
PNOA-H_AMS_1956-57_33k_ES_PAN_21mic_H50_0451_fot_51A-08844_E_tif
  70
32
  10
252395.000
  20
4554025.293
  30
792
  0
VERTEX
  8
PNOA-H_AMS_1956-57_33k_ES_PAN_21mic_H50_0451_fot_51A-08844_E_tif
  70
32
  10
250319.000
  20
4553832.793
  30
789.9
  0
VERTEX
  8
PNOA-H_AMS_1956-57_33k_ES_PAN_21mic_H50_0451_fot_51A-08844_E_tif
  70
32
  10
249612.500
  20
4554218.293
  30
788
  0
VERTEX
  8
PNOA-H_AMS_1956-57_33k_ES_PAN_21mic_H50_0451_fot_51A-08844_E_tif
  70
32
  10
249705.500
  20
4558084.293
  30
806.46
  0
VERTEX
  8
PNOA-H_AMS_1956-57_33k_ES_PAN_21mic_H50_0451_fot_51A-08844_E_tif
  70
32
  10
250349.000
  20
4558388.293
  30
811
  0
VERTEX
  8
PNOA-H_AMS_1956-57_33k_ES_PAN_21mic_H50_0451_fot_51A-08844_E_tif
  70
32
  10
251287.500
  20
4558240.293
  30
822.3
  0
VERTEX
  8
PNOA-H_AMS_1956-57_33k_ES_PAN_21mic_H50_0451_fot_51A-08844_E_tif
  70
32
  10
251290.500
  20
4558239.793
  30
821.95
  0
SEQEND
  8
PNOA-H_AMS_1956-57_33k_ES_PAN_21mic_H50_0451_fot_51A-08844_E_tif
  0
TEXT
  8
PNOA-H_AMS_1956-57_33k_ES_PAN_21mic_H50_0451_fot_51A-08844_E_tif
 62
0
  1
PNOA-H_AMS_1956-57_33k_ES_PAN_21mic_H50_0451_fot_51A-08844_E.tif
 40
41.56763
  10
251068.766
  20
4556110.543
  0
POLYLINE
  8
PNOA-H_AMS_1956-57_33k_ES_PAN_21mic_H50_0451_fot_51A-08845_E_tif
  70
9
  66
1
  0
VERTEX
  8
PNOA-H_AMS_1956-57_33k_ES_PAN_21mic_H50_0451_fot_51A-08845_E_tif
  70
32
  10
253338.500
  20
4558220.293
  30
794
  0
VERTEX
  8
PNOA-H_AMS_1956-57_33k_ES_PAN_21mic_H50_0451_fot_51A-08845_E_tif
  70
32
  10
255293.500
  20
4557983.293
  30
803.7
  0
VERTEX
  8
PNOA-H_AMS_1956-57_33k_ES_PAN_21mic_H50_0451_fot_51A-08845_E_tif
  70
32
  10
255096.500
  20
4553895.793
  30
799.21
  0
VERTEX
  8
PNOA-H_AMS_1956-57_33k_ES_PAN_21mic_H50_0451_fot_51A-08845_E_tif
  70
32
  10
255096.000
  20
4553894.293
  30
799.08
  0
VERTEX
  8
PNOA-H_AMS_1956-57_33k_ES_PAN_21mic_H50_0451_fot_51A-08845_E_tif
  70
32
  10
255092.000
  20
4553893.793
  30
799
  0
VERTEX
  8
PNOA-H_AMS_1956-57_33k_ES_PAN_21mic_H50_0451_fot_51A-08845_E_tif
  70
32
  10
252954.000
  20
4553728.793
  30
794.86
  0
VERTEX
  8
PNOA-H_AMS_1956-57_33k_ES_PAN_21mic_H50_0451_fot_51A-08845_E_tif
  70
32
  10
252409.500
  20
4554026.793
  30
792.09
  0
VERTEX
  8
PNOA-H_AMS_1956-57_33k_ES_PAN_21mic_H50_0451_fot_51A-08845_E_tif
  70
32
  10
252544.000
  20
4558042.293
  30
796
  0
VERTEX
  8
PNOA-H_AMS_1956-57_33k_ES_PAN_21mic_H50_0451_fot_51A-08845_E_tif
  70
32
  10
252996.000
  20
4558261.793
  30
791
  0
VERTEX
  8
PNOA-H_AMS_1956-57_33k_ES_PAN_21mic_H50_0451_fot_51A-08845_E_tif
  70
32
  10
253337.500
  20
4558220.293
  30
794
  0
VERTEX
  8
PNOA-H_AMS_1956-57_33k_ES_PAN_21mic_H50_0451_fot_51A-08845_E_tif
  70
32
  10
253338.500
  20
4558220.293
  30
794
  0
SEQEND
  8
PNOA-H_AMS_1956-57_33k_ES_PAN_21mic_H50_0451_fot_51A-08845_E_tif
  0
TEXT
  8
PNOA-H_AMS_1956-57_33k_ES_PAN_21mic_H50_0451_fot_51A-08845_E_tif
 62
0
  1
PNOA-H_AMS_1956-57_33k_ES_PAN_21mic_H50_0451_fot_51A-08845_E.tif
 40
41.56763
  10
253836.561
  20
4555995.293
  0
POLYLINE
  8
PNOA-H_AMS_1956-57_33k_ES_PAN_21mic_H50_0451_fot_51A-08843_E_tif
  70
9
  66
1
  0
VERTEX
  8
PNOA-H_AMS_1956-57_33k_ES_PAN_21mic_H50_0451_fot_51A-08843_E_tif
  70
32
  10
247193.500
  20
4558309.293
  30
796
  0
VERTEX
  8
PNOA-H_AMS_1956-57_33k_ES_PAN_21mic_H50_0451_fot_51A-08843_E_tif
  70
32
  10
247639.000
  20
4558500.793
  30
791.7
  0
VERTEX
  8
PNOA-H_AMS_1956-57_33k_ES_PAN_21mic_H50_0451_fot_51A-08843_E_tif
  70
32
  10
249705.500
  20
4558084.293
  30
806.46
  0
VERTEX
  8
PNOA-H_AMS_1956-57_33k_ES_PAN_21mic_H50_0451_fot_51A-08843_E_tif
  70
32
  10
249612.500
  20
4554218.293
  30
788
  0
VERTEX
  8
PNOA-H_AMS_1956-57_33k_ES_PAN_21mic_H50_0451_fot_51A-08843_E_tif
  70
32
  10
247604.000
  20
4553929.293
  30
729
  0
VERTEX
  8
PNOA-H_AMS_1956-57_33k_ES_PAN_21mic_H50_0451_fot_51A-08843_E_tif
  70
32
  10
246780.000
  20
4554325.793
  30
752.7
  0
VERTEX
  8
PNOA-H_AMS_1956-57_33k_ES_PAN_21mic_H50_0451_fot_51A-08843_E_tif
  70
32
  10
246804.500
  20
4558141.793
  30
783.99
  0
VERTEX
  8
PNOA-H_AMS_1956-57_33k_ES_PAN_21mic_H50_0451_fot_51A-08843_E_tif
  70
32
  10
247192.000
  20
4558308.793
  30
796
  0
VERTEX
  8
PNOA-H_AMS_1956-57_33k_ES_PAN_21mic_H50_0451_fot_51A-08843_E_tif
  70
32
  10
247193.500
  20
4558309.293
  30
796
  0
SEQEND
  8
PNOA-H_AMS_1956-57_33k_ES_PAN_21mic_H50_0451_fot_51A-08843_E_tif
  0
TEXT
  8
PNOA-H_AMS_1956-57_33k_ES_PAN_21mic_H50_0451_fot_51A-08843_E_tif
 62
0
  1
PNOA-H_AMS_1956-57_33k_ES_PAN_21mic_H50_0451_fot_51A-08843_E.tif
 40
41.56763
  10
248226.332
  20
4556215.043
  0
POLYLINE
  8
PNOA-H_AMS_1956-57_33k_ES_PAN_21mic_H50_0451_fot_52B-10273_W_tif
  70
9
  66
1
  0
VERTEX
  8
PNOA-H_AMS_1956-57_33k_ES_PAN_21mic_H50_0451_fot_52B-10273_W_tif
  70
32
  10
249611.000
  20
4554218.293
  30
788
  0
VERTEX
  8
PNOA-H_AMS_1956-57_33k_ES_PAN_21mic_H50_0451_fot_52B-10273_W_tif
  70
32
  10
249613.000
  20
4554218.293
  30
788
  0
VERTEX
  8
PNOA-H_AMS_1956-57_33k_ES_PAN_21mic_H50_0451_fot_52B-10273_W_tif
  70
32
  10
250319.500
  20
4553832.793
  30
789.9
  0
VERTEX
  8
PNOA-H_AMS_1956-57_33k_ES_PAN_21mic_H50_0451_fot_52B-10273_W_tif
  70
32
  10
249981.500
  20
4549405.793
  30
785
  0
VERTEX
  8
PNOA-H_AMS_1956-57_33k_ES_PAN_21mic_H50_0451_fot_52B-10273_W_tif
  70
32
  10
249788.500
  20
4549319.793
  30
787
  0
VERTEX
  8
PNOA-H_AMS_1956-57_33k_ES_PAN_21mic_H50_0451_fot_52B-10273_W_tif
  70
32
  10
247428.000
  20
4549523.293
  30
799
  0
VERTEX
  8
PNOA-H_AMS_1956-57_33k_ES_PAN_21mic_H50_0451_fot_52B-10273_W_tif
  70
32
  10
247604.000
  20
4553929.293
  30
729
  0
VERTEX
  8
PNOA-H_AMS_1956-57_33k_ES_PAN_21mic_H50_0451_fot_52B-10273_W_tif
  70
32
  10
249607.500
  20
4554217.793
  30
788.45
  0
VERTEX
  8
PNOA-H_AMS_1956-57_33k_ES_PAN_21mic_H50_0451_fot_52B-10273_W_tif
  70
32
  10
249611.000
  20
4554218.293
  30
788
  0
SEQEND
  8
PNOA-H_AMS_1956-57_33k_ES_PAN_21mic_H50_0451_fot_52B-10273_W_tif
  0
TEXT
  8
PNOA-H_AMS_1956-57_33k_ES_PAN_21mic_H50_0451_fot_52B-10273_W_tif
 62
0
  1
PNOA-H_AMS_1956-57_33k_ES_PAN_21mic_H50_0451_fot_52B-10273_W.tif
 40
41.56763
  10
248839.821
  20
4551769.043
  0
POLYLINE
  8
PNOA-H_AMS_1956-57_33k_ES_PAN_21mic_H50_0451_fot_52B-10272_W_tif
  70
9
  66
1
  0
VERTEX
  8
PNOA-H_AMS_1956-57_33k_ES_PAN_21mic_H50_0451_fot_52B-10272_W_tif
  70
32
  10
252405.500
  20
4554026.793
  30
792.01
  0
VERTEX
  8
PNOA-H_AMS_1956-57_33k_ES_PAN_21mic_H50_0451_fot_52B-10272_W_tif
  70
32
  10
252411.500
  20
4554026.293
  30
792.44
  0
VERTEX
  8
PNOA-H_AMS_1956-57_33k_ES_PAN_21mic_H50_0451_fot_52B-10272_W_tif
  70
32
  10
252953.500
  20
4553729.293
  30
794.82
  0
VERTEX
  8
PNOA-H_AMS_1956-57_33k_ES_PAN_21mic_H50_0451_fot_52B-10272_W_tif
  70
32
  10
252735.000
  20
4549308.793
  30
798.3
  0
VERTEX
  8
PNOA-H_AMS_1956-57_33k_ES_PAN_21mic_H50_0451_fot_52B-10272_W_tif
  70
32
  10
252484.000
  20
4549193.293
  30
794
  0
VERTEX
  8
PNOA-H_AMS_1956-57_33k_ES_PAN_21mic_H50_0451_fot_52B-10272_W_tif
  70
32
  10
249981.500
  20
4549405.793
  30
785
  0
VERTEX
  8
PNOA-H_AMS_1956-57_33k_ES_PAN_21mic_H50_0451_fot_52B-10272_W_tif
  70
32
  10
250319.000
  20
4553832.293
  30
790
  0
VERTEX
  8
PNOA-H_AMS_1956-57_33k_ES_PAN_21mic_H50_0451_fot_52B-10272_W_tif
  70
32
  10
250331.500
  20
4553834.293
  30
790
  0
VERTEX
  8
PNOA-H_AMS_1956-57_33k_ES_PAN_21mic_H50_0451_fot_52B-10272_W_tif
  70
32
  10
252400.000
  20
4554026.293
  30
792
  0
VERTEX
  8
PNOA-H_AMS_1956-57_33k_ES_PAN_21mic_H50_0451_fot_52B-10272_W_tif
  70
32
  10
252405.500
  20
4554026.793
  30
792.01
  0
SEQEND
  8
PNOA-H_AMS_1956-57_33k_ES_PAN_21mic_H50_0451_fot_52B-10272_W_tif
  0
TEXT
  8
PNOA-H_AMS_1956-57_33k_ES_PAN_21mic_H50_0451_fot_52B-10272_W_tif
 62
0
  1
PNOA-H_AMS_1956-57_33k_ES_PAN_21mic_H50_0451_fot_52B-10272_W.tif
 40
41.56763
  10
251499.156
  20
4551610.043
  0
POLYLINE
  8
PNOA-H_AMS_1956-57_33k_ES_PAN_21mic_H50_0451_fot_52B-10271_W_tif
  70
9
  66
1
  0
VERTEX
  8
PNOA-H_AMS_1956-57_33k_ES_PAN_21mic_H50_0451_fot_52B-10271_W_tif
  70
32
  10
253336.000
  20
4553758.793
  30
801.24
  0
VERTEX
  8
PNOA-H_AMS_1956-57_33k_ES_PAN_21mic_H50_0451_fot_52B-10271_W_tif
  70
32
  10
255097.000
  20
4553894.293
  30
799.16
  0
VERTEX
  8
PNOA-H_AMS_1956-57_33k_ES_PAN_21mic_H50_0451_fot_52B-10271_W_tif
  70
32
  10
255689.000
  20
4553570.793
  30
790.7
  0
VERTEX
  8
PNOA-H_AMS_1956-57_33k_ES_PAN_21mic_H50_0451_fot_52B-10271_W_tif
  70
32
  10
255350.500
  20
4549168.793
  30
820.63
  0
VERTEX
  8
PNOA-H_AMS_1956-57_33k_ES_PAN_21mic_H50_0451_fot_52B-10271_W_tif
  70
32
  10
255349.500
  20
4549166.793
  30
821
  0
VERTEX
  8
PNOA-H_AMS_1956-57_33k_ES_PAN_21mic_H50_0451_fot_52B-10271_W_tif
  70
32
  10
255197.500
  20
4549095.293
  30
816
  0
VERTEX
  8
PNOA-H_AMS_1956-57_33k_ES_PAN_21mic_H50_0451_fot_52B-10271_W_tif
  70
32
  10
252735.000
  20
4549308.793
  30
798.3
  0
VERTEX
  8
PNOA-H_AMS_1956-57_33k_ES_PAN_21mic_H50_0451_fot_52B-10271_W_tif
  70
32
  10
252953.000
  20
4553725.293
  30
794.36
  0
VERTEX
  8
PNOA-H_AMS_1956-57_33k_ES_PAN_21mic_H50_0451_fot_52B-10271_W_tif
  70
32
  10
252954.000
  20
4553729.293
  30
794.88
  0
VERTEX
  8
PNOA-H_AMS_1956-57_33k_ES_PAN_21mic_H50_0451_fot_52B-10271_W_tif
  70
32
  10
253329.500
  20
4553758.293
  30
801.2
  0
VERTEX
  8
PNOA-H_AMS_1956-57_33k_ES_PAN_21mic_H50_0451_fot_52B-10271_W_tif
  70
32
  10
253336.000
  20
4553758.793
  30
801.24
  0
SEQEND
  8
PNOA-H_AMS_1956-57_33k_ES_PAN_21mic_H50_0451_fot_52B-10271_W_tif
  0
TEXT
  8
PNOA-H_AMS_1956-57_33k_ES_PAN_21mic_H50_0451_fot_52B-10271_W_tif
 62
0
  1
PNOA-H_AMS_1956-57_33k_ES_PAN_21mic_H50_0451_fot_52B-10271_W.tif
 40
41.56763
  10
254186.132
  20
4551494.793
  0
POLYLINE
  8
PNOA-H_AMS_1956-57_33k_ES_PAN_21mic_H50_0451_fot_53A-25871_W_tif
  70
9
  66
1
  0
VERTEX
  8
PNOA-H_AMS_1956-57_33k_ES_PAN_21mic_H50_0451_fot_53A-25871_W_tif
  70
32
  10
252734.000
  20
4549308.793
  30
798.24
  0
VERTEX
  8
PNOA-H_AMS_1956-57_33k_ES_PAN_21mic_H50_0451_fot_53A-25871_W_tif
  70
32
  10
255196.500
  20
4549095.293
  30
816
  0
VERTEX
  8
PNOA-H_AMS_1956-57_33k_ES_PAN_21mic_H50_0451_fot_53A-25871_W_tif
  70
32
  10
255091.500
  20
4545039.293
  30
808.28
  0
VERTEX
  8
PNOA-H_AMS_1956-57_33k_ES_PAN_21mic_H50_0451_fot_53A-25871_W_tif
  70
32
  10
252650.000
  20
4544921.793
  30
796
  0
VERTEX
  8
PNOA-H_AMS_1956-57_33k_ES_PAN_21mic_H50_0451_fot_53A-25871_W_tif
  70
32
  10
252401.000
  20
4545114.793
  30
793
  0
VERTEX
  8
PNOA-H_AMS_1956-57_33k_ES_PAN_21mic_H50_0451_fot_53A-25871_W_tif
  70
32
  10
252483.500
  20
4549190.293
  30
793.72
  0
VERTEX
  8
PNOA-H_AMS_1956-57_33k_ES_PAN_21mic_H50_0451_fot_53A-25871_W_tif
  70
32
  10
252484.000
  20
4549193.793
  30
794
  0
VERTEX
  8
PNOA-H_AMS_1956-57_33k_ES_PAN_21mic_H50_0451_fot_53A-25871_W_tif
  70
32
  10
252488.000
  20
4549195.793
  30
793.82
  0
VERTEX
  8
PNOA-H_AMS_1956-57_33k_ES_PAN_21mic_H50_0451_fot_53A-25871_W_tif
  70
32
  10
252733.000
  20
4549308.293
  30
798.12
  0
VERTEX
  8
PNOA-H_AMS_1956-57_33k_ES_PAN_21mic_H50_0451_fot_53A-25871_W_tif
  70
32
  10
252734.000
  20
4549308.793
  30
798.24
  0
SEQEND
  8
PNOA-H_AMS_1956-57_33k_ES_PAN_21mic_H50_0451_fot_53A-25871_W_tif
  0
TEXT
  8
PNOA-H_AMS_1956-57_33k_ES_PAN_21mic_H50_0451_fot_53A-25871_W_tif
 62
0
  1
PNOA-H_AMS_1956-57_33k_ES_PAN_21mic_H50_0451_fot_53A-25871_W.tif
 40
41.56763
  10
253793.369
  20
4547115.293
  0
POLYLINE
  8
PNOA-H_AMS_1956-57_33k_ES_PAN_21mic_H50_0451_fot_53A-25872_W_tif
  70
9
  66
1
  0
VERTEX
  8
PNOA-H_AMS_1956-57_33k_ES_PAN_21mic_H50_0451_fot_53A-25872_W_tif
  70
32
  10
251290.500
  20
4549294.793
  30
761.9
  0
VERTEX
  8
PNOA-H_AMS_1956-57_33k_ES_PAN_21mic_H50_0451_fot_53A-25872_W_tif
  70
32
  10
252484.000
  20
4549193.293
  30
794
  0
VERTEX
  8
PNOA-H_AMS_1956-57_33k_ES_PAN_21mic_H50_0451_fot_53A-25872_W_tif
  70
32
  10
252401.000
  20
4545115.293
  30
793
  0
VERTEX
  8
PNOA-H_AMS_1956-57_33k_ES_PAN_21mic_H50_0451_fot_53A-25872_W_tif
  70
32
  10
249900.000
  20
4545097.793
  30
815.9
  0
VERTEX
  8
PNOA-H_AMS_1956-57_33k_ES_PAN_21mic_H50_0451_fot_53A-25872_W_tif
  70
32
  10
249875.000
  20
4545097.793
  30
815.9
  0
VERTEX
  8
PNOA-H_AMS_1956-57_33k_ES_PAN_21mic_H50_0451_fot_53A-25872_W_tif
  70
32
  10
249712.000
  20
4545234.293
  30
816
  0
VERTEX
  8
PNOA-H_AMS_1956-57_33k_ES_PAN_21mic_H50_0451_fot_53A-25872_W_tif
  70
32
  10
249788.000
  20
4549319.793
  30
787
  0
VERTEX
  8
PNOA-H_AMS_1956-57_33k_ES_PAN_21mic_H50_0451_fot_53A-25872_W_tif
  70
32
  10
249978.000
  20
4549404.793
  30
785
  0
VERTEX
  8
PNOA-H_AMS_1956-57_33k_ES_PAN_21mic_H50_0451_fot_53A-25872_W_tif
  70
32
  10
249986.000
  20
4549405.793
  30
785
  0
VERTEX
  8
PNOA-H_AMS_1956-57_33k_ES_PAN_21mic_H50_0451_fot_53A-25872_W_tif
  70
32
  10
251288.000
  20
4549294.793
  30
762.4
  0
VERTEX
  8
PNOA-H_AMS_1956-57_33k_ES_PAN_21mic_H50_0451_fot_53A-25872_W_tif
  70
32
  10
251290.500
  20
4549294.793
  30
761.9
  0
SEQEND
  8
PNOA-H_AMS_1956-57_33k_ES_PAN_21mic_H50_0451_fot_53A-25872_W_tif
  0
TEXT
  8
PNOA-H_AMS_1956-57_33k_ES_PAN_21mic_H50_0451_fot_53A-25872_W_tif
 62
0
  1
PNOA-H_AMS_1956-57_33k_ES_PAN_21mic_H50_0451_fot_53A-25872_W.tif
 40
41.56763
  10
251097.007
  20
4547251.793
  0
POLYLINE
  8
PNOA-H_AMS_1956-57_33k_ES_PAN_21mic_H50_0451_fot_53A-25873_W_tif
  70
9
  66
1
  0
VERTEX
  8
PNOA-H_AMS_1956-57_33k_ES_PAN_21mic_H50_0451_fot_53A-25873_W_tif
  70
32
  10
247194.000
  20
4549425.293
  30
804
  0
VERTEX
  8
PNOA-H_AMS_1956-57_33k_ES_PAN_21mic_H50_0451_fot_53A-25873_W_tif
  70
32
  10
247425.500
  20
4549522.793
  30
799
  0
VERTEX
  8
PNOA-H_AMS_1956-57_33k_ES_PAN_21mic_H50_0451_fot_53A-25873_W_tif
  70
32
  10
247433.000
  20
4549523.293
  30
798.4
  0
VERTEX
  8
PNOA-H_AMS_1956-57_33k_ES_PAN_21mic_H50_0451_fot_53A-25873_W_tif
  70
32
  10
249788.000
  20
4549319.793
  30
787
  0
VERTEX
  8
PNOA-H_AMS_1956-57_33k_ES_PAN_21mic_H50_0451_fot_53A-25873_W_tif
  70
32
  10
249712.000
  20
4545234.793
  30
816
  0
VERTEX
  8
PNOA-H_AMS_1956-57_33k_ES_PAN_21mic_H50_0451_fot_53A-25873_W_tif
  70
32
  10
247002.500
  20
4545260.293
  30
846
  0
VERTEX
  8
PNOA-H_AMS_1956-57_33k_ES_PAN_21mic_H50_0451_fot_53A-25873_W_tif
  70
32
  10
247119.000
  20
4549393.293
  30
806
  0
VERTEX
  8
PNOA-H_AMS_1956-57_33k_ES_PAN_21mic_H50_0451_fot_53A-25873_W_tif
  70
32
  10
247193.000
  20
4549424.793
  30
804
  0
VERTEX
  8
PNOA-H_AMS_1956-57_33k_ES_PAN_21mic_H50_0451_fot_53A-25873_W_tif
  70
32
  10
247194.000
  20
4549425.293
  30
804
  0
SEQEND
  8
PNOA-H_AMS_1956-57_33k_ES_PAN_21mic_H50_0451_fot_53A-25873_W_tif
  0
TEXT
  8
PNOA-H_AMS_1956-57_33k_ES_PAN_21mic_H50_0451_fot_53A-25873_W_tif
 62
0
  1
PNOA-H_AMS_1956-57_33k_ES_PAN_21mic_H50_0451_fot_53A-25873_W.tif
 40
41.56763
  10
248407.058
  20
4547379.043
  0
POLYLINE
  8
PNOA-H_AMS_1956-57_33k_ES_PAN_21mic_H50_0451_fot_54A-29156_W_tif
  70
9
  66
1
  0
VERTEX
  8
PNOA-H_AMS_1956-57_33k_ES_PAN_21mic_H50_0451_fot_54A-29156_W_tif
  70
32
  10
255328.767
  20
4542834.114
  30
790
  0
VERTEX
  8
PNOA-H_AMS_1956-57_33k_ES_PAN_21mic_H50_0451_fot_54A-29156_W_tif
  70
32
  10
252936.491
  20
4542914.079
  30
800.315
  0
VERTEX
  8
PNOA-H_AMS_1956-57_33k_ES_PAN_21mic_H50_0451_fot_54A-29156_W_tif
  70
32
  10
252511.634
  20
4542928.483
  30
800.348
  0
VERTEX
  8
PNOA-H_AMS_1956-57_33k_ES_PAN_21mic_H50_0451_fot_54A-29156_W_tif
  70
32
  10
252650.500
  20
4544921.793
  30
796
  0
VERTEX
  8
PNOA-H_AMS_1956-57_33k_ES_PAN_21mic_H50_0451_fot_54A-29156_W_tif
  70
32
  10
255091.500
  20
4545039.293
  30
808.28
  0
VERTEX
  8
PNOA-H_AMS_1956-57_33k_ES_PAN_21mic_H50_0451_fot_54A-29156_W_tif
  70
32
  10
255436.000
  20
4544793.793
  30
795.62
  0
VERTEX
  8
PNOA-H_AMS_1956-57_33k_ES_PAN_21mic_H50_0451_fot_54A-29156_W_tif
  70
32
  10
255437.000
  20
4544792.793
  30
795.58
  0
VERTEX
  8
PNOA-H_AMS_1956-57_33k_ES_PAN_21mic_H50_0451_fot_54A-29156_W_tif
  70
32
  10
255437.000
  20
4544789.293
  30
795.24
  0
VERTEX
  8
PNOA-H_AMS_1956-57_33k_ES_PAN_21mic_H50_0451_fot_54A-29156_W_tif
  70
32
  10
255435.500
  20
4544761.793
  30
795
  0
VERTEX
  8
PNOA-H_AMS_1956-57_33k_ES_PAN_21mic_H50_0451_fot_54A-29156_W_tif
  70
32
  10
255336.000
  20
4542966.793
  30
789.8
  0
VERTEX
  8
PNOA-H_AMS_1956-57_33k_ES_PAN_21mic_H50_0451_fot_54A-29156_W_tif
  70
32
  10
255336.000
  20
4542965.793
  30
789.8
  0
SEQEND
  8
PNOA-H_AMS_1956-57_33k_ES_PAN_21mic_H50_0451_fot_54A-29156_W_tif
  0
TEXT
  8
PNOA-H_AMS_1956-57_33k_ES_PAN_21mic_H50_0451_fot_54A-29156_W_tif
 62
0
  1
PNOA-H_AMS_1956-57_33k_ES_PAN_21mic_H50_0451_fot_54A-29156_W.tif
 40
41.56763
  10
253930.546
  20
4543053.043
  0
POLYLINE
  8
PNOA-H_AMS_1956-57_33k_ES_PAN_21mic_H50_0451_fot_54A-29157_W_tif
  70
9
  66
1
  0
VERTEX
  8
PNOA-H_AMS_1956-57_33k_ES_PAN_21mic_H50_0451_fot_54A-29157_W_tif
  70
32
  10
252511.634
  20
4542928.483
  30
800.348
  0
VERTEX
  8
PNOA-H_AMS_1956-57_33k_ES_PAN_21mic_H50_0451_fot_54A-29157_W_tif
  70
32
  10
249700.834
  20
4543023.782
  30
822.018
  0
VERTEX
  8
PNOA-H_AMS_1956-57_33k_ES_PAN_21mic_H50_0451_fot_54A-29157_W_tif
  70
32
  10
249875.000
  20
4545097.793
  30
815.9
  0
VERTEX
  8
PNOA-H_AMS_1956-57_33k_ES_PAN_21mic_H50_0451_fot_54A-29157_W_tif
  70
32
  10
252303.000
  20
4545114.793
  30
790
  0
VERTEX
  8
PNOA-H_AMS_1956-57_33k_ES_PAN_21mic_H50_0451_fot_54A-29157_W_tif
  70
32
  10
252376.000
  20
4545115.293
  30
792.4
  0
VERTEX
  8
PNOA-H_AMS_1956-57_33k_ES_PAN_21mic_H50_0451_fot_54A-29157_W_tif
  70
32
  10
252401.000
  20
4545115.293
  30
793
  0
VERTEX
  8
PNOA-H_AMS_1956-57_33k_ES_PAN_21mic_H50_0451_fot_54A-29157_W_tif
  70
32
  10
252402.500
  20
4545114.293
  30
793
  0
VERTEX
  8
PNOA-H_AMS_1956-57_33k_ES_PAN_21mic_H50_0451_fot_54A-29157_W_tif
  70
32
  10
252650.500
  20
4544921.793
  30
796
  0
SEQEND
  8
PNOA-H_AMS_1956-57_33k_ES_PAN_21mic_H50_0451_fot_54A-29157_W_tif
  0
TEXT
  8
PNOA-H_AMS_1956-57_33k_ES_PAN_21mic_H50_0451_fot_54A-29157_W_tif
 62
0
  1
PNOA-H_AMS_1956-57_33k_ES_PAN_21mic_H50_0451_fot_54A-29157_W.tif
 40
41.56763
  10
251117.813
  20
4543131.293
  0
POLYLINE
  8
PNOA-H_AMS_1956-57_33k_ES_PAN_21mic_H50_0451_fot_54A-29158_W_tif
  70
9
  66
1
  0
VERTEX
  8
PNOA-H_AMS_1956-57_33k_ES_PAN_21mic_H50_0451_fot_54A-29158_W_tif
  70
32
  10
249700.815
  20
4543023.782
  30
821.974
  0
VERTEX
  8
PNOA-H_AMS_1956-57_33k_ES_PAN_21mic_H50_0451_fot_54A-29158_W_tif
  70
32
  10
249431.603
  20
4543032.910
  30
822.013
  0
VERTEX
  8
PNOA-H_AMS_1956-57_33k_ES_PAN_21mic_H50_0451_fot_54A-29158_W_tif
  70
32
  10
246980.709
  20
4543117.179
  30
835.943
  0
VERTEX
  8
PNOA-H_AMS_1956-57_33k_ES_PAN_21mic_H50_0451_fot_54A-29158_W_tif
  70
32
  10
246989.500
  20
4545235.793
  30
845
  0
VERTEX
  8
PNOA-H_AMS_1956-57_33k_ES_PAN_21mic_H50_0451_fot_54A-29158_W_tif
  70
32
  10
246990.000
  20
4545250.293
  30
845
  0
VERTEX
  8
PNOA-H_AMS_1956-57_33k_ES_PAN_21mic_H50_0451_fot_54A-29158_W_tif
  70
32
  10
247002.000
  20
4545259.293
  30
846
  0
VERTEX
  8
PNOA-H_AMS_1956-57_33k_ES_PAN_21mic_H50_0451_fot_54A-29158_W_tif
  70
32
  10
247002.500
  20
4545260.293
  30
846
  0
VERTEX
  8
PNOA-H_AMS_1956-57_33k_ES_PAN_21mic_H50_0451_fot_54A-29158_W_tif
  70
32
  10
249712.000
  20
4545234.793
  30
816
  0
VERTEX
  8
PNOA-H_AMS_1956-57_33k_ES_PAN_21mic_H50_0451_fot_54A-29158_W_tif
  70
32
  10
249875.000
  20
4545098.293
  30
815.8
  0
SEQEND
  8
PNOA-H_AMS_1956-57_33k_ES_PAN_21mic_H50_0451_fot_54A-29158_W_tif
  0
TEXT
  8
PNOA-H_AMS_1956-57_33k_ES_PAN_21mic_H50_0451_fot_54A-29158_W_tif
 62
0
  1
PNOA-H_AMS_1956-57_33k_ES_PAN_21mic_H50_0451_fot_54A-29158_W.tif
 40
41.56763
  10
248350.966
  20
4543259.793
  0
POLYLINE
  8
PNOA-H_AMS_1956-57_33k_ES_PAN_21mic_H50_0451_fot_51A-08847_E_tif
  70
9
  66
1
  0
VERTEX
  8
PNOA-H_AMS_1956-57_33k_ES_PAN_21mic_H50_0451_fot_51A-08847_E_tif
  70
32
  10
260440.268
  20
4557765.562
  30
827.949
  0
VERTEX
  8
PNOA-H_AMS_1956-57_33k_ES_PAN_21mic_H50_0451_fot_51A-08847_E_tif
  70
32
  10
260400.735
  20
4556560.172
  30
812.257
  0
VERTEX
  8
PNOA-H_AMS_1956-57_33k_ES_PAN_21mic_H50_0451_fot_51A-08847_E_tif
  70
32
  10
260324.901
  20
4554247.035
  30
805.491
  0
VERTEX
  8
PNOA-H_AMS_1956-57_33k_ES_PAN_21mic_H50_0451_fot_51A-08847_E_tif
  70
32
  10
260301.329
  20
4553527.694
  30
802.997
  0
VERTEX
  8
PNOA-H_AMS_1956-57_33k_ES_PAN_21mic_H50_0451_fot_51A-08847_E_tif
  70
32
  10
258324.000
  20
4553462.293
  30
800
  0
VERTEX
  8
PNOA-H_AMS_1956-57_33k_ES_PAN_21mic_H50_0451_fot_51A-08847_E_tif
  70
32
  10
258319.000
  20
4553462.293
  30
800
  0
VERTEX
  8
PNOA-H_AMS_1956-57_33k_ES_PAN_21mic_H50_0451_fot_51A-08847_E_tif
  70
32
  10
258314.500
  20
4553464.793
  30
800
  0
VERTEX
  8
PNOA-H_AMS_1956-57_33k_ES_PAN_21mic_H50_0451_fot_51A-08847_E_tif
  70
32
  10
257847.000
  20
4553727.793
  30
820.9
  0
VERTEX
  8
PNOA-H_AMS_1956-57_33k_ES_PAN_21mic_H50_0451_fot_51A-08847_E_tif
  70
32
  10
258011.500
  20
4557816.293
  30
802
  0
VERTEX
  8
PNOA-H_AMS_1956-57_33k_ES_PAN_21mic_H50_0451_fot_51A-08847_E_tif
  70
32
  10
258441.500
  20
4558027.793
  30
793.73
  0
VERTEX
  8
PNOA-H_AMS_1956-57_33k_ES_PAN_21mic_H50_0451_fot_51A-08847_E_tif
  70
32
  10
259479.500
  20
4557891.293
  30
819.2
  0
VERTEX
  8
PNOA-H_AMS_1956-57_33k_ES_PAN_21mic_H50_0451_fot_51A-08847_E_tif
  70
32
  10
259482.500
  20
4557891.293
  30
819.6
  0
SEQEND
  8
PNOA-H_AMS_1956-57_33k_ES_PAN_21mic_H50_0451_fot_51A-08847_E_tif
  0
TEXT
  8
PNOA-H_AMS_1956-57_33k_ES_PAN_21mic_H50_0451_fot_51A-08847_E_tif
 62
0
  1
PNOA-H_AMS_1956-57_33k_ES_PAN_21mic_H50_0451_fot_51A-08847_E.tif
 40
41.56763
  10
259219.082
  20
4555745.043
  0
POLYLINE
  8
PNOA-H_AMS_1956-57_33k_ES_PAN_21mic_H50_0451_fot_51A-08846_E_tif
  70
9
  66
1
  0
VERTEX
  8
PNOA-H_AMS_1956-57_33k_ES_PAN_21mic_H50_0451_fot_51A-08846_E_tif
  70
32
  10
255386.000
  20
4558029.793
  30
809.1
  0
VERTEX
  8
PNOA-H_AMS_1956-57_33k_ES_PAN_21mic_H50_0451_fot_51A-08846_E_tif
  70
32
  10
255693.000
  20
4558182.793
  30
818.64
  0
VERTEX
  8
PNOA-H_AMS_1956-57_33k_ES_PAN_21mic_H50_0451_fot_51A-08846_E_tif
  70
32
  10
258011.500
  20
4557816.293
  30
802
  0
VERTEX
  8
PNOA-H_AMS_1956-57_33k_ES_PAN_21mic_H50_0451_fot_51A-08846_E_tif
  70
32
  10
257847.000
  20
4553727.793
  30
820.9
  0
VERTEX
  8
PNOA-H_AMS_1956-57_33k_ES_PAN_21mic_H50_0451_fot_51A-08846_E_tif
  70
32
  10
255688.500
  20
4553570.793
  30
790.7
  0
VERTEX
  8
PNOA-H_AMS_1956-57_33k_ES_PAN_21mic_H50_0451_fot_51A-08846_E_tif
  70
32
  10
255096.000
  20
4553894.293
  30
799.08
  0
VERTEX
  8
PNOA-H_AMS_1956-57_33k_ES_PAN_21mic_H50_0451_fot_51A-08846_E_tif
  70
32
  10
255293.000
  20
4557982.793
  30
803.6
  0
VERTEX
  8
PNOA-H_AMS_1956-57_33k_ES_PAN_21mic_H50_0451_fot_51A-08846_E_tif
  70
32
  10
255385.000
  20
4558029.293
  30
809
  0
VERTEX
  8
PNOA-H_AMS_1956-57_33k_ES_PAN_21mic_H50_0451_fot_51A-08846_E_tif
  70
32
  10
255386.000
  20
4558029.793
  30
809.1
  0
SEQEND
  8
PNOA-H_AMS_1956-57_33k_ES_PAN_21mic_H50_0451_fot_51A-08846_E_tif
  0
TEXT
  8
PNOA-H_AMS_1956-57_33k_ES_PAN_21mic_H50_0451_fot_51A-08846_E_tif
 62
0
  1
PNOA-H_AMS_1956-57_33k_ES_PAN_21mic_H50_0451_fot_51A-08846_E.tif
 40
41.56763
  10
256562.495
  20
4555876.793
  0
POLYLINE
  8
PNOA-H_AMS_1956-57_33k_ES_PAN_21mic_H50_0451_fot_52B-10269_W_tif
  70
9
  66
1
  0
VERTEX
  8
PNOA-H_AMS_1956-57_33k_ES_PAN_21mic_H50_0451_fot_52B-10269_W_tif
  70
32
  10
260301.333
  20
4553527.837
  30
801.751
  0
VERTEX
  8
PNOA-H_AMS_1956-57_33k_ES_PAN_21mic_H50_0451_fot_52B-10269_W_tif
  70
32
  10
260249.100
  20
4551933.905
  30
792.785
  0
VERTEX
  8
PNOA-H_AMS_1956-57_33k_ES_PAN_21mic_H50_0451_fot_52B-10269_W_tif
  70
32
  10
260173.330
  20
4549620.781
  30
785.984
  0
VERTEX
  8
PNOA-H_AMS_1956-57_33k_ES_PAN_21mic_H50_0451_fot_52B-10269_W_tif
  70
32
  10
260148.818
  20
4548872.132
  30
782.718
  0
VERTEX
  8
PNOA-H_AMS_1956-57_33k_ES_PAN_21mic_H50_0451_fot_52B-10269_W_tif
  70
32
  10
258014.000
  20
4549029.793
  30
773
  0
VERTEX
  8
PNOA-H_AMS_1956-57_33k_ES_PAN_21mic_H50_0451_fot_52B-10269_W_tif
  70
32
  10
258319.500
  20
4553462.293
  30
800
  0
VERTEX
  8
PNOA-H_AMS_1956-57_33k_ES_PAN_21mic_H50_0451_fot_52B-10269_W_tif
  70
32
  10
259458.000
  20
4553500.293
  30
796
  0
VERTEX
  8
PNOA-H_AMS_1956-57_33k_ES_PAN_21mic_H50_0451_fot_52B-10269_W_tif
  70
32
  10
259473.000
  20
4553500.793
  30
797
  0
SEQEND
  8
PNOA-H_AMS_1956-57_33k_ES_PAN_21mic_H50_0451_fot_52B-10269_W_tif
  0
TEXT
  8
PNOA-H_AMS_1956-57_33k_ES_PAN_21mic_H50_0451_fot_52B-10269_W_tif
 62
0
  1
PNOA-H_AMS_1956-57_33k_ES_PAN_21mic_H50_0451_fot_52B-10269_W.tif
 40
41.56763
  10
259256.649
  20
4551195.962
  0
POLYLINE
  8
PNOA-H_AMS_1956-57_33k_ES_PAN_21mic_H50_0451_fot_52B-10270_W_tif
  70
9
  66
1
  0
VERTEX
  8
PNOA-H_AMS_1956-57_33k_ES_PAN_21mic_H50_0451_fot_52B-10270_W_tif
  70
32
  10
257429.000
  20
4553697.793
  30
794
  0
VERTEX
  8
PNOA-H_AMS_1956-57_33k_ES_PAN_21mic_H50_0451_fot_52B-10270_W_tif
  70
32
  10
257848.000
  20
4553727.793
  30
820.9
  0
VERTEX
  8
PNOA-H_AMS_1956-57_33k_ES_PAN_21mic_H50_0451_fot_52B-10270_W_tif
  70
32
  10
258319.500
  20
4553462.293
  30
800
  0
VERTEX
  8
PNOA-H_AMS_1956-57_33k_ES_PAN_21mic_H50_0451_fot_52B-10270_W_tif
  70
32
  10
258014.500
  20
4549034.293
  30
772.6
  0
VERTEX
  8
PNOA-H_AMS_1956-57_33k_ES_PAN_21mic_H50_0451_fot_52B-10270_W_tif
  70
32
  10
258013.500
  20
4549029.293
  30
773
  0
VERTEX
  8
PNOA-H_AMS_1956-57_33k_ES_PAN_21mic_H50_0451_fot_52B-10270_W_tif
  70
32
  10
257883.000
  20
4548966.793
  30
773.46
  0
VERTEX
  8
PNOA-H_AMS_1956-57_33k_ES_PAN_21mic_H50_0451_fot_52B-10270_W_tif
  70
32
  10
255350.000
  20
4549167.293
  30
821
  0
VERTEX
  8
PNOA-H_AMS_1956-57_33k_ES_PAN_21mic_H50_0451_fot_52B-10270_W_tif
  70
32
  10
255689.000
  20
4553570.793
  30
790.7
  0
VERTEX
  8
PNOA-H_AMS_1956-57_33k_ES_PAN_21mic_H50_0451_fot_52B-10270_W_tif
  70
32
  10
257422.000
  20
4553697.293
  30
794
  0
VERTEX
  8
PNOA-H_AMS_1956-57_33k_ES_PAN_21mic_H50_0451_fot_52B-10270_W_tif
  70
32
  10
257429.000
  20
4553697.793
  30
794
  0
SEQEND
  8
PNOA-H_AMS_1956-57_33k_ES_PAN_21mic_H50_0451_fot_52B-10270_W_tif
  0
TEXT
  8
PNOA-H_AMS_1956-57_33k_ES_PAN_21mic_H50_0451_fot_52B-10270_W_tif
 62
0
  1
PNOA-H_AMS_1956-57_33k_ES_PAN_21mic_H50_0451_fot_52B-10270_W.tif
 40
41.56763
  10
256845.822
  20
4551347.293
  0
POLYLINE
  8
PNOA-H_AMS_1956-57_33k_ES_PAN_21mic_H50_0451_fot_53A-25869_W_tif
  70
9
  66
1
  0
VERTEX
  8
PNOA-H_AMS_1956-57_33k_ES_PAN_21mic_H50_0451_fot_53A-25869_W_tif
  70
32
  10
260148.816
  20
4548872.091
  30
785.657
  0
VERTEX
  8
PNOA-H_AMS_1956-57_33k_ES_PAN_21mic_H50_0451_fot_53A-25869_W_tif
  70
32
  10
260097.593
  20
4547307.664
  30
790.655
  0
VERTEX
  8
PNOA-H_AMS_1956-57_33k_ES_PAN_21mic_H50_0451_fot_53A-25869_W_tif
  70
32
  10
260021.887
  20
4544994.553
  30
816.975
  0
VERTEX
  8
PNOA-H_AMS_1956-57_33k_ES_PAN_21mic_H50_0451_fot_53A-25869_W_tif
  70
32
  10
260017.499
  20
4544860.433
  30
816.92
  0
VERTEX
  8
PNOA-H_AMS_1956-57_33k_ES_PAN_21mic_H50_0451_fot_53A-25869_W_tif
  70
32
  10
258166.500
  20
4544680.293
  30
811
  0
VERTEX
  8
PNOA-H_AMS_1956-57_33k_ES_PAN_21mic_H50_0451_fot_53A-25869_W_tif
  70
32
  10
258163.000
  20
4544680.293
  30
811
  0
VERTEX
  8
PNOA-H_AMS_1956-57_33k_ES_PAN_21mic_H50_0451_fot_53A-25869_W_tif
  70
32
  10
258152.000
  20
4544687.293
  30
811
  0
VERTEX
  8
PNOA-H_AMS_1956-57_33k_ES_PAN_21mic_H50_0451_fot_53A-25869_W_tif
  70
32
  10
257766.500
  20
4544942.293
  30
815
  0
VERTEX
  8
PNOA-H_AMS_1956-57_33k_ES_PAN_21mic_H50_0451_fot_53A-25869_W_tif
  70
32
  10
257882.500
  20
4548966.293
  30
773.6
  0
VERTEX
  8
PNOA-H_AMS_1956-57_33k_ES_PAN_21mic_H50_0451_fot_53A-25869_W_tif
  70
32
  10
258006.000
  20
4549026.293
  30
773
  0
VERTEX
  8
PNOA-H_AMS_1956-57_33k_ES_PAN_21mic_H50_0451_fot_53A-25869_W_tif
  70
32
  10
258013.500
  20
4549029.793
  30
773
  0
VERTEX
  8
PNOA-H_AMS_1956-57_33k_ES_PAN_21mic_H50_0451_fot_53A-25869_W_tif
  70
32
  10
258016.500
  20
4549029.793
  30
773
  0
VERTEX
  8
PNOA-H_AMS_1956-57_33k_ES_PAN_21mic_H50_0451_fot_53A-25869_W_tif
  70
32
  10
259477.500
  20
4548921.293
  30
788
  0
VERTEX
  8
PNOA-H_AMS_1956-57_33k_ES_PAN_21mic_H50_0451_fot_53A-25869_W_tif
  70
32
  10
259482.500
  20
4548921.293
  30
788
  0
SEQEND
  8
PNOA-H_AMS_1956-57_33k_ES_PAN_21mic_H50_0451_fot_53A-25869_W_tif
  0
TEXT
  8
PNOA-H_AMS_1956-57_33k_ES_PAN_21mic_H50_0451_fot_53A-25869_W_tif
 62
0
  1
PNOA-H_AMS_1956-57_33k_ES_PAN_21mic_H50_0451_fot_53A-25869_W.tif
 40
41.56763
  10
259010.819
  20
4546855.043
  0
POLYLINE
  8
PNOA-H_AMS_1956-57_33k_ES_PAN_21mic_H50_0451_fot_53A-25870_W_tif
  70
9
  66
1
  0
VERTEX
  8
PNOA-H_AMS_1956-57_33k_ES_PAN_21mic_H50_0451_fot_53A-25870_W_tif
  70
32
  10
255386.500
  20
4549164.793
  30
820
  0
VERTEX
  8
PNOA-H_AMS_1956-57_33k_ES_PAN_21mic_H50_0451_fot_53A-25870_W_tif
  70
32
  10
257883.000
  20
4548966.793
  30
773.46
  0
VERTEX
  8
PNOA-H_AMS_1956-57_33k_ES_PAN_21mic_H50_0451_fot_53A-25870_W_tif
  70
32
  10
257766.500
  20
4544942.293
  30
815
  0
VERTEX
  8
PNOA-H_AMS_1956-57_33k_ES_PAN_21mic_H50_0451_fot_53A-25870_W_tif
  70
32
  10
255442.000
  20
4544792.793
  30
795.1
  0
VERTEX
  8
PNOA-H_AMS_1956-57_33k_ES_PAN_21mic_H50_0451_fot_53A-25870_W_tif
  70
32
  10
255436.500
  20
4544792.793
  30
795.66
  0
VERTEX
  8
PNOA-H_AMS_1956-57_33k_ES_PAN_21mic_H50_0451_fot_53A-25870_W_tif
  70
32
  10
255433.500
  20
4544794.793
  30
795.65
  0
VERTEX
  8
PNOA-H_AMS_1956-57_33k_ES_PAN_21mic_H50_0451_fot_53A-25870_W_tif
  70
32
  10
255091.500
  20
4545038.793
  30
808.21
  0
VERTEX
  8
PNOA-H_AMS_1956-57_33k_ES_PAN_21mic_H50_0451_fot_53A-25870_W_tif
  70
32
  10
255196.500
  20
4549095.293
  30
816
  0
VERTEX
  8
PNOA-H_AMS_1956-57_33k_ES_PAN_21mic_H50_0451_fot_53A-25870_W_tif
  70
32
  10
255348.000
  20
4549166.793
  30
821
  0
VERTEX
  8
PNOA-H_AMS_1956-57_33k_ES_PAN_21mic_H50_0451_fot_53A-25870_W_tif
  70
32
  10
255355.500
  20
4549167.293
  30
820
  0
VERTEX
  8
PNOA-H_AMS_1956-57_33k_ES_PAN_21mic_H50_0451_fot_53A-25870_W_tif
  70
32
  10
255380.500
  20
4549164.793
  30
820
  0
VERTEX
  8
PNOA-H_AMS_1956-57_33k_ES_PAN_21mic_H50_0451_fot_53A-25870_W_tif
  70
32
  10
255386.500
  20
4549164.793
  30
820
  0
SEQEND
  8
PNOA-H_AMS_1956-57_33k_ES_PAN_21mic_H50_0451_fot_53A-25870_W_tif
  0
TEXT
  8
PNOA-H_AMS_1956-57_33k_ES_PAN_21mic_H50_0451_fot_53A-25870_W_tif
 62
0
  1
PNOA-H_AMS_1956-57_33k_ES_PAN_21mic_H50_0451_fot_53A-25870_W.tif
 40
41.56763
  10
256483.618
  20
4546980.043
  0
POLYLINE
  8
PNOA-H_AMS_1956-57_33k_ES_PAN_21mic_H50_0451_fot_54A-29155_W_tif
  70
9
  66
1
  0
VERTEX
  8
PNOA-H_AMS_1956-57_33k_ES_PAN_21mic_H50_0451_fot_54A-29155_W_tif
  70
32
  10
258111.096
  20
4542741.911
  30
810.639
  0
VERTEX
  8
PNOA-H_AMS_1956-57_33k_ES_PAN_21mic_H50_0451_fot_54A-29155_W_tif
  70
32
  10
256441.361
  20
4542796.925
  30
793.857
  0
VERTEX
  8
PNOA-H_AMS_1956-57_33k_ES_PAN_21mic_H50_0451_fot_54A-29155_W_tif
  70
32
  10
255329.058
  20
4542834.105
  30
793.835
  0
VERTEX
  8
PNOA-H_AMS_1956-57_33k_ES_PAN_21mic_H50_0451_fot_54A-29155_W_tif
  70
32
  10
255437.000
  20
4544792.793
  30
795.58
  0
VERTEX
  8
PNOA-H_AMS_1956-57_33k_ES_PAN_21mic_H50_0451_fot_54A-29155_W_tif
  70
32
  10
257751.500
  20
4544941.793
  30
812.3
  0
VERTEX
  8
PNOA-H_AMS_1956-57_33k_ES_PAN_21mic_H50_0451_fot_54A-29155_W_tif
  70
32
  10
257759.000
  20
4544942.293
  30
813.8
  0
VERTEX
  8
PNOA-H_AMS_1956-57_33k_ES_PAN_21mic_H50_0451_fot_54A-29155_W_tif
  70
32
  10
257767.500
  20
4544942.293
  30
815
  0
VERTEX
  8
PNOA-H_AMS_1956-57_33k_ES_PAN_21mic_H50_0451_fot_54A-29155_W_tif
  70
32
  10
257774.500
  20
4544937.793
  30
815.09
  0
VERTEX
  8
PNOA-H_AMS_1956-57_33k_ES_PAN_21mic_H50_0451_fot_54A-29155_W_tif
  70
32
  10
258163.500
  20
4544680.293
  30
811
  0
SEQEND
  8
PNOA-H_AMS_1956-57_33k_ES_PAN_21mic_H50_0451_fot_54A-29155_W_tif
  0
TEXT
  8
PNOA-H_AMS_1956-57_33k_ES_PAN_21mic_H50_0451_fot_54A-29155_W_tif
 62
0
  1
PNOA-H_AMS_1956-57_33k_ES_PAN_21mic_H50_0451_fot_54A-29155_W.tif
 40
41.56763
  10
256725.941
  20
4542946.543
  0
POLYLINE
  8
PNOA-H_AMS_1956-57_33k_ES_PAN_21mic_H50_0451_fot_54A-29154_W_tif
  70
9
  66
1
  0
VERTEX
  8
PNOA-H_AMS_1956-57_33k_ES_PAN_21mic_H50_0451_fot_54A-29154_W_tif
  70
32
  10
260017.507
  20
4544860.687
  30
816.928
  0
VERTEX
  8
PNOA-H_AMS_1956-57_33k_ES_PAN_21mic_H50_0451_fot_54A-29154_W_tif
  70
32
  10
259946.212
  20
4542681.448
  30
830.27
  0
VERTEX
  8
PNOA-H_AMS_1956-57_33k_ES_PAN_21mic_H50_0451_fot_54A-29154_W_tif
  70
32
  10
258111.096
  20
4542741.911
  30
810.639
  0
VERTEX
  8
PNOA-H_AMS_1956-57_33k_ES_PAN_21mic_H50_0451_fot_54A-29154_W_tif
  70
32
  10
258163.500
  20
4544680.293
  30
811
  0
SEQEND
  8
PNOA-H_AMS_1956-57_33k_ES_PAN_21mic_H50_0451_fot_54A-29154_W_tif
  0
TEXT
  8
PNOA-H_AMS_1956-57_33k_ES_PAN_21mic_H50_0451_fot_54A-29154_W_tif
 62
0
  1
PNOA-H_AMS_1956-57_33k_ES_PAN_21mic_H50_0451_fot_54A-29154_W.tif
 40
41.56763
  10
259157.085
  20
4542855.619
  0
ENDSEC
  0
EOF
