  0
SECTION
  2
HEADER
  9
$ACADVER
  1
AC1009
  9
$LUNITS
  70
2
  9
$LIMMIN
  10
203866.276
  20
4543652.229
  9
$LIMMAX
  10
232584.138
  20
4563237.072
  9
$EXTMIN
  10
203866.276
  20
4543652.229
  9
$EXTMAX
  10
232584.138
  20
4563237.072
  999
Created by Global Mapper
  999
Projection: UTM
  999
Datum: ETRS89
  999
Ground Units: meters
  999
ZONE: 30
  0
ENDSEC
  0
SECTION
  2
TABLES
  0
ENDSEC
  0
SECTION
  2
BLOCKS
  0
ENDSEC
  0
SECTION
  2
ENTITIES
  0
POLYLINE
  8
PNOA-H_AMS_1956-57_33k_ES_PAN_21mic_H50_0450_fot_50A-08777_E_tif
  70
9
  66
1
  0
VERTEX
  8
PNOA-H_AMS_1956-57_33k_ES_PAN_21mic_H50_0450_fot_50A-08777_E_tif
  70
32
  10
206447.392
  20
4563163.281
  30
714.932
  0
VERTEX
  8
PNOA-H_AMS_1956-57_33k_ES_PAN_21mic_H50_0450_fot_50A-08777_E_tif
  70
32
  10
206211.500
  20
4560238.293
  30
737.3
  0
VERTEX
  8
PNOA-H_AMS_1956-57_33k_ES_PAN_21mic_H50_0450_fot_50A-08777_E_tif
  70
32
  10
206211.000
  20
4560232.293
  30
737.2
  0
VERTEX
  8
PNOA-H_AMS_1956-57_33k_ES_PAN_21mic_H50_0450_fot_50A-08777_E_tif
  70
32
  10
206209.500
  20
4560231.293
  30
737.18
  0
VERTEX
  8
PNOA-H_AMS_1956-57_33k_ES_PAN_21mic_H50_0450_fot_50A-08777_E_tif
  70
32
  10
204736.000
  20
4559795.293
  30
742.32
  0
VERTEX
  8
PNOA-H_AMS_1956-57_33k_ES_PAN_21mic_H50_0450_fot_50A-08777_E_tif
  70
32
  10
204479.098
  20
4559891.150
  30
740.3
  0
VERTEX
  8
PNOA-H_AMS_1956-57_33k_ES_PAN_21mic_H50_0450_fot_50A-08777_E_tif
  70
32
  10
204520.892
  20
4560923.722
  30
737.928
  0
VERTEX
  8
PNOA-H_AMS_1956-57_33k_ES_PAN_21mic_H50_0450_fot_50A-08777_E_tif
  70
32
  10
204614.566
  20
4563237.072
  30
690.56
  0
SEQEND
  8
PNOA-H_AMS_1956-57_33k_ES_PAN_21mic_H50_0450_fot_50A-08777_E_tif
  0
TEXT
  8
PNOA-H_AMS_1956-57_33k_ES_PAN_21mic_H50_0450_fot_50A-08777_E_tif
 62
0
  1
PNOA-H_AMS_1956-57_33k_ES_PAN_21mic_H50_0450_fot_50A-08777_E.tif
 40
41.71242
  10
204820.490
  20
4562206.043
  0
POLYLINE
  8
PNOA-H_AMS_1956-57_33k_ES_PAN_21mic_H50_0450_fot_50A-08778_E_tif
  70
9
  66
1
  0
VERTEX
  8
PNOA-H_AMS_1956-57_33k_ES_PAN_21mic_H50_0450_fot_50A-08778_E_tif
  70
32
  10
209425.445
  20
4563044.014
  30
722.77
  0
VERTEX
  8
PNOA-H_AMS_1956-57_33k_ES_PAN_21mic_H50_0450_fot_50A-08778_E_tif
  70
32
  10
209329.500
  20
4561402.293
  30
726
  0
VERTEX
  8
PNOA-H_AMS_1956-57_33k_ES_PAN_21mic_H50_0450_fot_50A-08778_E_tif
  70
32
  10
209329.500
  20
4561397.793
  30
726
  0
VERTEX
  8
PNOA-H_AMS_1956-57_33k_ES_PAN_21mic_H50_0450_fot_50A-08778_E_tif
  70
32
  10
209251.500
  20
4560064.793
  30
742.85
  0
VERTEX
  8
PNOA-H_AMS_1956-57_33k_ES_PAN_21mic_H50_0450_fot_50A-08778_E_tif
  70
32
  10
207605.000
  20
4559638.793
  30
734
  0
VERTEX
  8
PNOA-H_AMS_1956-57_33k_ES_PAN_21mic_H50_0450_fot_50A-08778_E_tif
  70
32
  10
206210.500
  20
4560231.793
  30
737.19
  0
VERTEX
  8
PNOA-H_AMS_1956-57_33k_ES_PAN_21mic_H50_0450_fot_50A-08778_E_tif
  70
32
  10
206446.930
  20
4563163.300
  30
714.891
  0
VERTEX
  8
PNOA-H_AMS_1956-57_33k_ES_PAN_21mic_H50_0450_fot_50A-08778_E_tif
  70
32
  10
208110.833
  20
4563096.310
  30
698.566
  0
SEQEND
  8
PNOA-H_AMS_1956-57_33k_ES_PAN_21mic_H50_0450_fot_50A-08778_E_tif
  0
TEXT
  8
PNOA-H_AMS_1956-57_33k_ES_PAN_21mic_H50_0450_fot_50A-08778_E_tif
 62
0
  1
PNOA-H_AMS_1956-57_33k_ES_PAN_21mic_H50_0450_fot_50A-08778_E.tif
 40
41.71242
  10
207860.946
  20
4562031.293
  0
POLYLINE
  8
PNOA-H_AMS_1956-57_33k_ES_PAN_21mic_H50_0450_fot_50A-08779_E_tif
  70
9
  66
1
  0
VERTEX
  8
PNOA-H_AMS_1956-57_33k_ES_PAN_21mic_H50_0450_fot_50A-08779_E_tif
  70
32
  10
212429.680
  20
4562924.900
  30
763
  0
VERTEX
  8
PNOA-H_AMS_1956-57_33k_ES_PAN_21mic_H50_0450_fot_50A-08779_E_tif
  70
32
  10
212228.500
  20
4559859.793
  30
763
  0
VERTEX
  8
PNOA-H_AMS_1956-57_33k_ES_PAN_21mic_H50_0450_fot_50A-08779_E_tif
  70
32
  10
210477.500
  20
4559505.793
  30
763.3
  0
VERTEX
  8
PNOA-H_AMS_1956-57_33k_ES_PAN_21mic_H50_0450_fot_50A-08779_E_tif
  70
32
  10
210446.000
  20
4559500.293
  30
762.4
  0
VERTEX
  8
PNOA-H_AMS_1956-57_33k_ES_PAN_21mic_H50_0450_fot_50A-08779_E_tif
  70
32
  10
209251.500
  20
4560064.793
  30
742.85
  0
VERTEX
  8
PNOA-H_AMS_1956-57_33k_ES_PAN_21mic_H50_0450_fot_50A-08779_E_tif
  70
32
  10
209425.505
  20
4563044.012
  30
726.064
  0
VERTEX
  8
PNOA-H_AMS_1956-57_33k_ES_PAN_21mic_H50_0450_fot_50A-08779_E_tif
  70
32
  10
211607.080
  20
4562957.228
  30
763
  0
SEQEND
  8
PNOA-H_AMS_1956-57_33k_ES_PAN_21mic_H50_0450_fot_50A-08779_E_tif
  0
TEXT
  8
PNOA-H_AMS_1956-57_33k_ES_PAN_21mic_H50_0450_fot_50A-08779_E_tif
 62
0
  1
PNOA-H_AMS_1956-57_33k_ES_PAN_21mic_H50_0450_fot_50A-08779_E.tif
 40
41.71242
  10
210858.707
  20
4561870.293
  0
POLYLINE
  8
PNOA-H_AMS_1956-57_33k_ES_PAN_21mic_H50_0450_fot_50A-08781_E_tif
  70
9
  66
1
  0
VERTEX
  8
PNOA-H_AMS_1956-57_33k_ES_PAN_21mic_H50_0450_fot_50A-08781_E_tif
  70
32
  10
218340.355
  20
4562694.167
  30
793.239
  0
VERTEX
  8
PNOA-H_AMS_1956-57_33k_ES_PAN_21mic_H50_0450_fot_50A-08781_E_tif
  70
32
  10
218208.000
  20
4559522.293
  30
790.6
  0
VERTEX
  8
PNOA-H_AMS_1956-57_33k_ES_PAN_21mic_H50_0450_fot_50A-08781_E_tif
  70
32
  10
216124.000
  20
4559149.293
  30
778
  0
VERTEX
  8
PNOA-H_AMS_1956-57_33k_ES_PAN_21mic_H50_0450_fot_50A-08781_E_tif
  70
32
  10
215214.500
  20
4559663.293
  30
778
  0
VERTEX
  8
PNOA-H_AMS_1956-57_33k_ES_PAN_21mic_H50_0450_fot_50A-08781_E_tif
  70
32
  10
215409.400
  20
4562807.945
  30
774.912
  0
SEQEND
  8
PNOA-H_AMS_1956-57_33k_ES_PAN_21mic_H50_0450_fot_50A-08781_E_tif
  0
TEXT
  8
PNOA-H_AMS_1956-57_33k_ES_PAN_21mic_H50_0450_fot_50A-08781_E_tif
 62
0
  1
PNOA-H_AMS_1956-57_33k_ES_PAN_21mic_H50_0450_fot_50A-08781_E.tif
 40
41.71242
  10
216809.005
  20
4561491.793
  0
POLYLINE
  8
PNOA-H_AMS_1956-57_33k_ES_PAN_21mic_H50_0450_fot_50A-08780_E_tif
  70
9
  66
1
  0
VERTEX
  8
PNOA-H_AMS_1956-57_33k_ES_PAN_21mic_H50_0450_fot_50A-08780_E_tif
  70
32
  10
215409.287
  20
4562807.949
  30
774.912
  0
VERTEX
  8
PNOA-H_AMS_1956-57_33k_ES_PAN_21mic_H50_0450_fot_50A-08780_E_tif
  70
32
  10
215214.000
  20
4559663.293
  30
778
  0
VERTEX
  8
PNOA-H_AMS_1956-57_33k_ES_PAN_21mic_H50_0450_fot_50A-08780_E_tif
  70
32
  10
213224.500
  20
4559323.293
  30
760.72
  0
VERTEX
  8
PNOA-H_AMS_1956-57_33k_ES_PAN_21mic_H50_0450_fot_50A-08780_E_tif
  70
32
  10
212229.000
  20
4559859.793
  30
763
  0
VERTEX
  8
PNOA-H_AMS_1956-57_33k_ES_PAN_21mic_H50_0450_fot_50A-08780_E_tif
  70
32
  10
212378.000
  20
4562129.793
  30
760.2
  0
VERTEX
  8
PNOA-H_AMS_1956-57_33k_ES_PAN_21mic_H50_0450_fot_50A-08780_E_tif
  70
32
  10
212378.000
  20
4562137.793
  30
760
  0
VERTEX
  8
PNOA-H_AMS_1956-57_33k_ES_PAN_21mic_H50_0450_fot_50A-08780_E_tif
  70
32
  10
212429.671
  20
4562924.901
  30
761.39
  0
VERTEX
  8
PNOA-H_AMS_1956-57_33k_ES_PAN_21mic_H50_0450_fot_50A-08780_E_tif
  70
32
  10
215103.306
  20
4562819.827
  30
774.919
  0
SEQEND
  8
PNOA-H_AMS_1956-57_33k_ES_PAN_21mic_H50_0450_fot_50A-08780_E_tif
  0
TEXT
  8
PNOA-H_AMS_1956-57_33k_ES_PAN_21mic_H50_0450_fot_50A-08780_E_tif
 62
0
  1
PNOA-H_AMS_1956-57_33k_ES_PAN_21mic_H50_0450_fot_50A-08780_E.tif
 40
41.71242
  10
213843.861
  20
4561680.043
  0
POLYLINE
  8
PNOA-H_AMS_1956-57_33k_ES_PAN_21mic_H50_0450_fot_50A-08782_E_tif
  70
9
  66
1
  0
VERTEX
  8
PNOA-H_AMS_1956-57_33k_ES_PAN_21mic_H50_0450_fot_50A-08782_E_tif
  70
32
  10
221275.007
  20
4562581.531
  30
788.996
  0
VERTEX
  8
PNOA-H_AMS_1956-57_33k_ES_PAN_21mic_H50_0450_fot_50A-08782_E_tif
  70
32
  10
221185.500
  20
4559329.293
  30
785
  0
VERTEX
  8
PNOA-H_AMS_1956-57_33k_ES_PAN_21mic_H50_0450_fot_50A-08782_E_tif
  70
32
  10
219005.000
  20
4559076.293
  30
804
  0
VERTEX
  8
PNOA-H_AMS_1956-57_33k_ES_PAN_21mic_H50_0450_fot_50A-08782_E_tif
  70
32
  10
218208.000
  20
4559522.293
  30
790.6
  0
VERTEX
  8
PNOA-H_AMS_1956-57_33k_ES_PAN_21mic_H50_0450_fot_50A-08782_E_tif
  70
32
  10
218340.372
  20
4562694.166
  30
793.24
  0
VERTEX
  8
PNOA-H_AMS_1956-57_33k_ES_PAN_21mic_H50_0450_fot_50A-08782_E_tif
  70
32
  10
218599.512
  20
4562684.107
  30
793.24
  0
SEQEND
  8
PNOA-H_AMS_1956-57_33k_ES_PAN_21mic_H50_0450_fot_50A-08782_E_tif
  0
TEXT
  8
PNOA-H_AMS_1956-57_33k_ES_PAN_21mic_H50_0450_fot_50A-08782_E_tif
 62
0
  1
PNOA-H_AMS_1956-57_33k_ES_PAN_21mic_H50_0450_fot_50A-08782_E.tif
 40
41.71242
  10
219762.419
  20
4561342.043
  0
POLYLINE
  8
PNOA-H_AMS_1956-57_33k_ES_PAN_21mic_H50_0450_fot_50A-08783_E_tif
  70
9
  66
1
  0
VERTEX
  8
PNOA-H_AMS_1956-57_33k_ES_PAN_21mic_H50_0450_fot_50A-08783_E_tif
  70
32
  10
224282.202
  20
4562467.288
  30
782.593
  0
VERTEX
  8
PNOA-H_AMS_1956-57_33k_ES_PAN_21mic_H50_0450_fot_50A-08783_E_tif
  70
32
  10
224205.500
  20
4559136.293
  30
799
  0
VERTEX
  8
PNOA-H_AMS_1956-57_33k_ES_PAN_21mic_H50_0450_fot_50A-08783_E_tif
  70
32
  10
221759.000
  20
4558984.293
  30
790
  0
VERTEX
  8
PNOA-H_AMS_1956-57_33k_ES_PAN_21mic_H50_0450_fot_50A-08783_E_tif
  70
32
  10
221751.500
  20
4558984.293
  30
790
  0
VERTEX
  8
PNOA-H_AMS_1956-57_33k_ES_PAN_21mic_H50_0450_fot_50A-08783_E_tif
  70
32
  10
221744.000
  20
4558988.793
  30
790
  0
VERTEX
  8
PNOA-H_AMS_1956-57_33k_ES_PAN_21mic_H50_0450_fot_50A-08783_E_tif
  70
32
  10
221185.500
  20
4559329.293
  30
785
  0
VERTEX
  8
PNOA-H_AMS_1956-57_33k_ES_PAN_21mic_H50_0450_fot_50A-08783_E_tif
  70
32
  10
221275.018
  20
4562581.530
  30
788.996
  0
VERTEX
  8
PNOA-H_AMS_1956-57_33k_ES_PAN_21mic_H50_0450_fot_50A-08783_E_tif
  70
32
  10
222095.698
  20
4562550.066
  30
788.985
  0
SEQEND
  8
PNOA-H_AMS_1956-57_33k_ES_PAN_21mic_H50_0450_fot_50A-08783_E_tif
  0
TEXT
  8
PNOA-H_AMS_1956-57_33k_ES_PAN_21mic_H50_0450_fot_50A-08783_E_tif
 62
0
  1
PNOA-H_AMS_1956-57_33k_ES_PAN_21mic_H50_0450_fot_50A-08783_E.tif
 40
41.71242
  10
222745.500
  20
4561219.543
  0
POLYLINE
  8
PNOA-H_AMS_1956-57_33k_ES_PAN_21mic_H50_0450_fot_50A-08784_E_tif
  70
9
  66
1
  0
VERTEX
  8
PNOA-H_AMS_1956-57_33k_ES_PAN_21mic_H50_0450_fot_50A-08784_E_tif
  70
32
  10
227324.220
  20
4562352.953
  30
765.721
  0
VERTEX
  8
PNOA-H_AMS_1956-57_33k_ES_PAN_21mic_H50_0450_fot_50A-08784_E_tif
  70
32
  10
227257.500
  20
4558929.793
  30
802
  0
VERTEX
  8
PNOA-H_AMS_1956-57_33k_ES_PAN_21mic_H50_0450_fot_50A-08784_E_tif
  70
32
  10
227257.000
  20
4558920.293
  30
802
  0
VERTEX
  8
PNOA-H_AMS_1956-57_33k_ES_PAN_21mic_H50_0450_fot_50A-08784_E_tif
  70
32
  10
227233.500
  20
4558905.793
  30
802.21
  0
VERTEX
  8
PNOA-H_AMS_1956-57_33k_ES_PAN_21mic_H50_0450_fot_50A-08784_E_tif
  70
32
  10
224457.000
  20
4558966.793
  30
805
  0
VERTEX
  8
PNOA-H_AMS_1956-57_33k_ES_PAN_21mic_H50_0450_fot_50A-08784_E_tif
  70
32
  10
224205.500
  20
4559135.793
  30
799
  0
VERTEX
  8
PNOA-H_AMS_1956-57_33k_ES_PAN_21mic_H50_0450_fot_50A-08784_E_tif
  70
32
  10
224282.204
  20
4562467.288
  30
782.593
  0
VERTEX
  8
PNOA-H_AMS_1956-57_33k_ES_PAN_21mic_H50_0450_fot_50A-08784_E_tif
  70
32
  10
225591.864
  20
4562417.706
  30
773.113
  0
SEQEND
  8
PNOA-H_AMS_1956-57_33k_ES_PAN_21mic_H50_0450_fot_50A-08784_E_tif
  0
TEXT
  8
PNOA-H_AMS_1956-57_33k_ES_PAN_21mic_H50_0450_fot_50A-08784_E_tif
 62
0
  1
PNOA-H_AMS_1956-57_33k_ES_PAN_21mic_H50_0450_fot_50A-08784_E.tif
 40
41.71242
  10
225776.208
  20
4561144.543
  0
POLYLINE
  8
PNOA-H_AMS_1956-57_33k_ES_PAN_21mic_H50_0450_fot_50A-08785_E_tif
  70
9
  66
1
  0
VERTEX
  8
PNOA-H_AMS_1956-57_33k_ES_PAN_21mic_H50_0450_fot_50A-08785_E_tif
  70
32
  10
230343.357
  20
4562240.705
  30
781.345
  0
VERTEX
  8
PNOA-H_AMS_1956-57_33k_ES_PAN_21mic_H50_0450_fot_50A-08785_E_tif
  70
32
  10
230232.000
  20
4558877.793
  30
806
  0
VERTEX
  8
PNOA-H_AMS_1956-57_33k_ES_PAN_21mic_H50_0450_fot_50A-08785_E_tif
  70
32
  10
230050.500
  20
4558772.793
  30
806
  0
VERTEX
  8
PNOA-H_AMS_1956-57_33k_ES_PAN_21mic_H50_0450_fot_50A-08785_E_tif
  70
32
  10
227257.000
  20
4558920.793
  30
802
  0
VERTEX
  8
PNOA-H_AMS_1956-57_33k_ES_PAN_21mic_H50_0450_fot_50A-08785_E_tif
  70
32
  10
227324.166
  20
4562352.955
  30
765.705
  0
VERTEX
  8
PNOA-H_AMS_1956-57_33k_ES_PAN_21mic_H50_0450_fot_50A-08785_E_tif
  70
32
  10
229088.011
  20
4562287.025
  30
766.909
  0
SEQEND
  8
PNOA-H_AMS_1956-57_33k_ES_PAN_21mic_H50_0450_fot_50A-08785_E_tif
  0
TEXT
  8
PNOA-H_AMS_1956-57_33k_ES_PAN_21mic_H50_0450_fot_50A-08785_E_tif
 62
0
  1
PNOA-H_AMS_1956-57_33k_ES_PAN_21mic_H50_0450_fot_50A-08785_E.tif
 40
41.71242
  10
228802.004
  20
4561076.793
  0
POLYLINE
  8
PNOA-H_AMS_1956-57_33k_ES_PAN_21mic_H50_0450_fot_50A-08786_E_tif
  70
9
  66
1
  0
VERTEX
  8
PNOA-H_AMS_1956-57_33k_ES_PAN_21mic_H50_0450_fot_50A-08786_E_tif
  70
32
  10
232456.686
  20
4558680.046
  30
799.237
  0
VERTEX
  8
PNOA-H_AMS_1956-57_33k_ES_PAN_21mic_H50_0450_fot_50A-08786_E_tif
  70
32
  10
230232.000
  20
4558878.293
  30
806
  0
VERTEX
  8
PNOA-H_AMS_1956-57_33k_ES_PAN_21mic_H50_0450_fot_50A-08786_E_tif
  70
32
  10
230342.958
  20
4562240.719
  30
781.343
  0
VERTEX
  8
PNOA-H_AMS_1956-57_33k_ES_PAN_21mic_H50_0450_fot_50A-08786_E_tif
  70
32
  10
232584.138
  20
4562158.024
  30
763.808
  0
VERTEX
  8
PNOA-H_AMS_1956-57_33k_ES_PAN_21mic_H50_0450_fot_50A-08786_E_tif
  70
32
  10
232499.357
  20
4559844.779
  30
782.376
  0
SEQEND
  8
PNOA-H_AMS_1956-57_33k_ES_PAN_21mic_H50_0450_fot_50A-08786_E_tif
  0
TEXT
  8
PNOA-H_AMS_1956-57_33k_ES_PAN_21mic_H50_0450_fot_50A-08786_E_tif
 62
0
  1
PNOA-H_AMS_1956-57_33k_ES_PAN_21mic_H50_0450_fot_50A-08786_E.tif
 40
41.71242
  10
231822.956
  20
4560987.543
  0
POLYLINE
  8
PNOA-H_AMS_1956-57_33k_ES_PAN_21mic_H50_0449_fot_51A-08827_E_tif
  70
9
  66
1
  0
VERTEX
  8
PNOA-H_AMS_1956-57_33k_ES_PAN_21mic_H50_0449_fot_51A-08827_E_tif
  70
32
  10
204479.117
  20
4559891.622
  30
740.232
  0
VERTEX
  8
PNOA-H_AMS_1956-57_33k_ES_PAN_21mic_H50_0449_fot_51A-08827_E_tif
  70
32
  10
204736.000
  20
4559795.793
  30
742.24
  0
VERTEX
  8
PNOA-H_AMS_1956-57_33k_ES_PAN_21mic_H50_0449_fot_51A-08827_E_tif
  70
32
  10
204657.000
  20
4556179.793
  30
728.4
  0
VERTEX
  8
PNOA-H_AMS_1956-57_33k_ES_PAN_21mic_H50_0449_fot_51A-08827_E_tif
  70
32
  10
204322.656
  20
4556024.869
  30
725.239
  0
VERTEX
  8
PNOA-H_AMS_1956-57_33k_ES_PAN_21mic_H50_0449_fot_51A-08827_E_tif
  70
32
  10
204333.663
  20
4556297.036
  30
726.306
  0
VERTEX
  8
PNOA-H_AMS_1956-57_33k_ES_PAN_21mic_H50_0449_fot_51A-08827_E_tif
  70
32
  10
204427.258
  20
4558610.376
  30
737.679
  0
SEQEND
  8
PNOA-H_AMS_1956-57_33k_ES_PAN_21mic_H50_0449_fot_51A-08827_E_tif
  0
TEXT
  8
PNOA-H_AMS_1956-57_33k_ES_PAN_21mic_H50_0449_fot_51A-08827_E_tif
 62
0
  1
PNOA-H_AMS_1956-57_33k_ES_PAN_21mic_H50_0449_fot_51A-08827_E.tif
 40
41.71242
  10
204529.328
  20
4557958.245
  0
POLYLINE
  8
PNOA-H_AMS_1956-57_33k_ES_PAN_21mic_H50_0450_fot_51A-08828_E_tif
  70
9
  66
1
  0
VERTEX
  8
PNOA-H_AMS_1956-57_33k_ES_PAN_21mic_H50_0450_fot_51A-08828_E_tif
  70
32
  10
204736.000
  20
4559795.293
  30
742.32
  0
VERTEX
  8
PNOA-H_AMS_1956-57_33k_ES_PAN_21mic_H50_0450_fot_51A-08828_E_tif
  70
32
  10
206209.500
  20
4560231.793
  30
737.09
  0
VERTEX
  8
PNOA-H_AMS_1956-57_33k_ES_PAN_21mic_H50_0450_fot_51A-08828_E_tif
  70
32
  10
206214.000
  20
4560230.793
  30
737.86
  0
VERTEX
  8
PNOA-H_AMS_1956-57_33k_ES_PAN_21mic_H50_0450_fot_51A-08828_E_tif
  70
32
  10
206232.500
  20
4560222.293
  30
739.5
  0
VERTEX
  8
PNOA-H_AMS_1956-57_33k_ES_PAN_21mic_H50_0450_fot_51A-08828_E_tif
  70
32
  10
206234.500
  20
4560221.793
  30
739.9
  0
VERTEX
  8
PNOA-H_AMS_1956-57_33k_ES_PAN_21mic_H50_0450_fot_51A-08828_E_tif
  70
32
  10
207605.500
  20
4559638.793
  30
734
  0
VERTEX
  8
PNOA-H_AMS_1956-57_33k_ES_PAN_21mic_H50_0450_fot_51A-08828_E_tif
  70
32
  10
207476.000
  20
4555992.793
  30
725
  0
VERTEX
  8
PNOA-H_AMS_1956-57_33k_ES_PAN_21mic_H50_0450_fot_51A-08828_E_tif
  70
32
  10
206647.000
  20
4555637.793
  30
716.06
  0
VERTEX
  8
PNOA-H_AMS_1956-57_33k_ES_PAN_21mic_H50_0450_fot_51A-08828_E_tif
  70
32
  10
204657.000
  20
4556179.793
  30
728.4
  0
SEQEND
  8
PNOA-H_AMS_1956-57_33k_ES_PAN_21mic_H50_0450_fot_51A-08828_E_tif
  0
TEXT
  8
PNOA-H_AMS_1956-57_33k_ES_PAN_21mic_H50_0450_fot_51A-08828_E_tif
 62
0
  1
PNOA-H_AMS_1956-57_33k_ES_PAN_21mic_H50_0450_fot_51A-08828_E.tif
 40
41.71242
  10
206120.162
  20
4557934.793
  0
POLYLINE
  8
PNOA-H_AMS_1956-57_33k_ES_PAN_21mic_H50_0450_fot_52A-25913_E_tif
  70
9
  66
1
  0
VERTEX
  8
PNOA-H_AMS_1956-57_33k_ES_PAN_21mic_H50_0450_fot_52A-25913_E_tif
  70
32
  10
204322.678
  20
4556025.407
  30
724.967
  0
VERTEX
  8
PNOA-H_AMS_1956-57_33k_ES_PAN_21mic_H50_0450_fot_52A-25913_E_tif
  70
32
  10
204638.500
  20
4556171.793
  30
727.83
  0
VERTEX
  8
PNOA-H_AMS_1956-57_33k_ES_PAN_21mic_H50_0450_fot_52A-25913_E_tif
  70
32
  10
204656.000
  20
4556179.793
  30
728.2
  0
VERTEX
  8
PNOA-H_AMS_1956-57_33k_ES_PAN_21mic_H50_0450_fot_52A-25913_E_tif
  70
32
  10
204658.500
  20
4556179.793
  30
728.7
  0
VERTEX
  8
PNOA-H_AMS_1956-57_33k_ES_PAN_21mic_H50_0450_fot_52A-25913_E_tif
  70
32
  10
206232.000
  20
4555750.793
  30
719.88
  0
VERTEX
  8
PNOA-H_AMS_1956-57_33k_ES_PAN_21mic_H50_0450_fot_52A-25913_E_tif
  70
32
  10
206234.500
  20
4555750.293
  30
719.64
  0
VERTEX
  8
PNOA-H_AMS_1956-57_33k_ES_PAN_21mic_H50_0450_fot_52A-25913_E_tif
  70
32
  10
206647.000
  20
4555638.293
  30
716.12
  0
VERTEX
  8
PNOA-H_AMS_1956-57_33k_ES_PAN_21mic_H50_0450_fot_52A-25913_E_tif
  70
32
  10
206620.000
  20
4555335.793
  30
703
  0
VERTEX
  8
PNOA-H_AMS_1956-57_33k_ES_PAN_21mic_H50_0450_fot_52A-25913_E_tif
  70
32
  10
205075.000
  20
4552314.293
  30
725.6
  0
VERTEX
  8
PNOA-H_AMS_1956-57_33k_ES_PAN_21mic_H50_0450_fot_52A-25913_E_tif
  70
32
  10
205065.500
  20
4552295.793
  30
726.3
  0
VERTEX
  8
PNOA-H_AMS_1956-57_33k_ES_PAN_21mic_H50_0450_fot_52A-25913_E_tif
  70
32
  10
205064.500
  20
4552295.793
  30
726.27
  0
VERTEX
  8
PNOA-H_AMS_1956-57_33k_ES_PAN_21mic_H50_0450_fot_52A-25913_E_tif
  70
32
  10
204243.226
  20
4554060.815
  30
709.513
  0
SEQEND
  8
PNOA-H_AMS_1956-57_33k_ES_PAN_21mic_H50_0450_fot_52A-25913_E_tif
  0
TEXT
  8
PNOA-H_AMS_1956-57_33k_ES_PAN_21mic_H50_0450_fot_52A-25913_E_tif
 62
0
  1
PNOA-H_AMS_1956-57_33k_ES_PAN_21mic_H50_0450_fot_52A-25913_E.tif
 40
41.71242
  10
205109.715
  20
4554237.793
  0
POLYLINE
  8
PNOA-H_AMS_1956-57_33k_ES_PAN_21mic_H50_0449_fot_52B-10289_W_tif
  70
9
  66
1
  0
VERTEX
  8
PNOA-H_AMS_1956-57_33k_ES_PAN_21mic_H50_0449_fot_52B-10289_W_tif
  70
32
  10
204243.269
  20
4554061.892
  30
709.501
  0
VERTEX
  8
PNOA-H_AMS_1956-57_33k_ES_PAN_21mic_H50_0449_fot_52B-10289_W_tif
  70
32
  10
205065.000
  20
4552295.793
  30
726.3
  0
VERTEX
  8
PNOA-H_AMS_1956-57_33k_ES_PAN_21mic_H50_0449_fot_52B-10289_W_tif
  70
32
  10
205046.000
  20
4551653.293
  30
731
  0
VERTEX
  8
PNOA-H_AMS_1956-57_33k_ES_PAN_21mic_H50_0449_fot_52B-10289_W_tif
  70
32
  10
204133.702
  20
4551351.425
  30
720.291
  0
VERTEX
  8
PNOA-H_AMS_1956-57_33k_ES_PAN_21mic_H50_0449_fot_52B-10289_W_tif
  70
32
  10
204146.590
  20
4551670.372
  30
721.544
  0
VERTEX
  8
PNOA-H_AMS_1956-57_33k_ES_PAN_21mic_H50_0449_fot_52B-10289_W_tif
  70
32
  10
204240.107
  20
4553983.702
  30
710.101
  0
SEQEND
  8
PNOA-H_AMS_1956-57_33k_ES_PAN_21mic_H50_0449_fot_52B-10289_W_tif
  0
TEXT
  8
PNOA-H_AMS_1956-57_33k_ES_PAN_21mic_H50_0449_fot_52B-10289_W_tif
 62
0
  1
PNOA-H_AMS_1956-57_33k_ES_PAN_21mic_H50_0449_fot_52B-10289_W.tif
 40
41.71242
  10
204599.351
  20
4552706.658
  0
POLYLINE
  8
PNOA-H_AMS_1956-57_33k_ES_PAN_21mic_H50_0450_fot_53A-25889_W_tif
  70
9
  66
1
  0
VERTEX
  8
PNOA-H_AMS_1956-57_33k_ES_PAN_21mic_H50_0450_fot_53A-25889_W_tif
  70
32
  10
204133.711
  20
4551351.648
  30
727.592
  0
VERTEX
  8
PNOA-H_AMS_1956-57_33k_ES_PAN_21mic_H50_0450_fot_53A-25889_W_tif
  70
32
  10
204184.000
  20
4551368.293
  30
729
  0
VERTEX
  8
PNOA-H_AMS_1956-57_33k_ES_PAN_21mic_H50_0450_fot_53A-25889_W_tif
  70
32
  10
204185.500
  20
4551368.793
  30
729.1
  0
VERTEX
  8
PNOA-H_AMS_1956-57_33k_ES_PAN_21mic_H50_0450_fot_53A-25889_W_tif
  70
32
  10
205047.000
  20
4551653.293
  30
731
  0
VERTEX
  8
PNOA-H_AMS_1956-57_33k_ES_PAN_21mic_H50_0450_fot_53A-25889_W_tif
  70
32
  10
206477.500
  20
4551129.293
  30
748
  0
VERTEX
  8
PNOA-H_AMS_1956-57_33k_ES_PAN_21mic_H50_0450_fot_53A-25889_W_tif
  70
32
  10
206347.500
  20
4547340.293
  30
731
  0
VERTEX
  8
PNOA-H_AMS_1956-57_33k_ES_PAN_21mic_H50_0450_fot_53A-25889_W_tif
  70
32
  10
205319.000
  20
4546981.293
  30
729
  0
VERTEX
  8
PNOA-H_AMS_1956-57_33k_ES_PAN_21mic_H50_0450_fot_53A-25889_W_tif
  70
32
  10
205313.500
  20
4546979.793
  30
729
  0
VERTEX
  8
PNOA-H_AMS_1956-57_33k_ES_PAN_21mic_H50_0450_fot_53A-25889_W_tif
  70
32
  10
205306.000
  20
4546981.793
  30
729
  0
VERTEX
  8
PNOA-H_AMS_1956-57_33k_ES_PAN_21mic_H50_0450_fot_53A-25889_W_tif
  70
32
  10
203972.218
  20
4547354.270
  30
711.28
  0
VERTEX
  8
PNOA-H_AMS_1956-57_33k_ES_PAN_21mic_H50_0450_fot_53A-25889_W_tif
  70
32
  10
204053.113
  20
4549357.048
  30
710.902
  0
SEQEND
  8
PNOA-H_AMS_1956-57_33k_ES_PAN_21mic_H50_0450_fot_53A-25889_W_tif
  0
TEXT
  8
PNOA-H_AMS_1956-57_33k_ES_PAN_21mic_H50_0450_fot_53A-25889_W_tif
 62
0
  1
PNOA-H_AMS_1956-57_33k_ES_PAN_21mic_H50_0450_fot_53A-25889_W.tif
 40
41.71242
  10
205034.072
  20
4549316.543
  0
POLYLINE
  8
PNOA-H_AMS_1956-57_33k_ES_PAN_21mic_H50_0449_fot_54A-29174_W_tif
  70
9
  66
1
  0
VERTEX
  8
PNOA-H_AMS_1956-57_33k_ES_PAN_21mic_H50_0449_fot_54A-29174_W_tif
  70
32
  10
205213.372
  20
4544676.360
  30
723.633
  0
VERTEX
  8
PNOA-H_AMS_1956-57_33k_ES_PAN_21mic_H50_0449_fot_54A-29174_W_tif
  70
32
  10
203866.276
  20
4544730.415
  30
723.622
  0
VERTEX
  8
PNOA-H_AMS_1956-57_33k_ES_PAN_21mic_H50_0449_fot_54A-29174_W_tif
  70
32
  10
203959.675
  20
4547043.729
  30
712.282
  0
VERTEX
  8
PNOA-H_AMS_1956-57_33k_ES_PAN_21mic_H50_0449_fot_54A-29174_W_tif
  70
32
  10
203972.235
  20
4547354.687
  30
711.377
  0
VERTEX
  8
PNOA-H_AMS_1956-57_33k_ES_PAN_21mic_H50_0449_fot_54A-29174_W_tif
  70
32
  10
205314.000
  20
4546979.793
  30
729
  0
SEQEND
  8
PNOA-H_AMS_1956-57_33k_ES_PAN_21mic_H50_0449_fot_54A-29174_W_tif
  0
TEXT
  8
PNOA-H_AMS_1956-57_33k_ES_PAN_21mic_H50_0449_fot_54A-29174_W_tif
 62
0
  1
PNOA-H_AMS_1956-57_33k_ES_PAN_21mic_H50_0449_fot_54A-29174_W.tif
 40
41.71242
  10
204590.138
  20
4546015.523
  0
POLYLINE
  8
PNOA-H_AMS_1956-57_33k_ES_PAN_21mic_H50_0450_fot_51A-08829_E_tif
  70
9
  66
1
  0
VERTEX
  8
PNOA-H_AMS_1956-57_33k_ES_PAN_21mic_H50_0450_fot_51A-08829_E_tif
  70
32
  10
208282.000
  20
4559814.293
  30
713.6
  0
VERTEX
  8
PNOA-H_AMS_1956-57_33k_ES_PAN_21mic_H50_0450_fot_51A-08829_E_tif
  70
32
  10
209252.500
  20
4560064.793
  30
742.75
  0
VERTEX
  8
PNOA-H_AMS_1956-57_33k_ES_PAN_21mic_H50_0450_fot_51A-08829_E_tif
  70
32
  10
210447.500
  20
4559500.293
  30
762.4
  0
VERTEX
  8
PNOA-H_AMS_1956-57_33k_ES_PAN_21mic_H50_0450_fot_51A-08829_E_tif
  70
32
  10
210193.000
  20
4555773.293
  30
731
  0
VERTEX
  8
PNOA-H_AMS_1956-57_33k_ES_PAN_21mic_H50_0450_fot_51A-08829_E_tif
  70
32
  10
209607.500
  20
4555533.293
  30
709
  0
VERTEX
  8
PNOA-H_AMS_1956-57_33k_ES_PAN_21mic_H50_0450_fot_51A-08829_E_tif
  70
32
  10
209603.500
  20
4555532.293
  30
709.3
  0
VERTEX
  8
PNOA-H_AMS_1956-57_33k_ES_PAN_21mic_H50_0450_fot_51A-08829_E_tif
  70
32
  10
209276.500
  20
4555519.293
  30
717.4
  0
VERTEX
  8
PNOA-H_AMS_1956-57_33k_ES_PAN_21mic_H50_0450_fot_51A-08829_E_tif
  70
32
  10
207476.000
  20
4555992.293
  30
725
  0
VERTEX
  8
PNOA-H_AMS_1956-57_33k_ES_PAN_21mic_H50_0450_fot_51A-08829_E_tif
  70
32
  10
207605.000
  20
4559636.793
  30
734
  0
VERTEX
  8
PNOA-H_AMS_1956-57_33k_ES_PAN_21mic_H50_0450_fot_51A-08829_E_tif
  70
32
  10
207606.000
  20
4559639.293
  30
734
  0
VERTEX
  8
PNOA-H_AMS_1956-57_33k_ES_PAN_21mic_H50_0450_fot_51A-08829_E_tif
  70
32
  10
207611.500
  20
4559640.793
  30
733.79
  0
VERTEX
  8
PNOA-H_AMS_1956-57_33k_ES_PAN_21mic_H50_0450_fot_51A-08829_E_tif
  70
32
  10
208280.500
  20
4559813.793
  30
713.9
  0
VERTEX
  8
PNOA-H_AMS_1956-57_33k_ES_PAN_21mic_H50_0450_fot_51A-08829_E_tif
  70
32
  10
208282.000
  20
4559814.293
  30
713.6
  0
SEQEND
  8
PNOA-H_AMS_1956-57_33k_ES_PAN_21mic_H50_0450_fot_51A-08829_E_tif
  0
TEXT
  8
PNOA-H_AMS_1956-57_33k_ES_PAN_21mic_H50_0450_fot_51A-08829_E_tif
 62
0
  1
PNOA-H_AMS_1956-57_33k_ES_PAN_21mic_H50_0450_fot_51A-08829_E.tif
 40
41.71242
  10
208935.277
  20
4557792.043
  0
POLYLINE
  8
PNOA-H_AMS_1956-57_33k_ES_PAN_21mic_H50_0450_fot_51A-08830_E_tif
  70
9
  66
1
  0
VERTEX
  8
PNOA-H_AMS_1956-57_33k_ES_PAN_21mic_H50_0450_fot_51A-08830_E_tif
  70
32
  10
210330.000
  20
4557784.293
  30
742.6
  0
VERTEX
  8
PNOA-H_AMS_1956-57_33k_ES_PAN_21mic_H50_0450_fot_51A-08830_E_tif
  70
32
  10
210447.500
  20
4559500.293
  30
762.4
  0
VERTEX
  8
PNOA-H_AMS_1956-57_33k_ES_PAN_21mic_H50_0450_fot_51A-08830_E_tif
  70
32
  10
212229.000
  20
4559860.293
  30
763
  0
VERTEX
  8
PNOA-H_AMS_1956-57_33k_ES_PAN_21mic_H50_0450_fot_51A-08830_E_tif
  70
32
  10
213224.500
  20
4559323.793
  30
760.63
  0
VERTEX
  8
PNOA-H_AMS_1956-57_33k_ES_PAN_21mic_H50_0450_fot_51A-08830_E_tif
  70
32
  10
213027.000
  20
4555629.793
  30
738.7
  0
VERTEX
  8
PNOA-H_AMS_1956-57_33k_ES_PAN_21mic_H50_0450_fot_51A-08830_E_tif
  70
32
  10
212511.500
  20
4555414.793
  30
724.85
  0
VERTEX
  8
PNOA-H_AMS_1956-57_33k_ES_PAN_21mic_H50_0450_fot_51A-08830_E_tif
  70
32
  10
211789.000
  20
4555382.293
  30
717
  0
VERTEX
  8
PNOA-H_AMS_1956-57_33k_ES_PAN_21mic_H50_0450_fot_51A-08830_E_tif
  70
32
  10
210193.500
  20
4555772.793
  30
731
  0
VERTEX
  8
PNOA-H_AMS_1956-57_33k_ES_PAN_21mic_H50_0450_fot_51A-08830_E_tif
  70
32
  10
210194.000
  20
4555792.293
  30
730.8
  0
VERTEX
  8
PNOA-H_AMS_1956-57_33k_ES_PAN_21mic_H50_0450_fot_51A-08830_E_tif
  70
32
  10
210330.000
  20
4557776.793
  30
743
  0
VERTEX
  8
PNOA-H_AMS_1956-57_33k_ES_PAN_21mic_H50_0450_fot_51A-08830_E_tif
  70
32
  10
210330.000
  20
4557784.293
  30
742.6
  0
SEQEND
  8
PNOA-H_AMS_1956-57_33k_ES_PAN_21mic_H50_0450_fot_51A-08830_E_tif
  0
TEXT
  8
PNOA-H_AMS_1956-57_33k_ES_PAN_21mic_H50_0450_fot_51A-08830_E_tif
 62
0
  1
PNOA-H_AMS_1956-57_33k_ES_PAN_21mic_H50_0450_fot_51A-08830_E.tif
 40
41.71242
  10
211726.410
  20
4557621.293
  0
POLYLINE
  8
PNOA-H_AMS_1956-57_33k_ES_PAN_21mic_H50_0450_fot_52A-25915_E_tif
  70
9
  66
1
  0
VERTEX
  8
PNOA-H_AMS_1956-57_33k_ES_PAN_21mic_H50_0450_fot_52A-25915_E_tif
  70
32
  10
210330.500
  20
4555739.293
  30
729
  0
VERTEX
  8
PNOA-H_AMS_1956-57_33k_ES_PAN_21mic_H50_0450_fot_52A-25915_E_tif
  70
32
  10
211783.000
  20
4555384.293
  30
716.6
  0
VERTEX
  8
PNOA-H_AMS_1956-57_33k_ES_PAN_21mic_H50_0450_fot_52A-25915_E_tif
  70
32
  10
211789.000
  20
4555382.793
  30
717
  0
VERTEX
  8
PNOA-H_AMS_1956-57_33k_ES_PAN_21mic_H50_0450_fot_52A-25915_E_tif
  70
32
  10
211789.000
  20
4555380.793
  30
717
  0
VERTEX
  8
PNOA-H_AMS_1956-57_33k_ES_PAN_21mic_H50_0450_fot_52A-25915_E_tif
  70
32
  10
210812.000
  20
4551373.793
  30
739
  0
VERTEX
  8
PNOA-H_AMS_1956-57_33k_ES_PAN_21mic_H50_0450_fot_52A-25915_E_tif
  70
32
  10
210200.000
  20
4551399.793
  30
724.5
  0
VERTEX
  8
PNOA-H_AMS_1956-57_33k_ES_PAN_21mic_H50_0450_fot_52A-25915_E_tif
  70
32
  10
209605.000
  20
4555532.793
  30
709
  0
VERTEX
  8
PNOA-H_AMS_1956-57_33k_ES_PAN_21mic_H50_0450_fot_52A-25915_E_tif
  70
32
  10
210192.500
  20
4555773.293
  30
731
  0
VERTEX
  8
PNOA-H_AMS_1956-57_33k_ES_PAN_21mic_H50_0450_fot_52A-25915_E_tif
  70
32
  10
210328.500
  20
4555739.793
  30
729
  0
VERTEX
  8
PNOA-H_AMS_1956-57_33k_ES_PAN_21mic_H50_0450_fot_52A-25915_E_tif
  70
32
  10
210330.500
  20
4555739.293
  30
729
  0
SEQEND
  8
PNOA-H_AMS_1956-57_33k_ES_PAN_21mic_H50_0450_fot_52A-25915_E_tif
  0
TEXT
  8
PNOA-H_AMS_1956-57_33k_ES_PAN_21mic_H50_0450_fot_52A-25915_E_tif
 62
0
  1
PNOA-H_AMS_1956-57_33k_ES_PAN_21mic_H50_0450_fot_52A-25915_E.tif
 40
41.71242
  10
210617.705
  20
4553573.543
  0
POLYLINE
  8
PNOA-H_AMS_1956-57_33k_ES_PAN_21mic_H50_0450_fot_52A-25914_E_tif
  70
9
  66
1
  0
VERTEX
  8
PNOA-H_AMS_1956-57_33k_ES_PAN_21mic_H50_0450_fot_52A-25914_E_tif
  70
32
  10
208282.500
  20
4555780.793
  30
722
  0
VERTEX
  8
PNOA-H_AMS_1956-57_33k_ES_PAN_21mic_H50_0450_fot_52A-25914_E_tif
  70
32
  10
209278.500
  20
4555518.793
  30
717.3
  0
VERTEX
  8
PNOA-H_AMS_1956-57_33k_ES_PAN_21mic_H50_0450_fot_52A-25914_E_tif
  70
32
  10
207786.500
  20
4551572.293
  30
751
  0
VERTEX
  8
PNOA-H_AMS_1956-57_33k_ES_PAN_21mic_H50_0450_fot_52A-25914_E_tif
  70
32
  10
207742.000
  20
4551573.293
  30
752.6
  0
VERTEX
  8
PNOA-H_AMS_1956-57_33k_ES_PAN_21mic_H50_0450_fot_52A-25914_E_tif
  70
32
  10
207741.000
  20
4551575.293
  30
752.8
  0
VERTEX
  8
PNOA-H_AMS_1956-57_33k_ES_PAN_21mic_H50_0450_fot_52A-25914_E_tif
  70
32
  10
206620.500
  20
4555332.293
  30
703
  0
VERTEX
  8
PNOA-H_AMS_1956-57_33k_ES_PAN_21mic_H50_0450_fot_52A-25914_E_tif
  70
32
  10
206620.000
  20
4555340.793
  30
703.7
  0
VERTEX
  8
PNOA-H_AMS_1956-57_33k_ES_PAN_21mic_H50_0450_fot_52A-25914_E_tif
  70
32
  10
206647.000
  20
4555637.793
  30
716.06
  0
VERTEX
  8
PNOA-H_AMS_1956-57_33k_ES_PAN_21mic_H50_0450_fot_52A-25914_E_tif
  70
32
  10
207475.500
  20
4555992.793
  30
725
  0
VERTEX
  8
PNOA-H_AMS_1956-57_33k_ES_PAN_21mic_H50_0450_fot_52A-25914_E_tif
  70
32
  10
208281.000
  20
4555780.793
  30
722
  0
VERTEX
  8
PNOA-H_AMS_1956-57_33k_ES_PAN_21mic_H50_0450_fot_52A-25914_E_tif
  70
32
  10
208282.500
  20
4555780.793
  30
722
  0
SEQEND
  8
PNOA-H_AMS_1956-57_33k_ES_PAN_21mic_H50_0450_fot_52A-25914_E_tif
  0
TEXT
  8
PNOA-H_AMS_1956-57_33k_ES_PAN_21mic_H50_0450_fot_52A-25914_E_tif
 62
0
  1
PNOA-H_AMS_1956-57_33k_ES_PAN_21mic_H50_0450_fot_52A-25914_E.tif
 40
41.71242
  10
207852.401
  20
4553782.543
  0
POLYLINE
  8
PNOA-H_AMS_1956-57_33k_ES_PAN_21mic_H50_0450_fot_52B-10287_W_tif
  70
9
  66
1
  0
VERTEX
  8
PNOA-H_AMS_1956-57_33k_ES_PAN_21mic_H50_0450_fot_52B-10287_W_tif
  70
32
  10
209603.500
  20
4555532.793
  30
709.3
  0
VERTEX
  8
PNOA-H_AMS_1956-57_33k_ES_PAN_21mic_H50_0450_fot_52B-10287_W_tif
  70
32
  10
209605.000
  20
4555532.793
  30
709
  0
VERTEX
  8
PNOA-H_AMS_1956-57_33k_ES_PAN_21mic_H50_0450_fot_52B-10287_W_tif
  70
32
  10
209605.500
  20
4555531.293
  30
709
  0
VERTEX
  8
PNOA-H_AMS_1956-57_33k_ES_PAN_21mic_H50_0450_fot_52B-10287_W_tif
  70
32
  10
209608.500
  20
4555510.793
  30
709
  0
VERTEX
  8
PNOA-H_AMS_1956-57_33k_ES_PAN_21mic_H50_0450_fot_52B-10287_W_tif
  70
32
  10
210200.000
  20
4551399.793
  30
724.5
  0
VERTEX
  8
PNOA-H_AMS_1956-57_33k_ES_PAN_21mic_H50_0450_fot_52B-10287_W_tif
  70
32
  10
209240.000
  20
4551068.293
  30
726.8
  0
VERTEX
  8
PNOA-H_AMS_1956-57_33k_ES_PAN_21mic_H50_0450_fot_52B-10287_W_tif
  70
32
  10
207799.000
  20
4551567.793
  30
750
  0
VERTEX
  8
PNOA-H_AMS_1956-57_33k_ES_PAN_21mic_H50_0450_fot_52B-10287_W_tif
  70
32
  10
207787.500
  20
4551571.793
  30
751
  0
VERTEX
  8
PNOA-H_AMS_1956-57_33k_ES_PAN_21mic_H50_0450_fot_52B-10287_W_tif
  70
32
  10
207786.500
  20
4551573.293
  30
750.94
  0
VERTEX
  8
PNOA-H_AMS_1956-57_33k_ES_PAN_21mic_H50_0450_fot_52B-10287_W_tif
  70
32
  10
209277.500
  20
4555517.793
  30
717.1
  0
VERTEX
  8
PNOA-H_AMS_1956-57_33k_ES_PAN_21mic_H50_0450_fot_52B-10287_W_tif
  70
32
  10
209278.500
  20
4555519.293
  30
717.4
  0
VERTEX
  8
PNOA-H_AMS_1956-57_33k_ES_PAN_21mic_H50_0450_fot_52B-10287_W_tif
  70
32
  10
209288.500
  20
4555519.793
  30
718.35
  0
VERTEX
  8
PNOA-H_AMS_1956-57_33k_ES_PAN_21mic_H50_0450_fot_52B-10287_W_tif
  70
32
  10
209591.500
  20
4555532.293
  30
710
  0
VERTEX
  8
PNOA-H_AMS_1956-57_33k_ES_PAN_21mic_H50_0450_fot_52B-10287_W_tif
  70
32
  10
209603.500
  20
4555532.793
  30
709.3
  0
SEQEND
  8
PNOA-H_AMS_1956-57_33k_ES_PAN_21mic_H50_0450_fot_52B-10287_W_tif
  0
TEXT
  8
PNOA-H_AMS_1956-57_33k_ES_PAN_21mic_H50_0450_fot_52B-10287_W_tif
 62
0
  1
PNOA-H_AMS_1956-57_33k_ES_PAN_21mic_H50_0450_fot_52B-10287_W.tif
 40
41.71242
  10
209182.954
  20
4553300.543
  0
POLYLINE
  8
PNOA-H_AMS_1956-57_33k_ES_PAN_21mic_H50_0450_fot_52B-10288_W_tif
  70
9
  66
1
  0
VERTEX
  8
PNOA-H_AMS_1956-57_33k_ES_PAN_21mic_H50_0450_fot_52B-10288_W_tif
  70
32
  10
205065.000
  20
4552295.793
  30
726.3
  0
VERTEX
  8
PNOA-H_AMS_1956-57_33k_ES_PAN_21mic_H50_0450_fot_52B-10288_W_tif
  70
32
  10
206619.500
  20
4555335.793
  30
703
  0
VERTEX
  8
PNOA-H_AMS_1956-57_33k_ES_PAN_21mic_H50_0450_fot_52B-10288_W_tif
  70
32
  10
207255.000
  20
4553206.793
  30
735
  0
VERTEX
  8
PNOA-H_AMS_1956-57_33k_ES_PAN_21mic_H50_0450_fot_52B-10288_W_tif
  70
32
  10
207255.000
  20
4553205.793
  30
735
  0
VERTEX
  8
PNOA-H_AMS_1956-57_33k_ES_PAN_21mic_H50_0450_fot_52B-10288_W_tif
  70
32
  10
207742.000
  20
4551573.293
  30
752.6
  0
VERTEX
  8
PNOA-H_AMS_1956-57_33k_ES_PAN_21mic_H50_0450_fot_52B-10288_W_tif
  70
32
  10
206477.000
  20
4551129.293
  30
748
  0
VERTEX
  8
PNOA-H_AMS_1956-57_33k_ES_PAN_21mic_H50_0450_fot_52B-10288_W_tif
  70
32
  10
205046.000
  20
4551653.293
  30
731
  0
SEQEND
  8
PNOA-H_AMS_1956-57_33k_ES_PAN_21mic_H50_0450_fot_52B-10288_W_tif
  0
TEXT
  8
PNOA-H_AMS_1956-57_33k_ES_PAN_21mic_H50_0450_fot_52B-10288_W_tif
 62
0
  1
PNOA-H_AMS_1956-57_33k_ES_PAN_21mic_H50_0450_fot_52B-10288_W.tif
 40
41.71242
  10
206395.660
  20
4553232.543
  0
POLYLINE
  8
PNOA-H_AMS_1956-57_33k_ES_PAN_21mic_H50_0450_fot_52B-10286_W_tif
  70
9
  66
1
  0
VERTEX
  8
PNOA-H_AMS_1956-57_33k_ES_PAN_21mic_H50_0450_fot_52B-10286_W_tif
  70
32
  10
212372.500
  20
4555408.793
  30
729.5
  0
VERTEX
  8
PNOA-H_AMS_1956-57_33k_ES_PAN_21mic_H50_0450_fot_52B-10286_W_tif
  70
32
  10
212507.000
  20
4555414.793
  30
725.3
  0
VERTEX
  8
PNOA-H_AMS_1956-57_33k_ES_PAN_21mic_H50_0450_fot_52B-10286_W_tif
  70
32
  10
212511.000
  20
4555414.793
  30
724.9
  0
VERTEX
  8
PNOA-H_AMS_1956-57_33k_ES_PAN_21mic_H50_0450_fot_52B-10286_W_tif
  70
32
  10
212511.500
  20
4555410.793
  30
724.49
  0
VERTEX
  8
PNOA-H_AMS_1956-57_33k_ES_PAN_21mic_H50_0450_fot_52B-10286_W_tif
  70
32
  10
212830.000
  20
4551272.293
  30
736
  0
VERTEX
  8
PNOA-H_AMS_1956-57_33k_ES_PAN_21mic_H50_0450_fot_52B-10286_W_tif
  70
32
  10
211943.000
  20
4550976.293
  30
732
  0
VERTEX
  8
PNOA-H_AMS_1956-57_33k_ES_PAN_21mic_H50_0450_fot_52B-10286_W_tif
  70
32
  10
210811.500
  20
4551373.793
  30
739
  0
VERTEX
  8
PNOA-H_AMS_1956-57_33k_ES_PAN_21mic_H50_0450_fot_52B-10286_W_tif
  70
32
  10
211789.000
  20
4555382.293
  30
717
  0
VERTEX
  8
PNOA-H_AMS_1956-57_33k_ES_PAN_21mic_H50_0450_fot_52B-10286_W_tif
  70
32
  10
212361.500
  20
4555408.293
  30
727.44
  0
VERTEX
  8
PNOA-H_AMS_1956-57_33k_ES_PAN_21mic_H50_0450_fot_52B-10286_W_tif
  70
32
  10
212372.500
  20
4555408.793
  30
729.5
  0
SEQEND
  8
PNOA-H_AMS_1956-57_33k_ES_PAN_21mic_H50_0450_fot_52B-10286_W_tif
  0
TEXT
  8
PNOA-H_AMS_1956-57_33k_ES_PAN_21mic_H50_0450_fot_52B-10286_W_tif
 62
0
  1
PNOA-H_AMS_1956-57_33k_ES_PAN_21mic_H50_0450_fot_52B-10286_W.tif
 40
41.71242
  10
211968.866
  20
4553195.543
  0
POLYLINE
  8
PNOA-H_AMS_1956-57_33k_ES_PAN_21mic_H50_0450_fot_53A-25887_W_tif
  70
9
  66
1
  0
VERTEX
  8
PNOA-H_AMS_1956-57_33k_ES_PAN_21mic_H50_0450_fot_53A-25887_W_tif
  70
32
  10
210199.000
  20
4551399.793
  30
724.6
  0
VERTEX
  8
PNOA-H_AMS_1956-57_33k_ES_PAN_21mic_H50_0450_fot_53A-25887_W_tif
  70
32
  10
210812.500
  20
4551373.293
  30
739
  0
VERTEX
  8
PNOA-H_AMS_1956-57_33k_ES_PAN_21mic_H50_0450_fot_53A-25887_W_tif
  70
32
  10
211943.000
  20
4550976.293
  30
732
  0
VERTEX
  8
PNOA-H_AMS_1956-57_33k_ES_PAN_21mic_H50_0450_fot_53A-25887_W_tif
  70
32
  10
211789.500
  20
4547110.793
  30
787
  0
VERTEX
  8
PNOA-H_AMS_1956-57_33k_ES_PAN_21mic_H50_0450_fot_53A-25887_W_tif
  70
32
  10
210906.000
  20
4546784.793
  30
793.1
  0
VERTEX
  8
PNOA-H_AMS_1956-57_33k_ES_PAN_21mic_H50_0450_fot_53A-25887_W_tif
  70
32
  10
210903.000
  20
4546783.793
  30
793
  0
VERTEX
  8
PNOA-H_AMS_1956-57_33k_ES_PAN_21mic_H50_0450_fot_53A-25887_W_tif
  70
32
  10
210894.500
  20
4546784.793
  30
793
  0
VERTEX
  8
PNOA-H_AMS_1956-57_33k_ES_PAN_21mic_H50_0450_fot_53A-25887_W_tif
  70
32
  10
209050.000
  20
4547199.793
  30
782
  0
VERTEX
  8
PNOA-H_AMS_1956-57_33k_ES_PAN_21mic_H50_0450_fot_53A-25887_W_tif
  70
32
  10
209239.500
  20
4551068.293
  30
726.82
  0
VERTEX
  8
PNOA-H_AMS_1956-57_33k_ES_PAN_21mic_H50_0450_fot_53A-25887_W_tif
  70
32
  10
210197.500
  20
4551399.293
  30
724.7
  0
VERTEX
  8
PNOA-H_AMS_1956-57_33k_ES_PAN_21mic_H50_0450_fot_53A-25887_W_tif
  70
32
  10
210199.000
  20
4551399.793
  30
724.6
  0
SEQEND
  8
PNOA-H_AMS_1956-57_33k_ES_PAN_21mic_H50_0450_fot_53A-25887_W_tif
  0
TEXT
  8
PNOA-H_AMS_1956-57_33k_ES_PAN_21mic_H50_0450_fot_53A-25887_W_tif
 62
0
  1
PNOA-H_AMS_1956-57_33k_ES_PAN_21mic_H50_0450_fot_53A-25887_W.tif
 40
41.71242
  10
210505.423
  20
4549091.793
  0
POLYLINE
  8
PNOA-H_AMS_1956-57_33k_ES_PAN_21mic_H50_0450_fot_53A-25888_W_tif
  70
9
  66
1
  0
VERTEX
  8
PNOA-H_AMS_1956-57_33k_ES_PAN_21mic_H50_0450_fot_53A-25888_W_tif
  70
32
  10
207740.500
  20
4551573.293
  30
752.9
  0
VERTEX
  8
PNOA-H_AMS_1956-57_33k_ES_PAN_21mic_H50_0450_fot_53A-25888_W_tif
  70
32
  10
207784.500
  20
4551572.793
  30
751
  0
VERTEX
  8
PNOA-H_AMS_1956-57_33k_ES_PAN_21mic_H50_0450_fot_53A-25888_W_tif
  70
32
  10
207798.000
  20
4551568.793
  30
750
  0
VERTEX
  8
PNOA-H_AMS_1956-57_33k_ES_PAN_21mic_H50_0450_fot_53A-25888_W_tif
  70
32
  10
209239.500
  20
4551068.293
  30
726.82
  0
VERTEX
  8
PNOA-H_AMS_1956-57_33k_ES_PAN_21mic_H50_0450_fot_53A-25888_W_tif
  70
32
  10
209050.000
  20
4547199.793
  30
782
  0
VERTEX
  8
PNOA-H_AMS_1956-57_33k_ES_PAN_21mic_H50_0450_fot_53A-25888_W_tif
  70
32
  10
208181.000
  20
4546888.793
  30
755
  0
VERTEX
  8
PNOA-H_AMS_1956-57_33k_ES_PAN_21mic_H50_0450_fot_53A-25888_W_tif
  70
32
  10
206347.500
  20
4547340.293
  30
731
  0
VERTEX
  8
PNOA-H_AMS_1956-57_33k_ES_PAN_21mic_H50_0450_fot_53A-25888_W_tif
  70
32
  10
206477.500
  20
4551129.293
  30
748
  0
VERTEX
  8
PNOA-H_AMS_1956-57_33k_ES_PAN_21mic_H50_0450_fot_53A-25888_W_tif
  70
32
  10
207739.000
  20
4551572.793
  30
753
  0
VERTEX
  8
PNOA-H_AMS_1956-57_33k_ES_PAN_21mic_H50_0450_fot_53A-25888_W_tif
  70
32
  10
207740.500
  20
4551573.293
  30
752.9
  0
SEQEND
  8
PNOA-H_AMS_1956-57_33k_ES_PAN_21mic_H50_0450_fot_53A-25888_W_tif
  0
TEXT
  8
PNOA-H_AMS_1956-57_33k_ES_PAN_21mic_H50_0450_fot_53A-25888_W_tif
 62
0
  1
PNOA-H_AMS_1956-57_33k_ES_PAN_21mic_H50_0450_fot_53A-25888_W.tif
 40
41.71242
  10
207780.936
  20
4549231.043
  0
POLYLINE
  8
PNOA-H_AMS_1956-57_33k_ES_PAN_21mic_H50_0450_fot_54A-29171_W_tif
  70
9
  66
1
  0
VERTEX
  8
PNOA-H_AMS_1956-57_33k_ES_PAN_21mic_H50_0450_fot_54A-29171_W_tif
  70
32
  10
213630.307
  20
4544342.933
  30
781.814
  0
VERTEX
  8
PNOA-H_AMS_1956-57_33k_ES_PAN_21mic_H50_0450_fot_54A-29171_W_tif
  70
32
  10
210876.553
  20
4544450.795
  30
783.81
  0
VERTEX
  8
PNOA-H_AMS_1956-57_33k_ES_PAN_21mic_H50_0450_fot_54A-29171_W_tif
  70
32
  10
210847.135
  20
4544451.961
  30
783.812
  0
VERTEX
  8
PNOA-H_AMS_1956-57_33k_ES_PAN_21mic_H50_0450_fot_54A-29171_W_tif
  70
32
  10
210901.500
  20
4546783.793
  30
793
  0
VERTEX
  8
PNOA-H_AMS_1956-57_33k_ES_PAN_21mic_H50_0450_fot_54A-29171_W_tif
  70
32
  10
211788.000
  20
4547110.293
  30
787
  0
VERTEX
  8
PNOA-H_AMS_1956-57_33k_ES_PAN_21mic_H50_0450_fot_54A-29171_W_tif
  70
32
  10
213760.000
  20
4546670.793
  30
771.3
  0
SEQEND
  8
PNOA-H_AMS_1956-57_33k_ES_PAN_21mic_H50_0450_fot_54A-29171_W_tif
  0
TEXT
  8
PNOA-H_AMS_1956-57_33k_ES_PAN_21mic_H50_0450_fot_54A-29171_W_tif
 62
0
  1
PNOA-H_AMS_1956-57_33k_ES_PAN_21mic_H50_0450_fot_54A-29171_W.tif
 40
41.71242
  10
212242.028
  20
4544458.793
  0
POLYLINE
  8
PNOA-H_AMS_1956-57_33k_ES_PAN_21mic_H50_0450_fot_54A-29173_W_tif
  70
9
  66
1
  0
VERTEX
  8
PNOA-H_AMS_1956-57_33k_ES_PAN_21mic_H50_0450_fot_54A-29173_W_tif
  70
32
  10
208067.077
  20
4544562.184
  30
748.252
  0
VERTEX
  8
PNOA-H_AMS_1956-57_33k_ES_PAN_21mic_H50_0450_fot_54A-29173_W_tif
  70
32
  10
207371.425
  20
4544589.765
  30
748.233
  0
VERTEX
  8
PNOA-H_AMS_1956-57_33k_ES_PAN_21mic_H50_0450_fot_54A-29173_W_tif
  70
32
  10
205213.140
  20
4544676.370
  30
723.635
  0
VERTEX
  8
PNOA-H_AMS_1956-57_33k_ES_PAN_21mic_H50_0450_fot_54A-29173_W_tif
  70
32
  10
205314.000
  20
4546979.793
  30
729
  0
VERTEX
  8
PNOA-H_AMS_1956-57_33k_ES_PAN_21mic_H50_0450_fot_54A-29173_W_tif
  70
32
  10
206231.500
  20
4547300.293
  30
730
  0
VERTEX
  8
PNOA-H_AMS_1956-57_33k_ES_PAN_21mic_H50_0450_fot_54A-29173_W_tif
  70
32
  10
206233.000
  20
4547300.793
  30
730
  0
VERTEX
  8
PNOA-H_AMS_1956-57_33k_ES_PAN_21mic_H50_0450_fot_54A-29173_W_tif
  70
32
  10
206348.500
  20
4547340.293
  30
731
  0
VERTEX
  8
PNOA-H_AMS_1956-57_33k_ES_PAN_21mic_H50_0450_fot_54A-29173_W_tif
  70
32
  10
208180.500
  20
4546888.793
  30
755
  0
SEQEND
  8
PNOA-H_AMS_1956-57_33k_ES_PAN_21mic_H50_0450_fot_54A-29173_W_tif
  0
TEXT
  8
PNOA-H_AMS_1956-57_33k_ES_PAN_21mic_H50_0450_fot_54A-29173_W_tif
 62
0
  1
PNOA-H_AMS_1956-57_33k_ES_PAN_21mic_H50_0450_fot_54A-29173_W.tif
 40
41.71242
  10
206645.907
  20
4544741.543
  0
POLYLINE
  8
PNOA-H_AMS_1956-57_33k_ES_PAN_21mic_H50_0450_fot_54A-29172_W_tif
  70
9
  66
1
  0
VERTEX
  8
PNOA-H_AMS_1956-57_33k_ES_PAN_21mic_H50_0450_fot_54A-29172_W_tif
  70
32
  10
210847.058
  20
4544451.964
  30
780.185
  0
VERTEX
  8
PNOA-H_AMS_1956-57_33k_ES_PAN_21mic_H50_0450_fot_54A-29172_W_tif
  70
32
  10
208066.860
  20
4544562.193
  30
748.253
  0
VERTEX
  8
PNOA-H_AMS_1956-57_33k_ES_PAN_21mic_H50_0450_fot_54A-29172_W_tif
  70
32
  10
208180.000
  20
4546887.793
  30
755
  0
VERTEX
  8
PNOA-H_AMS_1956-57_33k_ES_PAN_21mic_H50_0450_fot_54A-29172_W_tif
  70
32
  10
208182.000
  20
4546889.793
  30
755
  0
VERTEX
  8
PNOA-H_AMS_1956-57_33k_ES_PAN_21mic_H50_0450_fot_54A-29172_W_tif
  70
32
  10
209049.000
  20
4547199.793
  30
782
  0
VERTEX
  8
PNOA-H_AMS_1956-57_33k_ES_PAN_21mic_H50_0450_fot_54A-29172_W_tif
  70
32
  10
210901.500
  20
4546783.793
  30
793
  0
SEQEND
  8
PNOA-H_AMS_1956-57_33k_ES_PAN_21mic_H50_0450_fot_54A-29172_W_tif
  0
TEXT
  8
PNOA-H_AMS_1956-57_33k_ES_PAN_21mic_H50_0450_fot_54A-29172_W_tif
 62
0
  1
PNOA-H_AMS_1956-57_33k_ES_PAN_21mic_H50_0450_fot_54A-29172_W.tif
 40
41.71242
  10
209458.276
  20
4544563.043
  0
POLYLINE
  8
PNOA-H_AMS_1956-57_33k_ES_PAN_21mic_H50_0450_fot_51A-08831_E_tif
  70
9
  66
1
  0
VERTEX
  8
PNOA-H_AMS_1956-57_33k_ES_PAN_21mic_H50_0450_fot_51A-08831_E_tif
  70
32
  10
215214.000
  20
4559663.793
  30
778
  0
VERTEX
  8
PNOA-H_AMS_1956-57_33k_ES_PAN_21mic_H50_0450_fot_51A-08831_E_tif
  70
32
  10
216125.000
  20
4559149.293
  30
778
  0
VERTEX
  8
PNOA-H_AMS_1956-57_33k_ES_PAN_21mic_H50_0450_fot_51A-08831_E_tif
  70
32
  10
215971.500
  20
4555515.293
  30
735
  0
VERTEX
  8
PNOA-H_AMS_1956-57_33k_ES_PAN_21mic_H50_0450_fot_51A-08831_E_tif
  70
32
  10
215453.000
  20
4555314.293
  30
747
  0
VERTEX
  8
PNOA-H_AMS_1956-57_33k_ES_PAN_21mic_H50_0450_fot_51A-08831_E_tif
  70
32
  10
214258.500
  20
4555300.793
  30
720
  0
VERTEX
  8
PNOA-H_AMS_1956-57_33k_ES_PAN_21mic_H50_0450_fot_51A-08831_E_tif
  70
32
  10
213027.500
  20
4555630.293
  30
738.7
  0
VERTEX
  8
PNOA-H_AMS_1956-57_33k_ES_PAN_21mic_H50_0450_fot_51A-08831_E_tif
  70
32
  10
213224.500
  20
4559323.293
  30
760.72
  0
VERTEX
  8
PNOA-H_AMS_1956-57_33k_ES_PAN_21mic_H50_0450_fot_51A-08831_E_tif
  70
32
  10
215211.000
  20
4559663.293
  30
778
  0
VERTEX
  8
PNOA-H_AMS_1956-57_33k_ES_PAN_21mic_H50_0450_fot_51A-08831_E_tif
  70
32
  10
215214.000
  20
4559663.793
  30
778
  0
SEQEND
  8
PNOA-H_AMS_1956-57_33k_ES_PAN_21mic_H50_0450_fot_51A-08831_E_tif
  0
TEXT
  8
PNOA-H_AMS_1956-57_33k_ES_PAN_21mic_H50_0450_fot_51A-08831_E_tif
 62
0
  1
PNOA-H_AMS_1956-57_33k_ES_PAN_21mic_H50_0450_fot_51A-08831_E.tif
 40
41.71242
  10
214590.440
  20
4557482.293
  0
POLYLINE
  8
PNOA-H_AMS_1956-57_33k_ES_PAN_21mic_H50_0450_fot_51A-08832_E_tif
  70
9
  66
1
  0
VERTEX
  8
PNOA-H_AMS_1956-57_33k_ES_PAN_21mic_H50_0450_fot_51A-08832_E_tif
  70
32
  10
216474.000
  20
4559211.793
  30
778.82
  0
VERTEX
  8
PNOA-H_AMS_1956-57_33k_ES_PAN_21mic_H50_0450_fot_51A-08832_E_tif
  70
32
  10
218208.500
  20
4559522.293
  30
790.7
  0
VERTEX
  8
PNOA-H_AMS_1956-57_33k_ES_PAN_21mic_H50_0450_fot_51A-08832_E_tif
  70
32
  10
219004.500
  20
4559076.793
  30
804
  0
VERTEX
  8
PNOA-H_AMS_1956-57_33k_ES_PAN_21mic_H50_0450_fot_51A-08832_E_tif
  70
32
  10
218777.500
  20
4555359.793
  30
780
  0
VERTEX
  8
PNOA-H_AMS_1956-57_33k_ES_PAN_21mic_H50_0450_fot_51A-08832_E_tif
  70
32
  10
218251.500
  20
4555181.293
  30
778
  0
VERTEX
  8
PNOA-H_AMS_1956-57_33k_ES_PAN_21mic_H50_0450_fot_51A-08832_E_tif
  70
32
  10
216754.500
  20
4555262.293
  30
753
  0
VERTEX
  8
PNOA-H_AMS_1956-57_33k_ES_PAN_21mic_H50_0450_fot_51A-08832_E_tif
  70
32
  10
215971.500
  20
4555514.793
  30
735
  0
VERTEX
  8
PNOA-H_AMS_1956-57_33k_ES_PAN_21mic_H50_0450_fot_51A-08832_E_tif
  70
32
  10
216125.000
  20
4559149.293
  30
778
  0
VERTEX
  8
PNOA-H_AMS_1956-57_33k_ES_PAN_21mic_H50_0450_fot_51A-08832_E_tif
  70
32
  10
216471.000
  20
4559211.293
  30
778.36
  0
VERTEX
  8
PNOA-H_AMS_1956-57_33k_ES_PAN_21mic_H50_0450_fot_51A-08832_E_tif
  70
32
  10
216474.000
  20
4559211.793
  30
778.82
  0
SEQEND
  8
PNOA-H_AMS_1956-57_33k_ES_PAN_21mic_H50_0450_fot_51A-08832_E_tif
  0
TEXT
  8
PNOA-H_AMS_1956-57_33k_ES_PAN_21mic_H50_0450_fot_51A-08832_E_tif
 62
0
  1
PNOA-H_AMS_1956-57_33k_ES_PAN_21mic_H50_0450_fot_51A-08832_E.tif
 40
41.71242
  10
217474.119
  20
4557351.793
  0
POLYLINE
  8
PNOA-H_AMS_1956-57_33k_ES_PAN_21mic_H50_0450_fot_52A-25916_E_tif
  70
9
  66
1
  0
VERTEX
  8
PNOA-H_AMS_1956-57_33k_ES_PAN_21mic_H50_0450_fot_52A-25916_E_tif
  70
32
  10
214030.500
  20
4553205.793
  30
738
  0
VERTEX
  8
PNOA-H_AMS_1956-57_33k_ES_PAN_21mic_H50_0450_fot_52A-25916_E_tif
  70
32
  10
213814.000
  20
4551217.793
  30
758.02
  0
VERTEX
  8
PNOA-H_AMS_1956-57_33k_ES_PAN_21mic_H50_0450_fot_52A-25916_E_tif
  70
32
  10
212830.000
  20
4551272.793
  30
735.9
  0
VERTEX
  8
PNOA-H_AMS_1956-57_33k_ES_PAN_21mic_H50_0450_fot_52A-25916_E_tif
  70
32
  10
212511.000
  20
4555410.793
  30
724.56
  0
VERTEX
  8
PNOA-H_AMS_1956-57_33k_ES_PAN_21mic_H50_0450_fot_52A-25916_E_tif
  70
32
  10
212511.500
  20
4555415.293
  30
724.88
  0
VERTEX
  8
PNOA-H_AMS_1956-57_33k_ES_PAN_21mic_H50_0450_fot_52A-25916_E_tif
  70
32
  10
213028.000
  20
4555630.293
  30
738.76
  0
VERTEX
  8
PNOA-H_AMS_1956-57_33k_ES_PAN_21mic_H50_0450_fot_52A-25916_E_tif
  70
32
  10
214259.000
  20
4555300.793
  30
720
  0
VERTEX
  8
PNOA-H_AMS_1956-57_33k_ES_PAN_21mic_H50_0450_fot_52A-25916_E_tif
  70
32
  10
214030.500
  20
4553206.793
  30
738
  0
VERTEX
  8
PNOA-H_AMS_1956-57_33k_ES_PAN_21mic_H50_0450_fot_52A-25916_E_tif
  70
32
  10
214030.500
  20
4553205.793
  30
738
  0
SEQEND
  8
PNOA-H_AMS_1956-57_33k_ES_PAN_21mic_H50_0450_fot_52A-25916_E_tif
  0
TEXT
  8
PNOA-H_AMS_1956-57_33k_ES_PAN_21mic_H50_0450_fot_52A-25916_E_tif
 62
0
  1
PNOA-H_AMS_1956-57_33k_ES_PAN_21mic_H50_0450_fot_52A-25916_E.tif
 40
41.71242
  10
213359.183
  20
4553424.043
  0
POLYLINE
  8
PNOA-H_AMS_1956-57_33k_ES_PAN_21mic_H50_0450_fot_52A-25917_E_tif
  70
9
  66
1
  0
VERTEX
  8
PNOA-H_AMS_1956-57_33k_ES_PAN_21mic_H50_0450_fot_52A-25917_E_tif
  70
32
  10
215971.000
  20
4555515.293
  30
735
  0
VERTEX
  8
PNOA-H_AMS_1956-57_33k_ES_PAN_21mic_H50_0450_fot_52A-25917_E_tif
  70
32
  10
216753.500
  20
4555262.793
  30
753
  0
VERTEX
  8
PNOA-H_AMS_1956-57_33k_ES_PAN_21mic_H50_0450_fot_52A-25917_E_tif
  70
32
  10
216767.000
  20
4551060.293
  30
768
  0
VERTEX
  8
PNOA-H_AMS_1956-57_33k_ES_PAN_21mic_H50_0450_fot_52A-25917_E_tif
  70
32
  10
215363.000
  20
4551156.793
  30
758
  0
VERTEX
  8
PNOA-H_AMS_1956-57_33k_ES_PAN_21mic_H50_0450_fot_52A-25917_E_tif
  70
32
  10
215452.000
  20
4555314.293
  30
747
  0
VERTEX
  8
PNOA-H_AMS_1956-57_33k_ES_PAN_21mic_H50_0450_fot_52A-25917_E_tif
  70
32
  10
215970.000
  20
4555514.793
  30
735
  0
VERTEX
  8
PNOA-H_AMS_1956-57_33k_ES_PAN_21mic_H50_0450_fot_52A-25917_E_tif
  70
32
  10
215971.000
  20
4555515.293
  30
735
  0
SEQEND
  8
PNOA-H_AMS_1956-57_33k_ES_PAN_21mic_H50_0450_fot_52A-25917_E_tif
  0
TEXT
  8
PNOA-H_AMS_1956-57_33k_ES_PAN_21mic_H50_0450_fot_52A-25917_E_tif
 62
0
  1
PNOA-H_AMS_1956-57_33k_ES_PAN_21mic_H50_0450_fot_52A-25917_E.tif
 40
41.71242
  10
216084.231
  20
4553287.793
  0
POLYLINE
  8
PNOA-H_AMS_1956-57_33k_ES_PAN_21mic_H50_0450_fot_52A-25918_E_tif
  70
9
  66
1
  0
VERTEX
  8
PNOA-H_AMS_1956-57_33k_ES_PAN_21mic_H50_0450_fot_52A-25918_E_tif
  70
32
  10
218521.000
  20
4555273.293
  30
774.16
  0
VERTEX
  8
PNOA-H_AMS_1956-57_33k_ES_PAN_21mic_H50_0450_fot_52A-25918_E_tif
  70
32
  10
218764.000
  20
4555355.793
  30
779.24
  0
VERTEX
  8
PNOA-H_AMS_1956-57_33k_ES_PAN_21mic_H50_0450_fot_52A-25918_E_tif
  70
32
  10
218776.000
  20
4555359.793
  30
780
  0
VERTEX
  8
PNOA-H_AMS_1956-57_33k_ES_PAN_21mic_H50_0450_fot_52A-25918_E_tif
  70
32
  10
218779.000
  20
4555359.793
  30
780
  0
VERTEX
  8
PNOA-H_AMS_1956-57_33k_ES_PAN_21mic_H50_0450_fot_52A-25918_E_tif
  70
32
  10
219315.500
  20
4555190.793
  30
781
  0
VERTEX
  8
PNOA-H_AMS_1956-57_33k_ES_PAN_21mic_H50_0450_fot_52A-25918_E_tif
  70
32
  10
219691.500
  20
4550915.293
  30
783.18
  0
VERTEX
  8
PNOA-H_AMS_1956-57_33k_ES_PAN_21mic_H50_0450_fot_52A-25918_E_tif
  70
32
  10
218030.500
  20
4551048.793
  30
766
  0
VERTEX
  8
PNOA-H_AMS_1956-57_33k_ES_PAN_21mic_H50_0450_fot_52A-25918_E_tif
  70
32
  10
218251.500
  20
4555181.793
  30
778
  0
VERTEX
  8
PNOA-H_AMS_1956-57_33k_ES_PAN_21mic_H50_0450_fot_52A-25918_E_tif
  70
32
  10
218519.500
  20
4555272.793
  30
774
  0
VERTEX
  8
PNOA-H_AMS_1956-57_33k_ES_PAN_21mic_H50_0450_fot_52A-25918_E_tif
  70
32
  10
218521.000
  20
4555273.293
  30
774.16
  0
SEQEND
  8
PNOA-H_AMS_1956-57_33k_ES_PAN_21mic_H50_0450_fot_52A-25918_E_tif
  0
TEXT
  8
PNOA-H_AMS_1956-57_33k_ES_PAN_21mic_H50_0450_fot_52A-25918_E_tif
 62
0
  1
PNOA-H_AMS_1956-57_33k_ES_PAN_21mic_H50_0450_fot_52A-25918_E.tif
 40
41.71242
  10
218819.129
  20
4553137.543
  0
POLYLINE
  8
PNOA-H_AMS_1956-57_33k_ES_PAN_21mic_H50_0450_fot_52B-10284_W_tif
  70
9
  66
1
  0
VERTEX
  8
PNOA-H_AMS_1956-57_33k_ES_PAN_21mic_H50_0450_fot_52B-10284_W_tif
  70
32
  10
216753.500
  20
4555262.793
  30
753
  0
VERTEX
  8
PNOA-H_AMS_1956-57_33k_ES_PAN_21mic_H50_0450_fot_52B-10284_W_tif
  70
32
  10
218251.500
  20
4555181.293
  30
778
  0
VERTEX
  8
PNOA-H_AMS_1956-57_33k_ES_PAN_21mic_H50_0450_fot_52B-10284_W_tif
  70
32
  10
218031.000
  20
4551050.293
  30
766
  0
VERTEX
  8
PNOA-H_AMS_1956-57_33k_ES_PAN_21mic_H50_0450_fot_52B-10284_W_tif
  70
32
  10
218030.500
  20
4551048.793
  30
766
  0
VERTEX
  8
PNOA-H_AMS_1956-57_33k_ES_PAN_21mic_H50_0450_fot_52B-10284_W_tif
  70
32
  10
218023.000
  20
4551046.293
  30
766
  0
VERTEX
  8
PNOA-H_AMS_1956-57_33k_ES_PAN_21mic_H50_0450_fot_52B-10284_W_tif
  70
32
  10
217385.500
  20
4550850.293
  30
762
  0
VERTEX
  8
PNOA-H_AMS_1956-57_33k_ES_PAN_21mic_H50_0450_fot_52B-10284_W_tif
  70
32
  10
216767.000
  20
4551059.793
  30
768
  0
VERTEX
  8
PNOA-H_AMS_1956-57_33k_ES_PAN_21mic_H50_0450_fot_52B-10284_W_tif
  70
32
  10
216753.500
  20
4555258.793
  30
753.49
  0
VERTEX
  8
PNOA-H_AMS_1956-57_33k_ES_PAN_21mic_H50_0450_fot_52B-10284_W_tif
  70
32
  10
216753.500
  20
4555262.793
  30
753
  0
SEQEND
  8
PNOA-H_AMS_1956-57_33k_ES_PAN_21mic_H50_0450_fot_52B-10284_W_tif
  0
TEXT
  8
PNOA-H_AMS_1956-57_33k_ES_PAN_21mic_H50_0450_fot_52B-10284_W_tif
 62
0
  1
PNOA-H_AMS_1956-57_33k_ES_PAN_21mic_H50_0450_fot_52B-10284_W.tif
 40
41.71242
  10
217449.334
  20
4553056.543
  0
POLYLINE
  8
PNOA-H_AMS_1956-57_33k_ES_PAN_21mic_H50_0450_fot_52B-10285_W_tif
  70
9
  66
1
  0
VERTEX
  8
PNOA-H_AMS_1956-57_33k_ES_PAN_21mic_H50_0450_fot_52B-10285_W_tif
  70
32
  10
214406.000
  20
4555302.793
  30
723
  0
VERTEX
  8
PNOA-H_AMS_1956-57_33k_ES_PAN_21mic_H50_0450_fot_52B-10285_W_tif
  70
32
  10
215452.000
  20
4555314.293
  30
747
  0
VERTEX
  8
PNOA-H_AMS_1956-57_33k_ES_PAN_21mic_H50_0450_fot_52B-10285_W_tif
  70
32
  10
215363.000
  20
4551156.793
  30
758
  0
VERTEX
  8
PNOA-H_AMS_1956-57_33k_ES_PAN_21mic_H50_0450_fot_52B-10285_W_tif
  70
32
  10
214655.000
  20
4550931.293
  30
777
  0
VERTEX
  8
PNOA-H_AMS_1956-57_33k_ES_PAN_21mic_H50_0450_fot_52B-10285_W_tif
  70
32
  10
213814.000
  20
4551217.793
  30
758.02
  0
VERTEX
  8
PNOA-H_AMS_1956-57_33k_ES_PAN_21mic_H50_0450_fot_52B-10285_W_tif
  70
32
  10
214258.500
  20
4555297.293
  30
720
  0
VERTEX
  8
PNOA-H_AMS_1956-57_33k_ES_PAN_21mic_H50_0450_fot_52B-10285_W_tif
  70
32
  10
214259.000
  20
4555300.793
  30
720
  0
VERTEX
  8
PNOA-H_AMS_1956-57_33k_ES_PAN_21mic_H50_0450_fot_52B-10285_W_tif
  70
32
  10
214361.500
  20
4555302.293
  30
722
  0
VERTEX
  8
PNOA-H_AMS_1956-57_33k_ES_PAN_21mic_H50_0450_fot_52B-10285_W_tif
  70
32
  10
214406.000
  20
4555302.793
  30
723
  0
SEQEND
  8
PNOA-H_AMS_1956-57_33k_ES_PAN_21mic_H50_0450_fot_52B-10285_W_tif
  0
TEXT
  8
PNOA-H_AMS_1956-57_33k_ES_PAN_21mic_H50_0450_fot_52B-10285_W_tif
 62
0
  1
PNOA-H_AMS_1956-57_33k_ES_PAN_21mic_H50_0450_fot_52B-10285_W.tif
 40
41.71242
  10
214713.327
  20
4553122.793
  0
POLYLINE
  8
PNOA-H_AMS_1956-57_33k_ES_PAN_21mic_H50_0450_fot_53A-25884_W_tif
  70
9
  66
1
  0
VERTEX
  8
PNOA-H_AMS_1956-57_33k_ES_PAN_21mic_H50_0450_fot_53A-25884_W_tif
  70
32
  10
218522.500
  20
4551009.293
  30
769
  0
VERTEX
  8
PNOA-H_AMS_1956-57_33k_ES_PAN_21mic_H50_0450_fot_53A-25884_W_tif
  70
32
  10
219692.000
  20
4550915.293
  30
783.24
  0
VERTEX
  8
PNOA-H_AMS_1956-57_33k_ES_PAN_21mic_H50_0450_fot_53A-25884_W_tif
  70
32
  10
220127.500
  20
4550772.793
  30
793.05
  0
VERTEX
  8
PNOA-H_AMS_1956-57_33k_ES_PAN_21mic_H50_0450_fot_53A-25884_W_tif
  70
32
  10
219846.500
  20
4546657.293
  30
784
  0
VERTEX
  8
PNOA-H_AMS_1956-57_33k_ES_PAN_21mic_H50_0450_fot_53A-25884_W_tif
  70
32
  10
219305.000
  20
4546414.793
  30
785
  0
VERTEX
  8
PNOA-H_AMS_1956-57_33k_ES_PAN_21mic_H50_0450_fot_53A-25884_W_tif
  70
32
  10
217150.000
  20
4546795.293
  30
775
  0
VERTEX
  8
PNOA-H_AMS_1956-57_33k_ES_PAN_21mic_H50_0450_fot_53A-25884_W_tif
  70
32
  10
217386.500
  20
4550850.293
  30
762
  0
VERTEX
  8
PNOA-H_AMS_1956-57_33k_ES_PAN_21mic_H50_0450_fot_53A-25884_W_tif
  70
32
  10
218029.000
  20
4551048.793
  30
766
  0
VERTEX
  8
PNOA-H_AMS_1956-57_33k_ES_PAN_21mic_H50_0450_fot_53A-25884_W_tif
  70
32
  10
218520.500
  20
4551009.293
  30
769
  0
VERTEX
  8
PNOA-H_AMS_1956-57_33k_ES_PAN_21mic_H50_0450_fot_53A-25884_W_tif
  70
32
  10
218522.500
  20
4551009.293
  30
769
  0
SEQEND
  8
PNOA-H_AMS_1956-57_33k_ES_PAN_21mic_H50_0450_fot_53A-25884_W_tif
  0
TEXT
  8
PNOA-H_AMS_1956-57_33k_ES_PAN_21mic_H50_0450_fot_53A-25884_W_tif
 62
0
  1
PNOA-H_AMS_1956-57_33k_ES_PAN_21mic_H50_0450_fot_53A-25884_W.tif
 40
41.71242
  10
218625.543
  20
4548731.793
  0
POLYLINE
  8
PNOA-H_AMS_1956-57_33k_ES_PAN_21mic_H50_0450_fot_53A-25885_W_tif
  70
9
  66
1
  0
VERTEX
  8
PNOA-H_AMS_1956-57_33k_ES_PAN_21mic_H50_0450_fot_53A-25885_W_tif
  70
32
  10
216474.500
  20
4551080.293
  30
762
  0
VERTEX
  8
PNOA-H_AMS_1956-57_33k_ES_PAN_21mic_H50_0450_fot_53A-25885_W_tif
  70
32
  10
216767.000
  20
4551060.293
  30
768
  0
VERTEX
  8
PNOA-H_AMS_1956-57_33k_ES_PAN_21mic_H50_0450_fot_53A-25885_W_tif
  70
32
  10
217386.500
  20
4550850.293
  30
762
  0
VERTEX
  8
PNOA-H_AMS_1956-57_33k_ES_PAN_21mic_H50_0450_fot_53A-25885_W_tif
  70
32
  10
217150.000
  20
4546795.293
  30
775
  0
VERTEX
  8
PNOA-H_AMS_1956-57_33k_ES_PAN_21mic_H50_0450_fot_53A-25885_W_tif
  70
32
  10
216572.000
  20
4546563.793
  30
768
  0
VERTEX
  8
PNOA-H_AMS_1956-57_33k_ES_PAN_21mic_H50_0450_fot_53A-25885_W_tif
  70
32
  10
214489.000
  20
4546954.793
  30
741
  0
VERTEX
  8
PNOA-H_AMS_1956-57_33k_ES_PAN_21mic_H50_0450_fot_53A-25885_W_tif
  70
32
  10
214654.000
  20
4550931.293
  30
776.84
  0
VERTEX
  8
PNOA-H_AMS_1956-57_33k_ES_PAN_21mic_H50_0450_fot_53A-25885_W_tif
  70
32
  10
215362.500
  20
4551156.793
  30
758
  0
VERTEX
  8
PNOA-H_AMS_1956-57_33k_ES_PAN_21mic_H50_0450_fot_53A-25885_W_tif
  70
32
  10
216469.500
  20
4551080.293
  30
762
  0
VERTEX
  8
PNOA-H_AMS_1956-57_33k_ES_PAN_21mic_H50_0450_fot_53A-25885_W_tif
  70
32
  10
216474.500
  20
4551080.293
  30
762
  0
SEQEND
  8
PNOA-H_AMS_1956-57_33k_ES_PAN_21mic_H50_0450_fot_53A-25885_W_tif
  0
TEXT
  8
PNOA-H_AMS_1956-57_33k_ES_PAN_21mic_H50_0450_fot_53A-25885_W_tif
 62
0
  1
PNOA-H_AMS_1956-57_33k_ES_PAN_21mic_H50_0450_fot_53A-25885_W.tif
 40
41.71242
  10
215919.252
  20
4548860.293
  0
POLYLINE
  8
PNOA-H_AMS_1956-57_33k_ES_PAN_21mic_H50_0450_fot_53A-25886_W_tif
  70
9
  66
1
  0
VERTEX
  8
PNOA-H_AMS_1956-57_33k_ES_PAN_21mic_H50_0450_fot_53A-25886_W_tif
  70
32
  10
214493.500
  20
4547061.793
  30
744
  0
VERTEX
  8
PNOA-H_AMS_1956-57_33k_ES_PAN_21mic_H50_0450_fot_53A-25886_W_tif
  70
32
  10
214488.500
  20
4546954.293
  30
741
  0
VERTEX
  8
PNOA-H_AMS_1956-57_33k_ES_PAN_21mic_H50_0450_fot_53A-25886_W_tif
  70
32
  10
213766.500
  20
4546672.793
  30
771
  0
VERTEX
  8
PNOA-H_AMS_1956-57_33k_ES_PAN_21mic_H50_0450_fot_53A-25886_W_tif
  70
32
  10
213761.000
  20
4546670.793
  30
771.24
  0
VERTEX
  8
PNOA-H_AMS_1956-57_33k_ES_PAN_21mic_H50_0450_fot_53A-25886_W_tif
  70
32
  10
213757.500
  20
4546670.793
  30
771.65
  0
VERTEX
  8
PNOA-H_AMS_1956-57_33k_ES_PAN_21mic_H50_0450_fot_53A-25886_W_tif
  70
32
  10
211789.000
  20
4547110.293
  30
787
  0
VERTEX
  8
PNOA-H_AMS_1956-57_33k_ES_PAN_21mic_H50_0450_fot_53A-25886_W_tif
  70
32
  10
211943.000
  20
4550976.793
  30
732
  0
VERTEX
  8
PNOA-H_AMS_1956-57_33k_ES_PAN_21mic_H50_0450_fot_53A-25886_W_tif
  70
32
  10
212831.500
  20
4551272.793
  30
735.93
  0
VERTEX
  8
PNOA-H_AMS_1956-57_33k_ES_PAN_21mic_H50_0450_fot_53A-25886_W_tif
  70
32
  10
213814.500
  20
4551217.793
  30
758.01
  0
VERTEX
  8
PNOA-H_AMS_1956-57_33k_ES_PAN_21mic_H50_0450_fot_53A-25886_W_tif
  70
32
  10
214654.000
  20
4550931.293
  30
776.84
  0
VERTEX
  8
PNOA-H_AMS_1956-57_33k_ES_PAN_21mic_H50_0450_fot_53A-25886_W_tif
  70
32
  10
214493.500
  20
4547068.793
  30
744.09
  0
VERTEX
  8
PNOA-H_AMS_1956-57_33k_ES_PAN_21mic_H50_0450_fot_53A-25886_W_tif
  70
32
  10
214493.500
  20
4547061.793
  30
744
  0
SEQEND
  8
PNOA-H_AMS_1956-57_33k_ES_PAN_21mic_H50_0450_fot_53A-25886_W_tif
  0
TEXT
  8
PNOA-H_AMS_1956-57_33k_ES_PAN_21mic_H50_0450_fot_53A-25886_W_tif
 62
0
  1
PNOA-H_AMS_1956-57_33k_ES_PAN_21mic_H50_0450_fot_53A-25886_W.tif
 40
41.71242
  10
213217.859
  20
4548971.793
  0
POLYLINE
  8
PNOA-H_AMS_1956-57_33k_ES_PAN_21mic_H50_0450_fot_54A-29169_W_tif
  70
9
  66
1
  0
VERTEX
  8
PNOA-H_AMS_1956-57_33k_ES_PAN_21mic_H50_0450_fot_54A-29169_W_tif
  70
32
  10
219261.760
  20
4544125.350
  30
808.494
  0
VERTEX
  8
PNOA-H_AMS_1956-57_33k_ES_PAN_21mic_H50_0450_fot_54A-29169_W_tif
  70
32
  10
217886.744
  20
4544177.891
  30
808.216
  0
VERTEX
  8
PNOA-H_AMS_1956-57_33k_ES_PAN_21mic_H50_0450_fot_54A-29169_W_tif
  70
32
  10
216432.449
  20
4544234.158
  30
767.242
  0
VERTEX
  8
PNOA-H_AMS_1956-57_33k_ES_PAN_21mic_H50_0450_fot_54A-29169_W_tif
  70
32
  10
216474.000
  20
4544931.793
  30
757
  0
VERTEX
  8
PNOA-H_AMS_1956-57_33k_ES_PAN_21mic_H50_0450_fot_54A-29169_W_tif
  70
32
  10
216474.000
  20
4544939.793
  30
757
  0
VERTEX
  8
PNOA-H_AMS_1956-57_33k_ES_PAN_21mic_H50_0450_fot_54A-29169_W_tif
  70
32
  10
216571.000
  20
4546563.793
  30
768
  0
VERTEX
  8
PNOA-H_AMS_1956-57_33k_ES_PAN_21mic_H50_0450_fot_54A-29169_W_tif
  70
32
  10
217148.000
  20
4546794.793
  30
775
  0
VERTEX
  8
PNOA-H_AMS_1956-57_33k_ES_PAN_21mic_H50_0450_fot_54A-29169_W_tif
  70
32
  10
217151.500
  20
4546795.293
  30
775
  0
VERTEX
  8
PNOA-H_AMS_1956-57_33k_ES_PAN_21mic_H50_0450_fot_54A-29169_W_tif
  70
32
  10
219304.000
  20
4546414.793
  30
785
  0
SEQEND
  8
PNOA-H_AMS_1956-57_33k_ES_PAN_21mic_H50_0450_fot_54A-29169_W_tif
  0
TEXT
  8
PNOA-H_AMS_1956-57_33k_ES_PAN_21mic_H50_0450_fot_54A-29169_W_tif
 62
0
  1
PNOA-H_AMS_1956-57_33k_ES_PAN_21mic_H50_0450_fot_54A-29169_W.tif
 40
41.71242
  10
217868.225
  20
4545460.322
  0
POLYLINE
  8
PNOA-H_AMS_1956-57_33k_ES_PAN_21mic_H50_0450_fot_54A-29170_W_tif
  70
9
  66
1
  0
VERTEX
  8
PNOA-H_AMS_1956-57_33k_ES_PAN_21mic_H50_0450_fot_54A-29170_W_tif
  70
32
  10
216432.521
  20
4544234.155
  30
783.971
  0
VERTEX
  8
PNOA-H_AMS_1956-57_33k_ES_PAN_21mic_H50_0450_fot_54A-29170_W_tif
  70
32
  10
214381.659
  20
4544313.503
  30
770.784
  0
VERTEX
  8
PNOA-H_AMS_1956-57_33k_ES_PAN_21mic_H50_0450_fot_54A-29170_W_tif
  70
32
  10
213630.434
  20
4544342.928
  30
770.781
  0
VERTEX
  8
PNOA-H_AMS_1956-57_33k_ES_PAN_21mic_H50_0450_fot_54A-29170_W_tif
  70
32
  10
213760.000
  20
4546670.793
  30
771.3
  0
VERTEX
  8
PNOA-H_AMS_1956-57_33k_ES_PAN_21mic_H50_0450_fot_54A-29170_W_tif
  70
32
  10
214424.500
  20
4546929.793
  30
741
  0
VERTEX
  8
PNOA-H_AMS_1956-57_33k_ES_PAN_21mic_H50_0450_fot_54A-29170_W_tif
  70
32
  10
214425.500
  20
4546930.293
  30
741
  0
VERTEX
  8
PNOA-H_AMS_1956-57_33k_ES_PAN_21mic_H50_0450_fot_54A-29170_W_tif
  70
32
  10
214490.000
  20
4546954.793
  30
741
  0
VERTEX
  8
PNOA-H_AMS_1956-57_33k_ES_PAN_21mic_H50_0450_fot_54A-29170_W_tif
  70
32
  10
216571.000
  20
4546563.793
  30
768
  0
SEQEND
  8
PNOA-H_AMS_1956-57_33k_ES_PAN_21mic_H50_0450_fot_54A-29170_W_tif
  0
TEXT
  8
PNOA-H_AMS_1956-57_33k_ES_PAN_21mic_H50_0450_fot_54A-29170_W_tif
 62
0
  1
PNOA-H_AMS_1956-57_33k_ES_PAN_21mic_H50_0450_fot_54A-29170_W.tif
 40
41.71242
  10
215032.889
  20
4544311.293
  0
POLYLINE
  8
PNOA-H_AMS_1956-57_33k_ES_PAN_21mic_H50_0450_fot_51A-08833_E_tif
  70
9
  66
1
  0
VERTEX
  8
PNOA-H_AMS_1956-57_33k_ES_PAN_21mic_H50_0450_fot_51A-08833_E_tif
  70
32
  10
221183.000
  20
4559329.293
  30
785
  0
VERTEX
  8
PNOA-H_AMS_1956-57_33k_ES_PAN_21mic_H50_0450_fot_51A-08833_E_tif
  70
32
  10
221186.000
  20
4559329.293
  30
785
  0
VERTEX
  8
PNOA-H_AMS_1956-57_33k_ES_PAN_21mic_H50_0450_fot_51A-08833_E_tif
  70
32
  10
221193.500
  20
4559324.793
  30
785
  0
VERTEX
  8
PNOA-H_AMS_1956-57_33k_ES_PAN_21mic_H50_0450_fot_51A-08833_E_tif
  70
32
  10
221752.500
  20
4558983.793
  30
790
  0
VERTEX
  8
PNOA-H_AMS_1956-57_33k_ES_PAN_21mic_H50_0450_fot_51A-08833_E_tif
  70
32
  10
221481.000
  20
4555256.293
  30
771
  0
VERTEX
  8
PNOA-H_AMS_1956-57_33k_ES_PAN_21mic_H50_0450_fot_51A-08833_E_tif
  70
32
  10
221029.500
  20
4555097.293
  30
770
  0
VERTEX
  8
PNOA-H_AMS_1956-57_33k_ES_PAN_21mic_H50_0450_fot_51A-08833_E_tif
  70
32
  10
219317.500
  20
4555190.293
  30
781
  0
VERTEX
  8
PNOA-H_AMS_1956-57_33k_ES_PAN_21mic_H50_0450_fot_51A-08833_E_tif
  70
32
  10
218783.500
  20
4555357.793
  30
780
  0
VERTEX
  8
PNOA-H_AMS_1956-57_33k_ES_PAN_21mic_H50_0450_fot_51A-08833_E_tif
  70
32
  10
218777.500
  20
4555359.793
  30
780
  0
VERTEX
  8
PNOA-H_AMS_1956-57_33k_ES_PAN_21mic_H50_0450_fot_51A-08833_E_tif
  70
32
  10
218777.500
  20
4555365.293
  30
780
  0
VERTEX
  8
PNOA-H_AMS_1956-57_33k_ES_PAN_21mic_H50_0450_fot_51A-08833_E_tif
  70
32
  10
219004.500
  20
4559076.293
  30
804
  0
VERTEX
  8
PNOA-H_AMS_1956-57_33k_ES_PAN_21mic_H50_0450_fot_51A-08833_E_tif
  70
32
  10
221179.000
  20
4559328.793
  30
785
  0
VERTEX
  8
PNOA-H_AMS_1956-57_33k_ES_PAN_21mic_H50_0450_fot_51A-08833_E_tif
  70
32
  10
221183.000
  20
4559329.293
  30
785
  0
SEQEND
  8
PNOA-H_AMS_1956-57_33k_ES_PAN_21mic_H50_0450_fot_51A-08833_E_tif
  0
TEXT
  8
PNOA-H_AMS_1956-57_33k_ES_PAN_21mic_H50_0450_fot_51A-08833_E_tif
 62
0
  1
PNOA-H_AMS_1956-57_33k_ES_PAN_21mic_H50_0450_fot_51A-08833_E.tif
 40
41.71242
  10
220257.042
  20
4557213.293
  0
POLYLINE
  8
PNOA-H_AMS_1956-57_33k_ES_PAN_21mic_H50_0450_fot_51A-08834_E_tif
  70
9
  66
1
  0
VERTEX
  8
PNOA-H_AMS_1956-57_33k_ES_PAN_21mic_H50_0450_fot_51A-08834_E_tif
  70
32
  10
224202.000
  20
4559136.293
  30
799
  0
VERTEX
  8
PNOA-H_AMS_1956-57_33k_ES_PAN_21mic_H50_0450_fot_51A-08834_E_tif
  70
32
  10
224206.500
  20
4559135.793
  30
799
  0
VERTEX
  8
PNOA-H_AMS_1956-57_33k_ES_PAN_21mic_H50_0450_fot_51A-08834_E_tif
  70
32
  10
224457.500
  20
4558966.793
  30
805
  0
VERTEX
  8
PNOA-H_AMS_1956-57_33k_ES_PAN_21mic_H50_0450_fot_51A-08834_E_tif
  70
32
  10
224240.000
  20
4555170.793
  30
790
  0
VERTEX
  8
PNOA-H_AMS_1956-57_33k_ES_PAN_21mic_H50_0450_fot_51A-08834_E_tif
  70
32
  10
223062.500
  20
4554731.793
  30
775
  0
VERTEX
  8
PNOA-H_AMS_1956-57_33k_ES_PAN_21mic_H50_0450_fot_51A-08834_E_tif
  70
32
  10
223060.000
  20
4554731.793
  30
775
  0
VERTEX
  8
PNOA-H_AMS_1956-57_33k_ES_PAN_21mic_H50_0450_fot_51A-08834_E_tif
  70
32
  10
222969.500
  20
4554761.793
  30
774.01
  0
VERTEX
  8
PNOA-H_AMS_1956-57_33k_ES_PAN_21mic_H50_0450_fot_51A-08834_E_tif
  70
32
  10
221481.000
  20
4555256.293
  30
771
  0
VERTEX
  8
PNOA-H_AMS_1956-57_33k_ES_PAN_21mic_H50_0450_fot_51A-08834_E_tif
  70
32
  10
221752.000
  20
4558983.793
  30
790
  0
VERTEX
  8
PNOA-H_AMS_1956-57_33k_ES_PAN_21mic_H50_0450_fot_51A-08834_E_tif
  70
32
  10
224194.000
  20
4559135.793
  30
799
  0
VERTEX
  8
PNOA-H_AMS_1956-57_33k_ES_PAN_21mic_H50_0450_fot_51A-08834_E_tif
  70
32
  10
224202.000
  20
4559136.293
  30
799
  0
SEQEND
  8
PNOA-H_AMS_1956-57_33k_ES_PAN_21mic_H50_0450_fot_51A-08834_E_tif
  0
TEXT
  8
PNOA-H_AMS_1956-57_33k_ES_PAN_21mic_H50_0450_fot_51A-08834_E_tif
 62
0
  1
PNOA-H_AMS_1956-57_33k_ES_PAN_21mic_H50_0450_fot_51A-08834_E.tif
 40
41.71242
  10
222972.003
  20
4556934.043
  0
POLYLINE
  8
PNOA-H_AMS_1956-57_33k_ES_PAN_21mic_H50_0450_fot_51A-08835_E_tif
  70
9
  66
1
  0
VERTEX
  8
PNOA-H_AMS_1956-57_33k_ES_PAN_21mic_H50_0450_fot_51A-08835_E_tif
  70
32
  10
224457.500
  20
4558966.793
  30
805
  0
VERTEX
  8
PNOA-H_AMS_1956-57_33k_ES_PAN_21mic_H50_0450_fot_51A-08835_E_tif
  70
32
  10
227233.000
  20
4558905.793
  30
802.28
  0
VERTEX
  8
PNOA-H_AMS_1956-57_33k_ES_PAN_21mic_H50_0450_fot_51A-08835_E_tif
  70
32
  10
227063.500
  20
4555095.793
  30
796
  0
VERTEX
  8
PNOA-H_AMS_1956-57_33k_ES_PAN_21mic_H50_0450_fot_51A-08835_E_tif
  70
32
  10
225928.500
  20
4554642.793
  30
798.27
  0
VERTEX
  8
PNOA-H_AMS_1956-57_33k_ES_PAN_21mic_H50_0450_fot_51A-08835_E_tif
  70
32
  10
225874.500
  20
4554621.293
  30
799
  0
VERTEX
  8
PNOA-H_AMS_1956-57_33k_ES_PAN_21mic_H50_0450_fot_51A-08835_E_tif
  70
32
  10
225870.500
  20
4554620.793
  30
799
  0
VERTEX
  8
PNOA-H_AMS_1956-57_33k_ES_PAN_21mic_H50_0450_fot_51A-08835_E_tif
  70
32
  10
224240.000
  20
4555170.793
  30
790
  0
VERTEX
  8
PNOA-H_AMS_1956-57_33k_ES_PAN_21mic_H50_0450_fot_51A-08835_E_tif
  70
32
  10
224457.500
  20
4558962.293
  30
805
  0
VERTEX
  8
PNOA-H_AMS_1956-57_33k_ES_PAN_21mic_H50_0450_fot_51A-08835_E_tif
  70
32
  10
224457.500
  20
4558966.793
  30
805
  0
SEQEND
  8
PNOA-H_AMS_1956-57_33k_ES_PAN_21mic_H50_0450_fot_51A-08835_E_tif
  0
TEXT
  8
PNOA-H_AMS_1956-57_33k_ES_PAN_21mic_H50_0450_fot_51A-08835_E_tif
 62
0
  1
PNOA-H_AMS_1956-57_33k_ES_PAN_21mic_H50_0450_fot_51A-08835_E.tif
 40
41.71242
  10
225736.072
  20
4556793.793
  0
POLYLINE
  8
PNOA-H_AMS_1956-57_33k_ES_PAN_21mic_H50_0450_fot_52A-25920_E_tif
  70
9
  66
1
  0
VERTEX
  8
PNOA-H_AMS_1956-57_33k_ES_PAN_21mic_H50_0450_fot_52A-25920_E_tif
  70
32
  10
225855.500
  20
4554042.793
  30
808.1
  0
VERTEX
  8
PNOA-H_AMS_1956-57_33k_ES_PAN_21mic_H50_0450_fot_52A-25920_E_tif
  70
32
  10
225856.500
  20
4554030.293
  30
808.3
  0
VERTEX
  8
PNOA-H_AMS_1956-57_33k_ES_PAN_21mic_H50_0450_fot_52A-25920_E_tif
  70
32
  10
225882.000
  20
4551828.293
  30
833.08
  0
VERTEX
  8
PNOA-H_AMS_1956-57_33k_ES_PAN_21mic_H50_0450_fot_52A-25920_E_tif
  70
32
  10
225832.000
  20
4550716.293
  30
809
  0
VERTEX
  8
PNOA-H_AMS_1956-57_33k_ES_PAN_21mic_H50_0450_fot_52A-25920_E_tif
  70
32
  10
225547.500
  20
4550580.293
  30
809.6
  0
VERTEX
  8
PNOA-H_AMS_1956-57_33k_ES_PAN_21mic_H50_0450_fot_52A-25920_E_tif
  70
32
  10
225539.000
  20
4550576.293
  30
809
  0
VERTEX
  8
PNOA-H_AMS_1956-57_33k_ES_PAN_21mic_H50_0450_fot_52A-25920_E_tif
  70
32
  10
225534.500
  20
4550576.293
  30
809
  0
VERTEX
  8
PNOA-H_AMS_1956-57_33k_ES_PAN_21mic_H50_0450_fot_52A-25920_E_tif
  70
32
  10
223014.500
  20
4550862.293
  30
793
  0
VERTEX
  8
PNOA-H_AMS_1956-57_33k_ES_PAN_21mic_H50_0450_fot_52A-25920_E_tif
  70
32
  10
223013.500
  20
4550864.293
  30
793
  0
VERTEX
  8
PNOA-H_AMS_1956-57_33k_ES_PAN_21mic_H50_0450_fot_52A-25920_E_tif
  70
32
  10
223054.000
  20
4551856.293
  30
782
  0
VERTEX
  8
PNOA-H_AMS_1956-57_33k_ES_PAN_21mic_H50_0450_fot_52A-25920_E_tif
  70
32
  10
225855.000
  20
4554041.793
  30
808
  0
VERTEX
  8
PNOA-H_AMS_1956-57_33k_ES_PAN_21mic_H50_0450_fot_52A-25920_E_tif
  70
32
  10
225855.500
  20
4554042.793
  30
808.1
  0
SEQEND
  8
PNOA-H_AMS_1956-57_33k_ES_PAN_21mic_H50_0450_fot_52A-25920_E_tif
  0
TEXT
  8
PNOA-H_AMS_1956-57_33k_ES_PAN_21mic_H50_0450_fot_52A-25920_E_tif
 62
0
  1
PNOA-H_AMS_1956-57_33k_ES_PAN_21mic_H50_0450_fot_52A-25920_E.tif
 40
41.71242
  10
224755.663
  20
4552309.543
  0
POLYLINE
  8
PNOA-H_AMS_1956-57_33k_ES_PAN_21mic_H50_0450_fot_52A-25919_E_tif
  70
9
  66
1
  0
VERTEX
  8
PNOA-H_AMS_1956-57_33k_ES_PAN_21mic_H50_0450_fot_52A-25919_E_tif
  70
32
  10
223025.500
  20
4551157.793
  30
789
  0
VERTEX
  8
PNOA-H_AMS_1956-57_33k_ES_PAN_21mic_H50_0450_fot_52A-25919_E_tif
  70
32
  10
223013.500
  20
4550862.293
  30
793
  0
VERTEX
  8
PNOA-H_AMS_1956-57_33k_ES_PAN_21mic_H50_0450_fot_52A-25919_E_tif
  70
32
  10
222833.500
  20
4550768.793
  30
793
  0
VERTEX
  8
PNOA-H_AMS_1956-57_33k_ES_PAN_21mic_H50_0450_fot_52A-25919_E_tif
  70
32
  10
220666.500
  20
4550933.293
  30
815.7
  0
VERTEX
  8
PNOA-H_AMS_1956-57_33k_ES_PAN_21mic_H50_0450_fot_52A-25919_E_tif
  70
32
  10
221028.500
  20
4555097.293
  30
770
  0
VERTEX
  8
PNOA-H_AMS_1956-57_33k_ES_PAN_21mic_H50_0450_fot_52A-25919_E_tif
  70
32
  10
221480.000
  20
4555256.293
  30
771
  0
VERTEX
  8
PNOA-H_AMS_1956-57_33k_ES_PAN_21mic_H50_0450_fot_52A-25919_E_tif
  70
32
  10
223061.500
  20
4554731.793
  30
775
  0
VERTEX
  8
PNOA-H_AMS_1956-57_33k_ES_PAN_21mic_H50_0450_fot_52A-25919_E_tif
  70
32
  10
223054.500
  20
4551883.793
  30
782
  0
VERTEX
  8
PNOA-H_AMS_1956-57_33k_ES_PAN_21mic_H50_0450_fot_52A-25919_E_tif
  70
32
  10
223054.000
  20
4551845.793
  30
782
  0
VERTEX
  8
PNOA-H_AMS_1956-57_33k_ES_PAN_21mic_H50_0450_fot_52A-25919_E_tif
  70
32
  10
223025.500
  20
4551158.793
  30
789
  0
VERTEX
  8
PNOA-H_AMS_1956-57_33k_ES_PAN_21mic_H50_0450_fot_52A-25919_E_tif
  70
32
  10
223025.500
  20
4551157.793
  30
789
  0
SEQEND
  8
PNOA-H_AMS_1956-57_33k_ES_PAN_21mic_H50_0450_fot_52A-25919_E_tif
  0
TEXT
  8
PNOA-H_AMS_1956-57_33k_ES_PAN_21mic_H50_0450_fot_52A-25919_E_tif
 62
0
  1
PNOA-H_AMS_1956-57_33k_ES_PAN_21mic_H50_0450_fot_52A-25919_E.tif
 40
41.71242
  10
221952.268
  20
4553012.543
  0
POLYLINE
  8
PNOA-H_AMS_1956-57_33k_ES_PAN_21mic_H50_0450_fot_52B-10282_W_tif
  70
9
  66
1
  0
VERTEX
  8
PNOA-H_AMS_1956-57_33k_ES_PAN_21mic_H50_0450_fot_52B-10282_W_tif
  70
32
  10
224239.500
  20
4555170.793
  30
790
  0
VERTEX
  8
PNOA-H_AMS_1956-57_33k_ES_PAN_21mic_H50_0450_fot_52B-10282_W_tif
  70
32
  10
225872.000
  20
4554620.793
  30
799
  0
VERTEX
  8
PNOA-H_AMS_1956-57_33k_ES_PAN_21mic_H50_0450_fot_52B-10282_W_tif
  70
32
  10
225856.000
  20
4554042.793
  30
808.2
  0
VERTEX
  8
PNOA-H_AMS_1956-57_33k_ES_PAN_21mic_H50_0450_fot_52B-10282_W_tif
  70
32
  10
223055.500
  20
4551856.793
  30
782
  0
VERTEX
  8
PNOA-H_AMS_1956-57_33k_ES_PAN_21mic_H50_0450_fot_52B-10282_W_tif
  70
32
  10
223054.000
  20
4551856.293
  30
782
  0
VERTEX
  8
PNOA-H_AMS_1956-57_33k_ES_PAN_21mic_H50_0450_fot_52B-10282_W_tif
  70
32
  10
223054.000
  20
4551883.793
  30
782
  0
VERTEX
  8
PNOA-H_AMS_1956-57_33k_ES_PAN_21mic_H50_0450_fot_52B-10282_W_tif
  70
32
  10
223061.500
  20
4554731.793
  30
775
  0
VERTEX
  8
PNOA-H_AMS_1956-57_33k_ES_PAN_21mic_H50_0450_fot_52B-10282_W_tif
  70
32
  10
224238.500
  20
4555170.293
  30
790
  0
VERTEX
  8
PNOA-H_AMS_1956-57_33k_ES_PAN_21mic_H50_0450_fot_52B-10282_W_tif
  70
32
  10
224239.500
  20
4555170.793
  30
790
  0
SEQEND
  8
PNOA-H_AMS_1956-57_33k_ES_PAN_21mic_H50_0450_fot_52B-10282_W_tif
  0
TEXT
  8
PNOA-H_AMS_1956-57_33k_ES_PAN_21mic_H50_0450_fot_52B-10282_W_tif
 62
0
  1
PNOA-H_AMS_1956-57_33k_ES_PAN_21mic_H50_0450_fot_52B-10282_W.tif
 40
41.71242
  10
224118.133
  20
4553513.543
  0
POLYLINE
  8
PNOA-H_AMS_1956-57_33k_ES_PAN_21mic_H50_0450_fot_52B-10283_W_tif
  70
9
  66
1
  0
VERTEX
  8
PNOA-H_AMS_1956-57_33k_ES_PAN_21mic_H50_0450_fot_52B-10283_W_tif
  70
32
  10
220570.500
  20
4555122.293
  30
773
  0
VERTEX
  8
PNOA-H_AMS_1956-57_33k_ES_PAN_21mic_H50_0450_fot_52B-10283_W_tif
  70
32
  10
221028.500
  20
4555097.293
  30
770
  0
VERTEX
  8
PNOA-H_AMS_1956-57_33k_ES_PAN_21mic_H50_0450_fot_52B-10283_W_tif
  70
32
  10
220667.000
  20
4550933.793
  30
815.6
  0
VERTEX
  8
PNOA-H_AMS_1956-57_33k_ES_PAN_21mic_H50_0450_fot_52B-10283_W_tif
  70
32
  10
220128.500
  20
4550772.793
  30
793.07
  0
VERTEX
  8
PNOA-H_AMS_1956-57_33k_ES_PAN_21mic_H50_0450_fot_52B-10283_W_tif
  70
32
  10
219691.500
  20
4550915.293
  30
783.18
  0
VERTEX
  8
PNOA-H_AMS_1956-57_33k_ES_PAN_21mic_H50_0450_fot_52B-10283_W_tif
  70
32
  10
219315.500
  20
4555190.793
  30
781
  0
VERTEX
  8
PNOA-H_AMS_1956-57_33k_ES_PAN_21mic_H50_0450_fot_52B-10283_W_tif
  70
32
  10
220565.000
  20
4555122.293
  30
773
  0
VERTEX
  8
PNOA-H_AMS_1956-57_33k_ES_PAN_21mic_H50_0450_fot_52B-10283_W_tif
  70
32
  10
220570.500
  20
4555122.293
  30
773
  0
SEQEND
  8
PNOA-H_AMS_1956-57_33k_ES_PAN_21mic_H50_0450_fot_52B-10283_W_tif
  0
TEXT
  8
PNOA-H_AMS_1956-57_33k_ES_PAN_21mic_H50_0450_fot_52B-10283_W_tif
 62
0
  1
PNOA-H_AMS_1956-57_33k_ES_PAN_21mic_H50_0450_fot_52B-10283_W.tif
 40
41.71242
  10
220177.293
  20
4552981.793
  0
POLYLINE
  8
PNOA-H_AMS_1956-57_33k_ES_PAN_21mic_H50_0450_fot_53A-25882_W_tif
  70
9
  66
1
  0
VERTEX
  8
PNOA-H_AMS_1956-57_33k_ES_PAN_21mic_H50_0450_fot_53A-25882_W_tif
  70
32
  10
222618.000
  20
4547609.793
  30
806
  0
VERTEX
  8
PNOA-H_AMS_1956-57_33k_ES_PAN_21mic_H50_0450_fot_53A-25882_W_tif
  70
32
  10
222833.000
  20
4550768.793
  30
793
  0
VERTEX
  8
PNOA-H_AMS_1956-57_33k_ES_PAN_21mic_H50_0450_fot_53A-25882_W_tif
  70
32
  10
223014.500
  20
4550862.793
  30
793
  0
VERTEX
  8
PNOA-H_AMS_1956-57_33k_ES_PAN_21mic_H50_0450_fot_53A-25882_W_tif
  70
32
  10
225538.000
  20
4550576.293
  30
809
  0
VERTEX
  8
PNOA-H_AMS_1956-57_33k_ES_PAN_21mic_H50_0450_fot_53A-25882_W_tif
  70
32
  10
225192.500
  20
4546286.293
  30
815.9
  0
VERTEX
  8
PNOA-H_AMS_1956-57_33k_ES_PAN_21mic_H50_0450_fot_53A-25882_W_tif
  70
32
  10
225011.000
  20
4546195.793
  30
818
  0
VERTEX
  8
PNOA-H_AMS_1956-57_33k_ES_PAN_21mic_H50_0450_fot_53A-25882_W_tif
  70
32
  10
225006.500
  20
4546195.793
  30
818
  0
VERTEX
  8
PNOA-H_AMS_1956-57_33k_ES_PAN_21mic_H50_0450_fot_53A-25882_W_tif
  70
32
  10
222542.000
  20
4546486.793
  30
792.9
  0
VERTEX
  8
PNOA-H_AMS_1956-57_33k_ES_PAN_21mic_H50_0450_fot_53A-25882_W_tif
  70
32
  10
222618.000
  20
4547602.293
  30
806
  0
VERTEX
  8
PNOA-H_AMS_1956-57_33k_ES_PAN_21mic_H50_0450_fot_53A-25882_W_tif
  70
32
  10
222618.000
  20
4547609.793
  30
806
  0
SEQEND
  8
PNOA-H_AMS_1956-57_33k_ES_PAN_21mic_H50_0450_fot_53A-25882_W_tif
  0
TEXT
  8
PNOA-H_AMS_1956-57_33k_ES_PAN_21mic_H50_0450_fot_53A-25882_W_tif
 62
0
  1
PNOA-H_AMS_1956-57_33k_ES_PAN_21mic_H50_0450_fot_53A-25882_W.tif
 40
41.71242
  10
224026.862
  20
4548529.293
  0
POLYLINE
  8
PNOA-H_AMS_1956-57_33k_ES_PAN_21mic_H50_0450_fot_53A-25883_W_tif
  70
9
  66
1
  0
VERTEX
  8
PNOA-H_AMS_1956-57_33k_ES_PAN_21mic_H50_0450_fot_53A-25883_W_tif
  70
32
  10
220569.500
  20
4550904.793
  30
816
  0
VERTEX
  8
PNOA-H_AMS_1956-57_33k_ES_PAN_21mic_H50_0450_fot_53A-25883_W_tif
  70
32
  10
220663.500
  20
4550932.793
  30
816
  0
VERTEX
  8
PNOA-H_AMS_1956-57_33k_ES_PAN_21mic_H50_0450_fot_53A-25883_W_tif
  70
32
  10
220672.000
  20
4550933.293
  30
815
  0
VERTEX
  8
PNOA-H_AMS_1956-57_33k_ES_PAN_21mic_H50_0450_fot_53A-25883_W_tif
  70
32
  10
222833.000
  20
4550768.793
  30
793
  0
VERTEX
  8
PNOA-H_AMS_1956-57_33k_ES_PAN_21mic_H50_0450_fot_53A-25883_W_tif
  70
32
  10
222542.000
  20
4546486.793
  30
792.9
  0
VERTEX
  8
PNOA-H_AMS_1956-57_33k_ES_PAN_21mic_H50_0450_fot_53A-25883_W_tif
  70
32
  10
222184.500
  20
4546318.293
  30
793
  0
VERTEX
  8
PNOA-H_AMS_1956-57_33k_ES_PAN_21mic_H50_0450_fot_53A-25883_W_tif
  70
32
  10
219846.500
  20
4546657.293
  30
784
  0
VERTEX
  8
PNOA-H_AMS_1956-57_33k_ES_PAN_21mic_H50_0450_fot_53A-25883_W_tif
  70
32
  10
220127.500
  20
4550772.793
  30
793.05
  0
VERTEX
  8
PNOA-H_AMS_1956-57_33k_ES_PAN_21mic_H50_0450_fot_53A-25883_W_tif
  70
32
  10
220568.000
  20
4550904.293
  30
816
  0
VERTEX
  8
PNOA-H_AMS_1956-57_33k_ES_PAN_21mic_H50_0450_fot_53A-25883_W_tif
  70
32
  10
220569.500
  20
4550904.793
  30
816
  0
SEQEND
  8
PNOA-H_AMS_1956-57_33k_ES_PAN_21mic_H50_0450_fot_53A-25883_W_tif
  0
TEXT
  8
PNOA-H_AMS_1956-57_33k_ES_PAN_21mic_H50_0450_fot_53A-25883_W_tif
 62
0
  1
PNOA-H_AMS_1956-57_33k_ES_PAN_21mic_H50_0450_fot_53A-25883_W.tif
 40
41.71242
  10
221334.135
  20
4548625.793
  0
POLYLINE
  8
PNOA-H_AMS_1956-57_33k_ES_PAN_21mic_H50_0450_fot_54A-29166_W_tif
  70
9
  66
1
  0
VERTEX
  8
PNOA-H_AMS_1956-57_33k_ES_PAN_21mic_H50_0450_fot_54A-29166_W_tif
  70
32
  10
227638.582
  20
4543809.563
  30
819.549
  0
VERTEX
  8
PNOA-H_AMS_1956-57_33k_ES_PAN_21mic_H50_0450_fot_54A-29166_W_tif
  70
32
  10
224896.853
  20
4543911.703
  30
806.696
  0
VERTEX
  8
PNOA-H_AMS_1956-57_33k_ES_PAN_21mic_H50_0450_fot_54A-29166_W_tif
  70
32
  10
224880.233
  20
4543912.330
  30
806.695
  0
VERTEX
  8
PNOA-H_AMS_1956-57_33k_ES_PAN_21mic_H50_0450_fot_54A-29166_W_tif
  70
32
  10
225010.000
  20
4546195.793
  30
818
  0
VERTEX
  8
PNOA-H_AMS_1956-57_33k_ES_PAN_21mic_H50_0450_fot_54A-29166_W_tif
  70
32
  10
225191.500
  20
4546286.293
  30
815.94
  0
VERTEX
  8
PNOA-H_AMS_1956-57_33k_ES_PAN_21mic_H50_0450_fot_54A-29166_W_tif
  70
32
  10
225197.500
  20
4546286.293
  30
815.4
  0
VERTEX
  8
PNOA-H_AMS_1956-57_33k_ES_PAN_21mic_H50_0450_fot_54A-29166_W_tif
  70
32
  10
226710.500
  20
4546133.793
  30
825.97
  0
VERTEX
  8
PNOA-H_AMS_1956-57_33k_ES_PAN_21mic_H50_0450_fot_54A-29166_W_tif
  70
32
  10
226714.500
  20
4546133.793
  30
825.73
  0
VERTEX
  8
PNOA-H_AMS_1956-57_33k_ES_PAN_21mic_H50_0450_fot_54A-29166_W_tif
  70
32
  10
227730.500
  20
4546031.793
  30
821
  0
SEQEND
  8
PNOA-H_AMS_1956-57_33k_ES_PAN_21mic_H50_0450_fot_54A-29166_W_tif
  0
TEXT
  8
PNOA-H_AMS_1956-57_33k_ES_PAN_21mic_H50_0450_fot_54A-29166_W_tif
 62
0
  1
PNOA-H_AMS_1956-57_33k_ES_PAN_21mic_H50_0450_fot_54A-29166_W.tif
 40
41.71242
  10
226305.366
  20
4545047.928
  0
POLYLINE
  8
PNOA-H_AMS_1956-57_33k_ES_PAN_21mic_H50_0450_fot_54A-29168_W_tif
  70
9
  66
1
  0
VERTEX
  8
PNOA-H_AMS_1956-57_33k_ES_PAN_21mic_H50_0450_fot_54A-29168_W_tif
  70
32
  10
222098.676
  20
4544017.286
  30
820.363
  0
VERTEX
  8
PNOA-H_AMS_1956-57_33k_ES_PAN_21mic_H50_0450_fot_54A-29168_W_tif
  70
32
  10
221391.809
  20
4544043.958
  30
820.358
  0
VERTEX
  8
PNOA-H_AMS_1956-57_33k_ES_PAN_21mic_H50_0450_fot_54A-29168_W_tif
  70
32
  10
219261.760
  20
4544125.350
  30
808.494
  0
VERTEX
  8
PNOA-H_AMS_1956-57_33k_ES_PAN_21mic_H50_0450_fot_54A-29168_W_tif
  70
32
  10
219304.000
  20
4546414.793
  30
785
  0
VERTEX
  8
PNOA-H_AMS_1956-57_33k_ES_PAN_21mic_H50_0450_fot_54A-29168_W_tif
  70
32
  10
219845.500
  20
4546657.293
  30
784
  0
VERTEX
  8
PNOA-H_AMS_1956-57_33k_ES_PAN_21mic_H50_0450_fot_54A-29168_W_tif
  70
32
  10
220569.500
  20
4546552.293
  30
786
  0
VERTEX
  8
PNOA-H_AMS_1956-57_33k_ES_PAN_21mic_H50_0450_fot_54A-29168_W_tif
  70
32
  10
220570.500
  20
4546552.293
  30
786
  0
VERTEX
  8
PNOA-H_AMS_1956-57_33k_ES_PAN_21mic_H50_0450_fot_54A-29168_W_tif
  70
32
  10
222184.000
  20
4546318.293
  30
793
  0
SEQEND
  8
PNOA-H_AMS_1956-57_33k_ES_PAN_21mic_H50_0450_fot_54A-29168_W_tif
  0
TEXT
  8
PNOA-H_AMS_1956-57_33k_ES_PAN_21mic_H50_0450_fot_54A-29168_W_tif
 62
0
  1
PNOA-H_AMS_1956-57_33k_ES_PAN_21mic_H50_0450_fot_54A-29168_W.tif
 40
41.71242
  10
220722.880
  20
4545337.290
  0
POLYLINE
  8
PNOA-H_AMS_1956-57_33k_ES_PAN_21mic_H50_0450_fot_54A-29167_W_tif
  70
9
  66
1
  0
VERTEX
  8
PNOA-H_AMS_1956-57_33k_ES_PAN_21mic_H50_0450_fot_54A-29167_W_tif
  70
32
  10
224880.233
  20
4543912.330
  30
806.695
  0
VERTEX
  8
PNOA-H_AMS_1956-57_33k_ES_PAN_21mic_H50_0450_fot_54A-29167_W_tif
  70
32
  10
222098.481
  20
4544017.293
  30
820.345
  0
VERTEX
  8
PNOA-H_AMS_1956-57_33k_ES_PAN_21mic_H50_0450_fot_54A-29167_W_tif
  70
32
  10
222183.500
  20
4546315.293
  30
793
  0
VERTEX
  8
PNOA-H_AMS_1956-57_33k_ES_PAN_21mic_H50_0450_fot_54A-29167_W_tif
  70
32
  10
222184.000
  20
4546318.293
  30
793
  0
VERTEX
  8
PNOA-H_AMS_1956-57_33k_ES_PAN_21mic_H50_0450_fot_54A-29167_W_tif
  70
32
  10
222188.500
  20
4546320.793
  30
793
  0
VERTEX
  8
PNOA-H_AMS_1956-57_33k_ES_PAN_21mic_H50_0450_fot_54A-29167_W_tif
  70
32
  10
222540.000
  20
4546486.293
  30
792.8
  0
VERTEX
  8
PNOA-H_AMS_1956-57_33k_ES_PAN_21mic_H50_0450_fot_54A-29167_W_tif
  70
32
  10
222541.000
  20
4546486.793
  30
792.9
  0
VERTEX
  8
PNOA-H_AMS_1956-57_33k_ES_PAN_21mic_H50_0450_fot_54A-29167_W_tif
  70
32
  10
225010.000
  20
4546195.793
  30
818
  0
SEQEND
  8
PNOA-H_AMS_1956-57_33k_ES_PAN_21mic_H50_0450_fot_54A-29167_W_tif
  0
TEXT
  8
PNOA-H_AMS_1956-57_33k_ES_PAN_21mic_H50_0450_fot_54A-29167_W_tif
 62
0
  1
PNOA-H_AMS_1956-57_33k_ES_PAN_21mic_H50_0450_fot_54A-29167_W.tif
 40
41.71242
  10
223554.240
  20
4545199.562
  0
POLYLINE
  8
PNOA-H_AMS_1956-57_33k_ES_PAN_21mic_H50_0450_fot_51A-08836_E_tif
  70
9
  66
1
  0
VERTEX
  8
PNOA-H_AMS_1956-57_33k_ES_PAN_21mic_H50_0450_fot_51A-08836_E_tif
  70
32
  10
228762.500
  20
4558841.293
  30
780
  0
VERTEX
  8
PNOA-H_AMS_1956-57_33k_ES_PAN_21mic_H50_0450_fot_51A-08836_E_tif
  70
32
  10
230050.000
  20
4558773.293
  30
806
  0
VERTEX
  8
PNOA-H_AMS_1956-57_33k_ES_PAN_21mic_H50_0450_fot_51A-08836_E_tif
  70
32
  10
230050.500
  20
4558771.793
  30
806
  0
VERTEX
  8
PNOA-H_AMS_1956-57_33k_ES_PAN_21mic_H50_0450_fot_51A-08836_E_tif
  70
32
  10
229944.000
  20
4554945.293
  30
821
  0
VERTEX
  8
PNOA-H_AMS_1956-57_33k_ES_PAN_21mic_H50_0450_fot_51A-08836_E_tif
  70
32
  10
228681.500
  20
4554504.793
  30
811
  0
VERTEX
  8
PNOA-H_AMS_1956-57_33k_ES_PAN_21mic_H50_0450_fot_51A-08836_E_tif
  70
32
  10
228654.500
  20
4554513.793
  30
812
  0
VERTEX
  8
PNOA-H_AMS_1956-57_33k_ES_PAN_21mic_H50_0450_fot_51A-08836_E_tif
  70
32
  10
227064.500
  20
4555095.293
  30
796
  0
VERTEX
  8
PNOA-H_AMS_1956-57_33k_ES_PAN_21mic_H50_0450_fot_51A-08836_E_tif
  70
32
  10
227063.500
  20
4555095.793
  30
796
  0
VERTEX
  8
PNOA-H_AMS_1956-57_33k_ES_PAN_21mic_H50_0450_fot_51A-08836_E_tif
  70
32
  10
227063.500
  20
4555103.293
  30
796
  0
VERTEX
  8
PNOA-H_AMS_1956-57_33k_ES_PAN_21mic_H50_0450_fot_51A-08836_E_tif
  70
32
  10
227233.000
  20
4558905.793
  30
802.28
  0
VERTEX
  8
PNOA-H_AMS_1956-57_33k_ES_PAN_21mic_H50_0450_fot_51A-08836_E_tif
  70
32
  10
227255.000
  20
4558919.793
  30
802
  0
VERTEX
  8
PNOA-H_AMS_1956-57_33k_ES_PAN_21mic_H50_0450_fot_51A-08836_E_tif
  70
32
  10
227260.000
  20
4558920.793
  30
802
  0
VERTEX
  8
PNOA-H_AMS_1956-57_33k_ES_PAN_21mic_H50_0450_fot_51A-08836_E_tif
  70
32
  10
228754.500
  20
4558841.293
  30
780
  0
VERTEX
  8
PNOA-H_AMS_1956-57_33k_ES_PAN_21mic_H50_0450_fot_51A-08836_E_tif
  70
32
  10
228762.500
  20
4558841.293
  30
780
  0
SEQEND
  8
PNOA-H_AMS_1956-57_33k_ES_PAN_21mic_H50_0450_fot_51A-08836_E_tif
  0
TEXT
  8
PNOA-H_AMS_1956-57_33k_ES_PAN_21mic_H50_0450_fot_51A-08836_E_tif
 62
0
  1
PNOA-H_AMS_1956-57_33k_ES_PAN_21mic_H50_0450_fot_51A-08836_E.tif
 40
41.71242
  10
228564.219
  20
4556712.793
  0
POLYLINE
  8
PNOA-H_AMS_1956-57_33k_ES_PAN_21mic_H50_0450_fot_51A-08837_E_tif
  70
9
  66
1
  0
VERTEX
  8
PNOA-H_AMS_1956-57_33k_ES_PAN_21mic_H50_0450_fot_51A-08837_E_tif
  70
32
  10
232456.671
  20
4558679.622
  30
799.208
  0
VERTEX
  8
PNOA-H_AMS_1956-57_33k_ES_PAN_21mic_H50_0450_fot_51A-08837_E_tif
  70
32
  10
232414.611
  20
4557531.540
  30
791.31
  0
VERTEX
  8
PNOA-H_AMS_1956-57_33k_ES_PAN_21mic_H50_0450_fot_51A-08837_E_tif
  70
32
  10
232329.900
  20
4555218.307
  30
777.359
  0
VERTEX
  8
PNOA-H_AMS_1956-57_33k_ES_PAN_21mic_H50_0450_fot_51A-08837_E_tif
  70
32
  10
232309.704
  20
4554666.587
  30
784.12
  0
VERTEX
  8
PNOA-H_AMS_1956-57_33k_ES_PAN_21mic_H50_0450_fot_51A-08837_E_tif
  70
32
  10
231486.500
  20
4554392.293
  30
801
  0
VERTEX
  8
PNOA-H_AMS_1956-57_33k_ES_PAN_21mic_H50_0450_fot_51A-08837_E_tif
  70
32
  10
230924.500
  20
4554562.293
  30
815.1
  0
VERTEX
  8
PNOA-H_AMS_1956-57_33k_ES_PAN_21mic_H50_0450_fot_51A-08837_E_tif
  70
32
  10
229944.000
  20
4554944.793
  30
821
  0
VERTEX
  8
PNOA-H_AMS_1956-57_33k_ES_PAN_21mic_H50_0450_fot_51A-08837_E_tif
  70
32
  10
230050.000
  20
4558771.793
  30
806
  0
VERTEX
  8
PNOA-H_AMS_1956-57_33k_ES_PAN_21mic_H50_0450_fot_51A-08837_E_tif
  70
32
  10
230051.000
  20
4558773.793
  30
806
  0
VERTEX
  8
PNOA-H_AMS_1956-57_33k_ES_PAN_21mic_H50_0450_fot_51A-08837_E_tif
  70
32
  10
230057.000
  20
4558777.293
  30
806
  0
VERTEX
  8
PNOA-H_AMS_1956-57_33k_ES_PAN_21mic_H50_0450_fot_51A-08837_E_tif
  70
32
  10
230229.000
  20
4558876.793
  30
806.08
  0
VERTEX
  8
PNOA-H_AMS_1956-57_33k_ES_PAN_21mic_H50_0450_fot_51A-08837_E_tif
  70
32
  10
230233.500
  20
4558878.293
  30
806
  0
SEQEND
  8
PNOA-H_AMS_1956-57_33k_ES_PAN_21mic_H50_0450_fot_51A-08837_E_tif
  0
TEXT
  8
PNOA-H_AMS_1956-57_33k_ES_PAN_21mic_H50_0450_fot_51A-08837_E_tif
 62
0
  1
PNOA-H_AMS_1956-57_33k_ES_PAN_21mic_H50_0450_fot_51A-08837_E.tif
 40
41.71242
  10
231398.434
  20
4556635.293
  0
POLYLINE
  8
PNOA-H_AMS_1956-57_33k_ES_PAN_21mic_H50_0450_fot_52A-25921_E_tif
  70
9
  66
1
  0
VERTEX
  8
PNOA-H_AMS_1956-57_33k_ES_PAN_21mic_H50_0450_fot_52A-25921_E_tif
  70
32
  10
228638.500
  20
4553861.793
  30
821
  0
VERTEX
  8
PNOA-H_AMS_1956-57_33k_ES_PAN_21mic_H50_0450_fot_52A-25921_E_tif
  70
32
  10
228616.000
  20
4550526.293
  30
839
  0
VERTEX
  8
PNOA-H_AMS_1956-57_33k_ES_PAN_21mic_H50_0450_fot_52A-25921_E_tif
  70
32
  10
228277.000
  20
4550372.793
  30
835
  0
VERTEX
  8
PNOA-H_AMS_1956-57_33k_ES_PAN_21mic_H50_0450_fot_52A-25921_E_tif
  70
32
  10
225832.000
  20
4550716.293
  30
809
  0
VERTEX
  8
PNOA-H_AMS_1956-57_33k_ES_PAN_21mic_H50_0450_fot_52A-25921_E_tif
  70
32
  10
225832.000
  20
4550718.293
  30
809
  0
VERTEX
  8
PNOA-H_AMS_1956-57_33k_ES_PAN_21mic_H50_0450_fot_52A-25921_E_tif
  70
32
  10
225882.000
  20
4551834.793
  30
833.7
  0
VERTEX
  8
PNOA-H_AMS_1956-57_33k_ES_PAN_21mic_H50_0450_fot_52A-25921_E_tif
  70
32
  10
228637.500
  20
4553861.293
  30
821
  0
VERTEX
  8
PNOA-H_AMS_1956-57_33k_ES_PAN_21mic_H50_0450_fot_52A-25921_E_tif
  70
32
  10
228638.500
  20
4553861.793
  30
821
  0
SEQEND
  8
PNOA-H_AMS_1956-57_33k_ES_PAN_21mic_H50_0450_fot_52A-25921_E_tif
  0
TEXT
  8
PNOA-H_AMS_1956-57_33k_ES_PAN_21mic_H50_0450_fot_52A-25921_E_tif
 62
0
  1
PNOA-H_AMS_1956-57_33k_ES_PAN_21mic_H50_0450_fot_52A-25921_E.tif
 40
41.71242
  10
227446.428
  20
4552117.293
  0
POLYLINE
  8
PNOA-H_AMS_1956-57_33k_ES_PAN_21mic_H50_0450_fot_52A-25922_E_tif
  70
9
  66
1
  0
VERTEX
  8
PNOA-H_AMS_1956-57_33k_ES_PAN_21mic_H50_0450_fot_52A-25922_E_tif
  70
32
  10
230925.000
  20
4554561.293
  30
815
  0
VERTEX
  8
PNOA-H_AMS_1956-57_33k_ES_PAN_21mic_H50_0450_fot_52A-25922_E_tif
  70
32
  10
230925.000
  20
4554562.293
  30
815
  0
VERTEX
  8
PNOA-H_AMS_1956-57_33k_ES_PAN_21mic_H50_0450_fot_52A-25922_E_tif
  70
32
  10
231487.000
  20
4554392.293
  30
801
  0
VERTEX
  8
PNOA-H_AMS_1956-57_33k_ES_PAN_21mic_H50_0450_fot_52A-25922_E_tif
  70
32
  10
231447.000
  20
4550333.293
  30
793.32
  0
VERTEX
  8
PNOA-H_AMS_1956-57_33k_ES_PAN_21mic_H50_0450_fot_52A-25922_E_tif
  70
32
  10
231021.000
  20
4550163.293
  30
800
  0
VERTEX
  8
PNOA-H_AMS_1956-57_33k_ES_PAN_21mic_H50_0450_fot_52A-25922_E_tif
  70
32
  10
231016.500
  20
4550163.293
  30
800.56
  0
VERTEX
  8
PNOA-H_AMS_1956-57_33k_ES_PAN_21mic_H50_0450_fot_52A-25922_E_tif
  70
32
  10
229055.000
  20
4550484.293
  30
848
  0
SEQEND
  8
PNOA-H_AMS_1956-57_33k_ES_PAN_21mic_H50_0450_fot_52A-25922_E_tif
  0
TEXT
  8
PNOA-H_AMS_1956-57_33k_ES_PAN_21mic_H50_0450_fot_52A-25922_E_tif
 62
0
  1
PNOA-H_AMS_1956-57_33k_ES_PAN_21mic_H50_0450_fot_52A-25922_E.tif
 40
41.71242
  10
230691.806
  20
4552362.793
  0
POLYLINE
  8
PNOA-H_AMS_1956-57_33k_ES_PAN_21mic_H50_0450_fot_52B-10281_W_tif
  70
9
  66
1
  0
VERTEX
  8
PNOA-H_AMS_1956-57_33k_ES_PAN_21mic_H50_0450_fot_52B-10281_W_tif
  70
32
  10
226714.000
  20
4554956.793
  30
795.08
  0
VERTEX
  8
PNOA-H_AMS_1956-57_33k_ES_PAN_21mic_H50_0450_fot_52B-10281_W_tif
  70
32
  10
227052.000
  20
4555091.793
  30
796
  0
VERTEX
  8
PNOA-H_AMS_1956-57_33k_ES_PAN_21mic_H50_0450_fot_52B-10281_W_tif
  70
32
  10
227064.500
  20
4555095.793
  30
796
  0
VERTEX
  8
PNOA-H_AMS_1956-57_33k_ES_PAN_21mic_H50_0450_fot_52B-10281_W_tif
  70
32
  10
228680.500
  20
4554504.793
  30
811
  0
VERTEX
  8
PNOA-H_AMS_1956-57_33k_ES_PAN_21mic_H50_0450_fot_52B-10281_W_tif
  70
32
  10
228639.000
  20
4553861.793
  30
821
  0
VERTEX
  8
PNOA-H_AMS_1956-57_33k_ES_PAN_21mic_H50_0450_fot_52B-10281_W_tif
  70
32
  10
225883.000
  20
4551834.793
  30
833.8
  0
VERTEX
  8
PNOA-H_AMS_1956-57_33k_ES_PAN_21mic_H50_0450_fot_52B-10281_W_tif
  70
32
  10
225882.000
  20
4551834.793
  30
833.7
  0
VERTEX
  8
PNOA-H_AMS_1956-57_33k_ES_PAN_21mic_H50_0450_fot_52B-10281_W_tif
  70
32
  10
225881.500
  20
4551856.793
  30
834.93
  0
VERTEX
  8
PNOA-H_AMS_1956-57_33k_ES_PAN_21mic_H50_0450_fot_52B-10281_W_tif
  70
32
  10
225856.000
  20
4554030.293
  30
808.2
  0
VERTEX
  8
PNOA-H_AMS_1956-57_33k_ES_PAN_21mic_H50_0450_fot_52B-10281_W_tif
  70
32
  10
225872.000
  20
4554620.793
  30
799
  0
VERTEX
  8
PNOA-H_AMS_1956-57_33k_ES_PAN_21mic_H50_0450_fot_52B-10281_W_tif
  70
32
  10
226712.500
  20
4554956.293
  30
795.1
  0
VERTEX
  8
PNOA-H_AMS_1956-57_33k_ES_PAN_21mic_H50_0450_fot_52B-10281_W_tif
  70
32
  10
226714.000
  20
4554956.793
  30
795.08
  0
SEQEND
  8
PNOA-H_AMS_1956-57_33k_ES_PAN_21mic_H50_0450_fot_52B-10281_W_tif
  0
TEXT
  8
PNOA-H_AMS_1956-57_33k_ES_PAN_21mic_H50_0450_fot_52B-10281_W_tif
 62
0
  1
PNOA-H_AMS_1956-57_33k_ES_PAN_21mic_H50_0450_fot_52B-10281_W.tif
 40
41.71242
  10
226981.265
  20
4553465.293
  0
POLYLINE
  8
PNOA-H_AMS_1956-57_33k_ES_PAN_21mic_H50_0450_fot_52B-10280_W_tif
  70
9
  66
1
  0
VERTEX
  8
PNOA-H_AMS_1956-57_33k_ES_PAN_21mic_H50_0450_fot_52B-10280_W_tif
  70
32
  10
228638.500
  20
4553850.293
  30
821.28
  0
VERTEX
  8
PNOA-H_AMS_1956-57_33k_ES_PAN_21mic_H50_0450_fot_52B-10280_W_tif
  70
32
  10
228680.500
  20
4554504.793
  30
811
  0
VERTEX
  8
PNOA-H_AMS_1956-57_33k_ES_PAN_21mic_H50_0450_fot_52B-10280_W_tif
  70
32
  10
229943.500
  20
4554945.293
  30
821
  0
VERTEX
  8
PNOA-H_AMS_1956-57_33k_ES_PAN_21mic_H50_0450_fot_52B-10280_W_tif
  70
32
  10
230809.000
  20
4554607.293
  30
819
  0
VERTEX
  8
PNOA-H_AMS_1956-57_33k_ES_PAN_21mic_H50_0450_fot_52B-10280_W_tif
  70
32
  10
230810.500
  20
4554606.793
  30
819
  0
VERTEX
  8
PNOA-H_AMS_1956-57_33k_ES_PAN_21mic_H50_0450_fot_52B-10280_W_tif
  70
32
  10
230921.000
  20
4554564.293
  30
815.8
  0
VERTEX
  8
PNOA-H_AMS_1956-57_33k_ES_PAN_21mic_H50_0450_fot_52B-10280_W_tif
  70
32
  10
230924.500
  20
4554562.793
  30
815.1
  0
VERTEX
  8
PNOA-H_AMS_1956-57_33k_ES_PAN_21mic_H50_0450_fot_52B-10280_W_tif
  70
32
  10
230925.000
  20
4554561.293
  30
815
  0
VERTEX
  8
PNOA-H_AMS_1956-57_33k_ES_PAN_21mic_H50_0450_fot_52B-10280_W_tif
  70
32
  10
229055.500
  20
4550484.793
  30
848
  0
VERTEX
  8
PNOA-H_AMS_1956-57_33k_ES_PAN_21mic_H50_0450_fot_52B-10280_W_tif
  70
32
  10
228616.500
  20
4550526.793
  30
839
  0
SEQEND
  8
PNOA-H_AMS_1956-57_33k_ES_PAN_21mic_H50_0450_fot_52B-10280_W_tif
  0
TEXT
  8
PNOA-H_AMS_1956-57_33k_ES_PAN_21mic_H50_0450_fot_52B-10280_W_tif
 62
0
  1
PNOA-H_AMS_1956-57_33k_ES_PAN_21mic_H50_0450_fot_52B-10280_W.tif
 40
41.71242
  10
229354.644
  20
4552715.043
  0
POLYLINE
  8
PNOA-H_AMS_1956-57_33k_ES_PAN_21mic_H50_0451_fot_52B-10279_W_tif
  70
9
  66
1
  0
VERTEX
  8
PNOA-H_AMS_1956-57_33k_ES_PAN_21mic_H50_0451_fot_52B-10279_W_tif
  70
32
  10
232309.706
  20
4554666.637
  30
784.117
  0
VERTEX
  8
PNOA-H_AMS_1956-57_33k_ES_PAN_21mic_H50_0451_fot_52B-10279_W_tif
  70
32
  10
232245.225
  20
4552905.080
  30
771.64
  0
VERTEX
  8
PNOA-H_AMS_1956-57_33k_ES_PAN_21mic_H50_0451_fot_52B-10279_W_tif
  70
32
  10
232169.031
  20
4550822.677
  30
786.657
  0
VERTEX
  8
PNOA-H_AMS_1956-57_33k_ES_PAN_21mic_H50_0451_fot_52B-10279_W_tif
  70
32
  10
231936.500
  20
4550273.793
  30
801
  0
VERTEX
  8
PNOA-H_AMS_1956-57_33k_ES_PAN_21mic_H50_0451_fot_52B-10279_W_tif
  70
32
  10
231447.000
  20
4550333.293
  30
793.32
  0
VERTEX
  8
PNOA-H_AMS_1956-57_33k_ES_PAN_21mic_H50_0451_fot_52B-10279_W_tif
  70
32
  10
231487.000
  20
4554392.293
  30
801
  0
SEQEND
  8
PNOA-H_AMS_1956-57_33k_ES_PAN_21mic_H50_0451_fot_52B-10279_W_tif
  0
TEXT
  8
PNOA-H_AMS_1956-57_33k_ES_PAN_21mic_H50_0451_fot_52B-10279_W_tif
 62
0
  1
PNOA-H_AMS_1956-57_33k_ES_PAN_21mic_H50_0451_fot_52B-10279_W.tif
 40
41.71242
  10
232184.016
  20
4552544.293
  0
POLYLINE
  8
PNOA-H_AMS_1956-57_33k_ES_PAN_21mic_H50_0450_fot_53A-25879_W_tif
  70
9
  66
1
  0
VERTEX
  8
PNOA-H_AMS_1956-57_33k_ES_PAN_21mic_H50_0450_fot_53A-25879_W_tif
  70
32
  10
232147.399
  20
4550231.344
  30
798.339
  0
VERTEX
  8
PNOA-H_AMS_1956-57_33k_ES_PAN_21mic_H50_0450_fot_53A-25879_W_tif
  70
32
  10
232075.981
  20
4548278.643
  30
839.401
  0
VERTEX
  8
PNOA-H_AMS_1956-57_33k_ES_PAN_21mic_H50_0450_fot_53A-25879_W_tif
  70
32
  10
231991.412
  20
4545965.433
  30
826.236
  0
VERTEX
  8
PNOA-H_AMS_1956-57_33k_ES_PAN_21mic_H50_0450_fot_53A-25879_W_tif
  70
32
  10
231985.363
  20
4545799.902
  30
826.2
  0
VERTEX
  8
PNOA-H_AMS_1956-57_33k_ES_PAN_21mic_H50_0450_fot_53A-25879_W_tif
  70
32
  10
230605.500
  20
4545910.793
  30
833
  0
VERTEX
  8
PNOA-H_AMS_1956-57_33k_ES_PAN_21mic_H50_0450_fot_53A-25879_W_tif
  70
32
  10
230810.000
  20
4548006.793
  30
848
  0
VERTEX
  8
PNOA-H_AMS_1956-57_33k_ES_PAN_21mic_H50_0450_fot_53A-25879_W_tif
  70
32
  10
230810.000
  20
4548012.293
  30
848
  0
VERTEX
  8
PNOA-H_AMS_1956-57_33k_ES_PAN_21mic_H50_0450_fot_53A-25879_W_tif
  70
32
  10
231019.500
  20
4550163.293
  30
800.08
  0
VERTEX
  8
PNOA-H_AMS_1956-57_33k_ES_PAN_21mic_H50_0450_fot_53A-25879_W_tif
  70
32
  10
231446.000
  20
4550333.293
  30
793.16
  0
VERTEX
  8
PNOA-H_AMS_1956-57_33k_ES_PAN_21mic_H50_0450_fot_53A-25879_W_tif
  70
32
  10
231450.000
  20
4550333.293
  30
793.8
  0
VERTEX
  8
PNOA-H_AMS_1956-57_33k_ES_PAN_21mic_H50_0450_fot_53A-25879_W_tif
  70
32
  10
231936.000
  20
4550273.793
  30
801
  0
SEQEND
  8
PNOA-H_AMS_1956-57_33k_ES_PAN_21mic_H50_0450_fot_53A-25879_W_tif
  0
TEXT
  8
PNOA-H_AMS_1956-57_33k_ES_PAN_21mic_H50_0450_fot_53A-25879_W_tif
 62
0
  1
PNOA-H_AMS_1956-57_33k_ES_PAN_21mic_H50_0450_fot_53A-25879_W.tif
 40
41.71242
  10
231376.450
  20
4548066.598
  0
POLYLINE
  8
PNOA-H_AMS_1956-57_33k_ES_PAN_21mic_H50_0450_fot_53A-25880_W_tif
  70
9
  66
1
  0
VERTEX
  8
PNOA-H_AMS_1956-57_33k_ES_PAN_21mic_H50_0450_fot_53A-25880_W_tif
  70
32
  10
228616.000
  20
4550526.793
  30
839
  0
VERTEX
  8
PNOA-H_AMS_1956-57_33k_ES_PAN_21mic_H50_0450_fot_53A-25880_W_tif
  70
32
  10
229057.000
  20
4550484.293
  30
848
  0
VERTEX
  8
PNOA-H_AMS_1956-57_33k_ES_PAN_21mic_H50_0450_fot_53A-25880_W_tif
  70
32
  10
231019.500
  20
4550163.293
  30
800.08
  0
VERTEX
  8
PNOA-H_AMS_1956-57_33k_ES_PAN_21mic_H50_0450_fot_53A-25880_W_tif
  70
32
  10
230606.000
  20
4545912.293
  30
833
  0
VERTEX
  8
PNOA-H_AMS_1956-57_33k_ES_PAN_21mic_H50_0450_fot_53A-25880_W_tif
  70
32
  10
230605.500
  20
4545910.293
  30
833
  0
VERTEX
  8
PNOA-H_AMS_1956-57_33k_ES_PAN_21mic_H50_0450_fot_53A-25880_W_tif
  70
32
  10
230489.000
  20
4545846.793
  30
833
  0
VERTEX
  8
PNOA-H_AMS_1956-57_33k_ES_PAN_21mic_H50_0450_fot_53A-25880_W_tif
  70
32
  10
230485.000
  20
4545844.793
  30
833
  0
VERTEX
  8
PNOA-H_AMS_1956-57_33k_ES_PAN_21mic_H50_0450_fot_53A-25880_W_tif
  70
32
  10
230481.000
  20
4545844.793
  30
833
  0
VERTEX
  8
PNOA-H_AMS_1956-57_33k_ES_PAN_21mic_H50_0450_fot_53A-25880_W_tif
  70
32
  10
227914.000
  20
4546126.793
  30
824
  0
VERTEX
  8
PNOA-H_AMS_1956-57_33k_ES_PAN_21mic_H50_0450_fot_53A-25880_W_tif
  70
32
  10
228277.000
  20
4550372.793
  30
835
  0
VERTEX
  8
PNOA-H_AMS_1956-57_33k_ES_PAN_21mic_H50_0450_fot_53A-25880_W_tif
  70
32
  10
228615.000
  20
4550526.293
  30
839
  0
VERTEX
  8
PNOA-H_AMS_1956-57_33k_ES_PAN_21mic_H50_0450_fot_53A-25880_W_tif
  70
32
  10
228616.000
  20
4550526.793
  30
839
  0
SEQEND
  8
PNOA-H_AMS_1956-57_33k_ES_PAN_21mic_H50_0450_fot_53A-25880_W_tif
  0
TEXT
  8
PNOA-H_AMS_1956-57_33k_ES_PAN_21mic_H50_0450_fot_53A-25880_W_tif
 62
0
  1
PNOA-H_AMS_1956-57_33k_ES_PAN_21mic_H50_0450_fot_53A-25880_W.tif
 40
41.71242
  10
229458.587
  20
4548185.793
  0
POLYLINE
  8
PNOA-H_AMS_1956-57_33k_ES_PAN_21mic_H50_0450_fot_53A-25881_W_tif
  70
9
  66
1
  0
VERTEX
  8
PNOA-H_AMS_1956-57_33k_ES_PAN_21mic_H50_0450_fot_53A-25881_W_tif
  70
32
  10
226714.500
  20
4550592.293
  30
815
  0
VERTEX
  8
PNOA-H_AMS_1956-57_33k_ES_PAN_21mic_H50_0450_fot_53A-25881_W_tif
  70
32
  10
228277.000
  20
4550373.293
  30
835
  0
VERTEX
  8
PNOA-H_AMS_1956-57_33k_ES_PAN_21mic_H50_0450_fot_53A-25881_W_tif
  70
32
  10
227914.000
  20
4546126.793
  30
824
  0
VERTEX
  8
PNOA-H_AMS_1956-57_33k_ES_PAN_21mic_H50_0450_fot_53A-25881_W_tif
  70
32
  10
227742.000
  20
4546037.293
  30
821.4
  0
VERTEX
  8
PNOA-H_AMS_1956-57_33k_ES_PAN_21mic_H50_0450_fot_53A-25881_W_tif
  70
32
  10
227731.000
  20
4546031.793
  30
821
  0
VERTEX
  8
PNOA-H_AMS_1956-57_33k_ES_PAN_21mic_H50_0450_fot_53A-25881_W_tif
  70
32
  10
227725.500
  20
4546031.793
  30
821
  0
VERTEX
  8
PNOA-H_AMS_1956-57_33k_ES_PAN_21mic_H50_0450_fot_53A-25881_W_tif
  70
32
  10
225192.500
  20
4546286.293
  30
815.9
  0
VERTEX
  8
PNOA-H_AMS_1956-57_33k_ES_PAN_21mic_H50_0450_fot_53A-25881_W_tif
  70
32
  10
225538.000
  20
4550576.293
  30
809
  0
VERTEX
  8
PNOA-H_AMS_1956-57_33k_ES_PAN_21mic_H50_0450_fot_53A-25881_W_tif
  70
32
  10
225831.000
  20
4550716.293
  30
809
  0
VERTEX
  8
PNOA-H_AMS_1956-57_33k_ES_PAN_21mic_H50_0450_fot_53A-25881_W_tif
  70
32
  10
226711.000
  20
4550592.793
  30
815
  0
VERTEX
  8
PNOA-H_AMS_1956-57_33k_ES_PAN_21mic_H50_0450_fot_53A-25881_W_tif
  70
32
  10
226714.500
  20
4550592.293
  30
815
  0
SEQEND
  8
PNOA-H_AMS_1956-57_33k_ES_PAN_21mic_H50_0450_fot_53A-25881_W_tif
  0
TEXT
  8
PNOA-H_AMS_1956-57_33k_ES_PAN_21mic_H50_0450_fot_53A-25881_W_tif
 62
0
  1
PNOA-H_AMS_1956-57_33k_ES_PAN_21mic_H50_0450_fot_53A-25881_W.tif
 40
41.71242
  10
226733.370
  20
4548374.043
  0
POLYLINE
  8
PNOA-H_AMS_1956-57_33k_ES_PAN_21mic_H50_0450_fot_52A-25923_E_tif
  70
9
  66
1
  0
VERTEX
  8
PNOA-H_AMS_1956-57_33k_ES_PAN_21mic_H50_0450_fot_52A-25923_E_tif
  70
32
  10
232169.025
  20
4550822.519
  30
796.134
  0
VERTEX
  8
PNOA-H_AMS_1956-57_33k_ES_PAN_21mic_H50_0450_fot_52A-25923_E_tif
  70
32
  10
232160.585
  20
4550591.859
  30
797.893
  0
VERTEX
  8
PNOA-H_AMS_1956-57_33k_ES_PAN_21mic_H50_0450_fot_52A-25923_E_tif
  70
32
  10
232147.381
  20
4550230.848
  30
798.336
  0
VERTEX
  8
PNOA-H_AMS_1956-57_33k_ES_PAN_21mic_H50_0450_fot_52A-25923_E_tif
  70
32
  10
231936.000
  20
4550273.293
  30
801
  0
SEQEND
  8
PNOA-H_AMS_1956-57_33k_ES_PAN_21mic_H50_0450_fot_52A-25923_E_tif
  0
TEXT
  8
PNOA-H_AMS_1956-57_33k_ES_PAN_21mic_H50_0450_fot_52A-25923_E_tif
 62
0
  1
PNOA-H_AMS_1956-57_33k_ES_PAN_21mic_H50_0450_fot_52A-25923_E.tif
 40
41.71242
  10
232052.512
  20
4550526.683
  0
POLYLINE
  8
PNOA-H_AMS_1956-57_33k_ES_PAN_21mic_H50_0450_fot_54A-29164_W_tif
  70
9
  66
1
  0
VERTEX
  8
PNOA-H_AMS_1956-57_33k_ES_PAN_21mic_H50_0450_fot_54A-29164_W_tif
  70
32
  10
231985.365
  20
4545799.965
  30
826.204
  0
VERTEX
  8
PNOA-H_AMS_1956-57_33k_ES_PAN_21mic_H50_0450_fot_54A-29164_W_tif
  70
32
  10
231906.879
  20
4543652.229
  30
811.364
  0
VERTEX
  8
PNOA-H_AMS_1956-57_33k_ES_PAN_21mic_H50_0450_fot_54A-29164_W_tif
  70
32
  10
230407.140
  20
4543707.383
  30
821.471
  0
VERTEX
  8
PNOA-H_AMS_1956-57_33k_ES_PAN_21mic_H50_0450_fot_54A-29164_W_tif
  70
32
  10
230484.000
  20
4545839.293
  30
833
  0
VERTEX
  8
PNOA-H_AMS_1956-57_33k_ES_PAN_21mic_H50_0450_fot_54A-29164_W_tif
  70
32
  10
230485.000
  20
4545845.293
  30
833
  0
VERTEX
  8
PNOA-H_AMS_1956-57_33k_ES_PAN_21mic_H50_0450_fot_54A-29164_W_tif
  70
32
  10
230604.500
  20
4545910.293
  30
833
  0
VERTEX
  8
PNOA-H_AMS_1956-57_33k_ES_PAN_21mic_H50_0450_fot_54A-29164_W_tif
  70
32
  10
230605.500
  20
4545910.793
  30
833
  0
SEQEND
  8
PNOA-H_AMS_1956-57_33k_ES_PAN_21mic_H50_0450_fot_54A-29164_W_tif
  0
TEXT
  8
PNOA-H_AMS_1956-57_33k_ES_PAN_21mic_H50_0450_fot_54A-29164_W_tif
 62
0
  1
PNOA-H_AMS_1956-57_33k_ES_PAN_21mic_H50_0450_fot_54A-29164_W.tif
 40
41.71242
  10
231196.253
  20
4544781.511
  0
POLYLINE
  8
PNOA-H_AMS_1956-57_33k_ES_PAN_21mic_H50_0450_fot_54A-29165_W_tif
  70
9
  66
1
  0
VERTEX
  8
PNOA-H_AMS_1956-57_33k_ES_PAN_21mic_H50_0450_fot_54A-29165_W_tif
  70
32
  10
230407.296
  20
4543707.377
  30
821.456
  0
VERTEX
  8
PNOA-H_AMS_1956-57_33k_ES_PAN_21mic_H50_0450_fot_54A-29165_W_tif
  70
32
  10
228401.876
  20
4543781.127
  30
819.551
  0
VERTEX
  8
PNOA-H_AMS_1956-57_33k_ES_PAN_21mic_H50_0450_fot_54A-29165_W_tif
  70
32
  10
227638.346
  20
4543809.572
  30
819.549
  0
VERTEX
  8
PNOA-H_AMS_1956-57_33k_ES_PAN_21mic_H50_0450_fot_54A-29165_W_tif
  70
32
  10
227730.000
  20
4546030.793
  30
821
  0
VERTEX
  8
PNOA-H_AMS_1956-57_33k_ES_PAN_21mic_H50_0450_fot_54A-29165_W_tif
  70
32
  10
227731.000
  20
4546032.293
  30
821
  0
VERTEX
  8
PNOA-H_AMS_1956-57_33k_ES_PAN_21mic_H50_0450_fot_54A-29165_W_tif
  70
32
  10
227913.000
  20
4546126.793
  30
824
  0
VERTEX
  8
PNOA-H_AMS_1956-57_33k_ES_PAN_21mic_H50_0450_fot_54A-29165_W_tif
  70
32
  10
228760.500
  20
4546033.793
  30
823
  0
VERTEX
  8
PNOA-H_AMS_1956-57_33k_ES_PAN_21mic_H50_0450_fot_54A-29165_W_tif
  70
32
  10
228762.500
  20
4546033.793
  30
823
  0
VERTEX
  8
PNOA-H_AMS_1956-57_33k_ES_PAN_21mic_H50_0450_fot_54A-29165_W_tif
  70
32
  10
230484.500
  20
4545844.793
  30
833
  0
SEQEND
  8
PNOA-H_AMS_1956-57_33k_ES_PAN_21mic_H50_0450_fot_54A-29165_W_tif
  0
TEXT
  8
PNOA-H_AMS_1956-57_33k_ES_PAN_21mic_H50_0450_fot_54A-29165_W_tif
 62
0
  1
PNOA-H_AMS_1956-57_33k_ES_PAN_21mic_H50_0450_fot_54A-29165_W.tif
 40
41.71242
  10
229061.423
  20
4544917.085
  0
ENDSEC
  0
EOF
