  0
SECTION
  2
HEADER
  9
$ACADVER
  1
AC1009
  9
$LUNITS
  70
2
  9
$LIMMIN
  10
175824.273
  20
4544730.415
  9
$LIMMAX
  10
204614.566
  20
4564423.697
  9
$EXTMIN
  10
175824.273
  20
4544730.415
  9
$EXTMAX
  10
204614.566
  20
4564423.697
  999
Created by Global Mapper
  999
Projection: UTM
  999
Datum: ETRS89
  999
Ground Units: meters
  999
ZONE: 30
  0
ENDSEC
  0
SECTION
  2
TABLES
  0
ENDSEC
  0
SECTION
  2
BLOCKS
  0
ENDSEC
  0
SECTION
  2
ENTITIES
  0
POLYLINE
  8
PNOA-H_AMS_1956-57_33k_ES_PAN_21mic_H50_0449_fot_50A-08772_E_tif
  70
9
  66
1
  0
VERTEX
  8
PNOA-H_AMS_1956-57_33k_ES_PAN_21mic_H50_0449_fot_50A-08772_E_tif
  70
32
  10
191231.615
  20
4563791.524
  30
691.359
  0
VERTEX
  8
PNOA-H_AMS_1956-57_33k_ES_PAN_21mic_H50_0449_fot_50A-08772_E_tif
  70
32
  10
191123.500
  20
4560675.793
  30
668.51
  0
VERTEX
  8
PNOA-H_AMS_1956-57_33k_ES_PAN_21mic_H50_0449_fot_50A-08772_E_tif
  70
32
  10
190327.000
  20
4560335.293
  30
672.76
  0
VERTEX
  8
PNOA-H_AMS_1956-57_33k_ES_PAN_21mic_H50_0449_fot_50A-08772_E_tif
  70
32
  10
188164.500
  20
4560784.793
  30
631.55
  0
VERTEX
  8
PNOA-H_AMS_1956-57_33k_ES_PAN_21mic_H50_0449_fot_50A-08772_E_tif
  70
32
  10
188209.580
  20
4563920.165
  30
619.397
  0
VERTEX
  8
PNOA-H_AMS_1956-57_33k_ES_PAN_21mic_H50_0449_fot_50A-08772_E_tif
  70
32
  10
190629.285
  20
4563816.932
  30
691.392
  0
SEQEND
  8
PNOA-H_AMS_1956-57_33k_ES_PAN_21mic_H50_0449_fot_50A-08772_E_tif
  0
TEXT
  8
PNOA-H_AMS_1956-57_33k_ES_PAN_21mic_H50_0449_fot_50A-08772_E_tif
 62
0
  1
PNOA-H_AMS_1956-57_33k_ES_PAN_21mic_H50_0449_fot_50A-08772_E.tif
 40
41.85758
  10
189695.343
  20
4562800.043
  0
POLYLINE
  8
PNOA-H_AMS_1956-57_33k_ES_PAN_21mic_H50_0449_fot_50A-08771_E_tif
  70
9
  66
1
  0
VERTEX
  8
PNOA-H_AMS_1956-57_33k_ES_PAN_21mic_H50_0449_fot_50A-08771_E_tif
  70
32
  10
188209.428
  20
4563920.172
  30
623.909
  0
VERTEX
  8
PNOA-H_AMS_1956-57_33k_ES_PAN_21mic_H50_0449_fot_50A-08771_E_tif
  70
32
  10
188173.000
  20
4561408.293
  30
643
  0
VERTEX
  8
PNOA-H_AMS_1956-57_33k_ES_PAN_21mic_H50_0449_fot_50A-08771_E_tif
  70
32
  10
188173.000
  20
4561397.793
  30
642.64
  0
VERTEX
  8
PNOA-H_AMS_1956-57_33k_ES_PAN_21mic_H50_0449_fot_50A-08771_E_tif
  70
32
  10
188164.500
  20
4560784.793
  30
631.55
  0
VERTEX
  8
PNOA-H_AMS_1956-57_33k_ES_PAN_21mic_H50_0449_fot_50A-08771_E_tif
  70
32
  10
187404.000
  20
4560429.293
  30
603.52
  0
VERTEX
  8
PNOA-H_AMS_1956-57_33k_ES_PAN_21mic_H50_0449_fot_50A-08771_E_tif
  70
32
  10
184984.000
  20
4560713.793
  30
358.2
  0
VERTEX
  8
PNOA-H_AMS_1956-57_33k_ES_PAN_21mic_H50_0449_fot_50A-08771_E_tif
  70
32
  10
184954.000
  20
4563192.793
  30
598
  0
VERTEX
  8
PNOA-H_AMS_1956-57_33k_ES_PAN_21mic_H50_0449_fot_50A-08771_E_tif
  70
32
  10
184954.000
  20
4563204.793
  30
-16084.5
  0
VERTEX
  8
PNOA-H_AMS_1956-57_33k_ES_PAN_21mic_H50_0449_fot_50A-08771_E_tif
  70
32
  10
184955.500
  20
4563204.793
  30
-14416.25
  0
VERTEX
  8
PNOA-H_AMS_1956-57_33k_ES_PAN_21mic_H50_0449_fot_50A-08771_E_tif
  70
32
  10
184969.500
  20
4563219.793
  30
-17753.65
  0
VERTEX
  8
PNOA-H_AMS_1956-57_33k_ES_PAN_21mic_H50_0449_fot_50A-08771_E_tif
  70
32
  10
184975.500
  20
4563219.793
  30
-14417.35
  0
VERTEX
  8
PNOA-H_AMS_1956-57_33k_ES_PAN_21mic_H50_0449_fot_50A-08771_E_tif
  70
32
  10
184984.500
  20
4563229.793
  30
-17753.65
  0
VERTEX
  8
PNOA-H_AMS_1956-57_33k_ES_PAN_21mic_H50_0449_fot_50A-08771_E_tif
  70
32
  10
184990.500
  20
4563229.793
  30
-14417.2
  0
VERTEX
  8
PNOA-H_AMS_1956-57_33k_ES_PAN_21mic_H50_0449_fot_50A-08771_E_tif
  70
32
  10
184999.500
  20
4563239.793
  30
-17752.301
  0
VERTEX
  8
PNOA-H_AMS_1956-57_33k_ES_PAN_21mic_H50_0449_fot_50A-08771_E_tif
  70
32
  10
185005.500
  20
4563239.793
  30
-14415.55
  0
VERTEX
  8
PNOA-H_AMS_1956-57_33k_ES_PAN_21mic_H50_0449_fot_50A-08771_E_tif
  70
32
  10
185009.500
  20
4563244.793
  30
-17751.4
  0
VERTEX
  8
PNOA-H_AMS_1956-57_33k_ES_PAN_21mic_H50_0449_fot_50A-08771_E_tif
  70
32
  10
185015.500
  20
4563244.793
  30
-14414.35
  0
VERTEX
  8
PNOA-H_AMS_1956-57_33k_ES_PAN_21mic_H50_0449_fot_50A-08771_E_tif
  70
32
  10
185024.500
  20
4563254.793
  30
-17749.6
  0
VERTEX
  8
PNOA-H_AMS_1956-57_33k_ES_PAN_21mic_H50_0449_fot_50A-08771_E_tif
  70
32
  10
185030.500
  20
4563254.793
  30
-14412.3
  0
VERTEX
  8
PNOA-H_AMS_1956-57_33k_ES_PAN_21mic_H50_0449_fot_50A-08771_E_tif
  70
32
  10
185039.500
  20
4563264.793
  30
-17749.15
  0
VERTEX
  8
PNOA-H_AMS_1956-57_33k_ES_PAN_21mic_H50_0449_fot_50A-08771_E_tif
  70
32
  10
185045.500
  20
4563264.793
  30
-14411.8
  0
VERTEX
  8
PNOA-H_AMS_1956-57_33k_ES_PAN_21mic_H50_0449_fot_50A-08771_E_tif
  70
32
  10
185059.500
  20
4563279.793
  30
-17749.6
  0
VERTEX
  8
PNOA-H_AMS_1956-57_33k_ES_PAN_21mic_H50_0449_fot_50A-08771_E_tif
  70
32
  10
185065.500
  20
4563279.793
  30
-14412.45
  0
VERTEX
  8
PNOA-H_AMS_1956-57_33k_ES_PAN_21mic_H50_0449_fot_50A-08771_E_tif
  70
32
  10
185094.500
  20
4563309.793
  30
-17753.65
  0
VERTEX
  8
PNOA-H_AMS_1956-57_33k_ES_PAN_21mic_H50_0449_fot_50A-08771_E_tif
  70
32
  10
185100.500
  20
4563309.793
  30
-14417.35
  0
VERTEX
  8
PNOA-H_AMS_1956-57_33k_ES_PAN_21mic_H50_0449_fot_50A-08771_E_tif
  70
32
  10
185104.500
  20
4563314.793
  30
-17753.65
  0
VERTEX
  8
PNOA-H_AMS_1956-57_33k_ES_PAN_21mic_H50_0449_fot_50A-08771_E_tif
  70
32
  10
185110.500
  20
4563314.793
  30
-14417.3
  0
VERTEX
  8
PNOA-H_AMS_1956-57_33k_ES_PAN_21mic_H50_0449_fot_50A-08771_E_tif
  70
32
  10
185119.500
  20
4563324.793
  30
-17752.75
  0
VERTEX
  8
PNOA-H_AMS_1956-57_33k_ES_PAN_21mic_H50_0449_fot_50A-08771_E_tif
  70
32
  10
185130.500
  20
4563324.793
  30
-14415
  0
VERTEX
  8
PNOA-H_AMS_1956-57_33k_ES_PAN_21mic_H50_0449_fot_50A-08771_E_tif
  70
32
  10
185139.500
  20
4563334.793
  30
-17750.949
  0
VERTEX
  8
PNOA-H_AMS_1956-57_33k_ES_PAN_21mic_H50_0449_fot_50A-08771_E_tif
  70
32
  10
185145.500
  20
4563334.793
  30
-14414
  0
VERTEX
  8
PNOA-H_AMS_1956-57_33k_ES_PAN_21mic_H50_0449_fot_50A-08771_E_tif
  70
32
  10
185149.500
  20
4563339.793
  30
-17750.5
  0
VERTEX
  8
PNOA-H_AMS_1956-57_33k_ES_PAN_21mic_H50_0449_fot_50A-08771_E_tif
  70
32
  10
185155.500
  20
4563339.793
  30
-14413.35
  0
VERTEX
  8
PNOA-H_AMS_1956-57_33k_ES_PAN_21mic_H50_0449_fot_50A-08771_E_tif
  70
32
  10
185159.500
  20
4563344.793
  30
-17749.6
  0
VERTEX
  8
PNOA-H_AMS_1956-57_33k_ES_PAN_21mic_H50_0449_fot_50A-08771_E_tif
  70
32
  10
185165.500
  20
4563344.793
  30
-14411.8
  0
VERTEX
  8
PNOA-H_AMS_1956-57_33k_ES_PAN_21mic_H50_0449_fot_50A-08771_E_tif
  70
32
  10
185169.500
  20
4563349.793
  30
-17748.699
  0
VERTEX
  8
PNOA-H_AMS_1956-57_33k_ES_PAN_21mic_H50_0449_fot_50A-08771_E_tif
  70
32
  10
185175.500
  20
4563349.793
  30
-14411.15
  0
VERTEX
  8
PNOA-H_AMS_1956-57_33k_ES_PAN_21mic_H50_0449_fot_50A-08771_E_tif
  70
32
  10
185184.500
  20
4563359.793
  30
-17746.9
  0
VERTEX
  8
PNOA-H_AMS_1956-57_33k_ES_PAN_21mic_H50_0449_fot_50A-08771_E_tif
  70
32
  10
185190.500
  20
4563359.793
  30
-14408.95
  0
VERTEX
  8
PNOA-H_AMS_1956-57_33k_ES_PAN_21mic_H50_0449_fot_50A-08771_E_tif
  70
32
  10
185194.500
  20
4563364.793
  30
-17746
  0
VERTEX
  8
PNOA-H_AMS_1956-57_33k_ES_PAN_21mic_H50_0449_fot_50A-08771_E_tif
  70
32
  10
185200.500
  20
4563364.793
  30
-14407.8
  0
VERTEX
  8
PNOA-H_AMS_1956-57_33k_ES_PAN_21mic_H50_0449_fot_50A-08771_E_tif
  70
32
  10
185204.500
  20
4563369.793
  30
-17745.1
  0
VERTEX
  8
PNOA-H_AMS_1956-57_33k_ES_PAN_21mic_H50_0449_fot_50A-08771_E_tif
  70
32
  10
185210.500
  20
4563369.793
  30
-14406.3
  0
VERTEX
  8
PNOA-H_AMS_1956-57_33k_ES_PAN_21mic_H50_0449_fot_50A-08771_E_tif
  70
32
  10
185219.500
  20
4563379.793
  30
-17744.199
  0
VERTEX
  8
PNOA-H_AMS_1956-57_33k_ES_PAN_21mic_H50_0449_fot_50A-08771_E_tif
  70
32
  10
185225.500
  20
4563379.793
  30
-14405.85
  0
VERTEX
  8
PNOA-H_AMS_1956-57_33k_ES_PAN_21mic_H50_0449_fot_50A-08771_E_tif
  70
32
  10
185234.500
  20
4563389.793
  30
-17744.65
  0
VERTEX
  8
PNOA-H_AMS_1956-57_33k_ES_PAN_21mic_H50_0449_fot_50A-08771_E_tif
  70
32
  10
185240.500
  20
4563389.793
  30
-14406.25
  0
VERTEX
  8
PNOA-H_AMS_1956-57_33k_ES_PAN_21mic_H50_0449_fot_50A-08771_E_tif
  70
32
  10
185249.500
  20
4563399.793
  30
-17743.75
  0
VERTEX
  8
PNOA-H_AMS_1956-57_33k_ES_PAN_21mic_H50_0449_fot_50A-08771_E_tif
  70
32
  10
185255.500
  20
4563399.793
  30
-14405.05
  0
VERTEX
  8
PNOA-H_AMS_1956-57_33k_ES_PAN_21mic_H50_0449_fot_50A-08771_E_tif
  70
32
  10
185264.500
  20
4563409.793
  30
-17741.949
  0
VERTEX
  8
PNOA-H_AMS_1956-57_33k_ES_PAN_21mic_H50_0449_fot_50A-08771_E_tif
  70
32
  10
185275.500
  20
4563409.793
  30
-14402.25
  0
VERTEX
  8
PNOA-H_AMS_1956-57_33k_ES_PAN_21mic_H50_0449_fot_50A-08771_E_tif
  70
32
  10
185284.500
  20
4563419.793
  30
-17739.699
  0
VERTEX
  8
PNOA-H_AMS_1956-57_33k_ES_PAN_21mic_H50_0449_fot_50A-08771_E_tif
  70
32
  10
185290.500
  20
4563419.793
  30
-14400.25
  0
VERTEX
  8
PNOA-H_AMS_1956-57_33k_ES_PAN_21mic_H50_0449_fot_50A-08771_E_tif
  70
32
  10
185299.500
  20
4563429.793
  30
-17738.801
  0
VERTEX
  8
PNOA-H_AMS_1956-57_33k_ES_PAN_21mic_H50_0449_fot_50A-08771_E_tif
  70
32
  10
185305.500
  20
4563429.793
  30
-14399.05
  0
VERTEX
  8
PNOA-H_AMS_1956-57_33k_ES_PAN_21mic_H50_0449_fot_50A-08771_E_tif
  70
32
  10
185309.500
  20
4563434.793
  30
-17737.9
  0
VERTEX
  8
PNOA-H_AMS_1956-57_33k_ES_PAN_21mic_H50_0449_fot_50A-08771_E_tif
  70
32
  10
185315.500
  20
4563434.793
  30
-14398.1
  0
VERTEX
  8
PNOA-H_AMS_1956-57_33k_ES_PAN_21mic_H50_0449_fot_50A-08771_E_tif
  70
32
  10
185324.500
  20
4563444.793
  30
-17736.551
  0
VERTEX
  8
PNOA-H_AMS_1956-57_33k_ES_PAN_21mic_H50_0449_fot_50A-08771_E_tif
  70
32
  10
185330.500
  20
4563444.793
  30
-14396.3
  0
VERTEX
  8
PNOA-H_AMS_1956-57_33k_ES_PAN_21mic_H50_0449_fot_50A-08771_E_tif
  70
32
  10
185334.500
  20
4563449.793
  30
-17735.65
  0
VERTEX
  8
PNOA-H_AMS_1956-57_33k_ES_PAN_21mic_H50_0449_fot_50A-08771_E_tif
  70
32
  10
185340.500
  20
4563449.793
  30
-14395.25
  0
VERTEX
  8
PNOA-H_AMS_1956-57_33k_ES_PAN_21mic_H50_0449_fot_50A-08771_E_tif
  70
32
  10
185344.500
  20
4563454.793
  30
-17734.75
  0
VERTEX
  8
PNOA-H_AMS_1956-57_33k_ES_PAN_21mic_H50_0449_fot_50A-08771_E_tif
  70
32
  10
185350.500
  20
4563454.793
  30
-14394.2
  0
VERTEX
  8
PNOA-H_AMS_1956-57_33k_ES_PAN_21mic_H50_0449_fot_50A-08771_E_tif
  70
32
  10
185354.500
  20
4563459.793
  30
-17734.301
  0
VERTEX
  8
PNOA-H_AMS_1956-57_33k_ES_PAN_21mic_H50_0449_fot_50A-08771_E_tif
  70
32
  10
185360.500
  20
4563459.793
  30
-14393.6
  0
VERTEX
  8
PNOA-H_AMS_1956-57_33k_ES_PAN_21mic_H50_0449_fot_50A-08771_E_tif
  70
32
  10
185369.500
  20
4563469.793
  30
-17733.4
  0
VERTEX
  8
PNOA-H_AMS_1956-57_33k_ES_PAN_21mic_H50_0449_fot_50A-08771_E_tif
  70
32
  10
185380.500
  20
4563469.793
  30
-14392.5
  0
VERTEX
  8
PNOA-H_AMS_1956-57_33k_ES_PAN_21mic_H50_0449_fot_50A-08771_E_tif
  70
32
  10
185399.500
  20
4563489.793
  30
-17732.949
  0
VERTEX
  8
PNOA-H_AMS_1956-57_33k_ES_PAN_21mic_H50_0449_fot_50A-08771_E_tif
  70
32
  10
185405.500
  20
4563489.793
  30
-14392.2
  0
VERTEX
  8
PNOA-H_AMS_1956-57_33k_ES_PAN_21mic_H50_0449_fot_50A-08771_E_tif
  70
32
  10
185419.500
  20
4563504.793
  30
-17734.301
  0
VERTEX
  8
PNOA-H_AMS_1956-57_33k_ES_PAN_21mic_H50_0449_fot_50A-08771_E_tif
  70
32
  10
185425.500
  20
4563504.793
  30
-14393.8
  0
VERTEX
  8
PNOA-H_AMS_1956-57_33k_ES_PAN_21mic_H50_0449_fot_50A-08771_E_tif
  70
32
  10
185434.500
  20
4563514.793
  30
-17734.75
  0
VERTEX
  8
PNOA-H_AMS_1956-57_33k_ES_PAN_21mic_H50_0449_fot_50A-08771_E_tif
  70
32
  10
185440.500
  20
4563514.793
  30
-14394.3
  0
VERTEX
  8
PNOA-H_AMS_1956-57_33k_ES_PAN_21mic_H50_0449_fot_50A-08771_E_tif
  70
32
  10
185464.500
  20
4563539.793
  30
-17737.9
  0
VERTEX
  8
PNOA-H_AMS_1956-57_33k_ES_PAN_21mic_H50_0449_fot_50A-08771_E_tif
  70
32
  10
185470.500
  20
4563539.793
  30
-14398.2
  0
VERTEX
  8
PNOA-H_AMS_1956-57_33k_ES_PAN_21mic_H50_0449_fot_50A-08771_E_tif
  70
32
  10
185479.500
  20
4563549.793
  30
-17737.9
  0
VERTEX
  8
PNOA-H_AMS_1956-57_33k_ES_PAN_21mic_H50_0449_fot_50A-08771_E_tif
  70
32
  10
185485.500
  20
4563549.793
  30
-14398.1
  0
VERTEX
  8
PNOA-H_AMS_1956-57_33k_ES_PAN_21mic_H50_0449_fot_50A-08771_E_tif
  70
32
  10
185489.500
  20
4563554.793
  30
-17737.9
  0
VERTEX
  8
PNOA-H_AMS_1956-57_33k_ES_PAN_21mic_H50_0449_fot_50A-08771_E_tif
  70
32
  10
185495.500
  20
4563554.793
  30
-14397.95
  0
VERTEX
  8
PNOA-H_AMS_1956-57_33k_ES_PAN_21mic_H50_0449_fot_50A-08771_E_tif
  70
32
  10
185499.500
  20
4563559.793
  30
-17737
  0
VERTEX
  8
PNOA-H_AMS_1956-57_33k_ES_PAN_21mic_H50_0449_fot_50A-08771_E_tif
  70
32
  10
185505.500
  20
4563559.793
  30
-14396.8
  0
VERTEX
  8
PNOA-H_AMS_1956-57_33k_ES_PAN_21mic_H50_0449_fot_50A-08771_E_tif
  70
32
  10
185514.500
  20
4563569.793
  30
-17735.65
  0
VERTEX
  8
PNOA-H_AMS_1956-57_33k_ES_PAN_21mic_H50_0449_fot_50A-08771_E_tif
  70
32
  10
185520.500
  20
4563569.793
  30
-14395.3
  0
VERTEX
  8
PNOA-H_AMS_1956-57_33k_ES_PAN_21mic_H50_0449_fot_50A-08771_E_tif
  70
32
  10
185524.500
  20
4563574.793
  30
-17735.199
  0
VERTEX
  8
PNOA-H_AMS_1956-57_33k_ES_PAN_21mic_H50_0449_fot_50A-08771_E_tif
  70
32
  10
185530.500
  20
4563574.793
  30
-14394.65
  0
VERTEX
  8
PNOA-H_AMS_1956-57_33k_ES_PAN_21mic_H50_0449_fot_50A-08771_E_tif
  70
32
  10
185539.500
  20
4563584.793
  30
-17734.301
  0
VERTEX
  8
PNOA-H_AMS_1956-57_33k_ES_PAN_21mic_H50_0449_fot_50A-08771_E_tif
  70
32
  10
185545.500
  20
4563584.793
  30
-14393.65
  0
VERTEX
  8
PNOA-H_AMS_1956-57_33k_ES_PAN_21mic_H50_0449_fot_50A-08771_E_tif
  70
32
  10
185549.500
  20
4563589.793
  30
-17733.85
  0
VERTEX
  8
PNOA-H_AMS_1956-57_33k_ES_PAN_21mic_H50_0449_fot_50A-08771_E_tif
  70
32
  10
185555.500
  20
4563589.793
  30
-14393.1
  0
VERTEX
  8
PNOA-H_AMS_1956-57_33k_ES_PAN_21mic_H50_0449_fot_50A-08771_E_tif
  70
32
  10
185564.500
  20
4563599.793
  30
-17732.949
  0
VERTEX
  8
PNOA-H_AMS_1956-57_33k_ES_PAN_21mic_H50_0449_fot_50A-08771_E_tif
  70
32
  10
185570.500
  20
4563599.793
  30
-14392.05
  0
VERTEX
  8
PNOA-H_AMS_1956-57_33k_ES_PAN_21mic_H50_0449_fot_50A-08771_E_tif
  70
32
  10
185584.500
  20
4563614.793
  30
-17733.4
  0
VERTEX
  8
PNOA-H_AMS_1956-57_33k_ES_PAN_21mic_H50_0449_fot_50A-08771_E_tif
  70
32
  10
185590.500
  20
4563614.793
  30
-14392.6
  0
VERTEX
  8
PNOA-H_AMS_1956-57_33k_ES_PAN_21mic_H50_0449_fot_50A-08771_E_tif
  70
32
  10
185599.500
  20
4563624.793
  30
-17733.4
  0
VERTEX
  8
PNOA-H_AMS_1956-57_33k_ES_PAN_21mic_H50_0449_fot_50A-08771_E_tif
  70
32
  10
185605.500
  20
4563624.793
  30
-14392.6
  0
VERTEX
  8
PNOA-H_AMS_1956-57_33k_ES_PAN_21mic_H50_0449_fot_50A-08771_E_tif
  70
32
  10
185619.500
  20
4563639.793
  30
-17733.4
  0
VERTEX
  8
PNOA-H_AMS_1956-57_33k_ES_PAN_21mic_H50_0449_fot_50A-08771_E_tif
  70
32
  10
185625.500
  20
4563639.793
  30
-14392.6
  0
VERTEX
  8
PNOA-H_AMS_1956-57_33k_ES_PAN_21mic_H50_0449_fot_50A-08771_E_tif
  70
32
  10
185639.500
  20
4563654.793
  30
-17734.301
  0
VERTEX
  8
PNOA-H_AMS_1956-57_33k_ES_PAN_21mic_H50_0449_fot_50A-08771_E_tif
  70
32
  10
185645.500
  20
4563654.793
  30
-14393.75
  0
VERTEX
  8
PNOA-H_AMS_1956-57_33k_ES_PAN_21mic_H50_0449_fot_50A-08771_E_tif
  70
32
  10
185659.500
  20
4563669.793
  30
-17735.199
  0
VERTEX
  8
PNOA-H_AMS_1956-57_33k_ES_PAN_21mic_H50_0449_fot_50A-08771_E_tif
  70
32
  10
185665.500
  20
4563669.793
  30
-14394.9
  0
VERTEX
  8
PNOA-H_AMS_1956-57_33k_ES_PAN_21mic_H50_0449_fot_50A-08771_E_tif
  70
32
  10
185689.500
  20
4563694.793
  30
-17738.35
  0
VERTEX
  8
PNOA-H_AMS_1956-57_33k_ES_PAN_21mic_H50_0449_fot_50A-08771_E_tif
  70
32
  10
185695.500
  20
4563694.793
  30
-14398.65
  0
VERTEX
  8
PNOA-H_AMS_1956-57_33k_ES_PAN_21mic_H50_0449_fot_50A-08771_E_tif
  70
32
  10
185714.500
  20
4563714.793
  30
-17739.699
  0
VERTEX
  8
PNOA-H_AMS_1956-57_33k_ES_PAN_21mic_H50_0449_fot_50A-08771_E_tif
  70
32
  10
185720.500
  20
4563714.793
  30
-14400.35
  0
VERTEX
  8
PNOA-H_AMS_1956-57_33k_ES_PAN_21mic_H50_0449_fot_50A-08771_E_tif
  70
32
  10
185744.500
  20
4563739.793
  30
-17741.949
  0
VERTEX
  8
PNOA-H_AMS_1956-57_33k_ES_PAN_21mic_H50_0449_fot_50A-08771_E_tif
  70
32
  10
185750.500
  20
4563739.793
  30
-14403.05
  0
VERTEX
  8
PNOA-H_AMS_1956-57_33k_ES_PAN_21mic_H50_0449_fot_50A-08771_E_tif
  70
32
  10
185759.500
  20
4563749.793
  30
-17741.949
  0
VERTEX
  8
PNOA-H_AMS_1956-57_33k_ES_PAN_21mic_H50_0449_fot_50A-08771_E_tif
  70
32
  10
185765.500
  20
4563749.793
  30
-14403.15
  0
VERTEX
  8
PNOA-H_AMS_1956-57_33k_ES_PAN_21mic_H50_0449_fot_50A-08771_E_tif
  70
32
  10
185779.500
  20
4563764.793
  30
-17742.85
  0
VERTEX
  8
PNOA-H_AMS_1956-57_33k_ES_PAN_21mic_H50_0449_fot_50A-08771_E_tif
  70
32
  10
185785.500
  20
4563764.793
  30
-14404.15
  0
VERTEX
  8
PNOA-H_AMS_1956-57_33k_ES_PAN_21mic_H50_0449_fot_50A-08771_E_tif
  70
32
  10
185799.500
  20
4563779.793
  30
-17743.301
  0
VERTEX
  8
PNOA-H_AMS_1956-57_33k_ES_PAN_21mic_H50_0449_fot_50A-08771_E_tif
  70
32
  10
185805.500
  20
4563779.793
  30
-14404.7
  0
VERTEX
  8
PNOA-H_AMS_1956-57_33k_ES_PAN_21mic_H50_0449_fot_50A-08771_E_tif
  70
32
  10
185824.500
  20
4563799.793
  30
-17744.199
  0
VERTEX
  8
PNOA-H_AMS_1956-57_33k_ES_PAN_21mic_H50_0449_fot_50A-08771_E_tif
  70
32
  10
185830.500
  20
4563799.793
  30
-14405.9
  0
VERTEX
  8
PNOA-H_AMS_1956-57_33k_ES_PAN_21mic_H50_0449_fot_50A-08771_E_tif
  70
32
  10
185844.500
  20
4563814.793
  30
-17745.551
  0
VERTEX
  8
PNOA-H_AMS_1956-57_33k_ES_PAN_21mic_H50_0449_fot_50A-08771_E_tif
  70
32
  10
185850.500
  20
4563814.793
  30
-14407.55
  0
VERTEX
  8
PNOA-H_AMS_1956-57_33k_ES_PAN_21mic_H50_0449_fot_50A-08771_E_tif
  70
32
  10
185864.500
  20
4563829.793
  30
-17746
  0
VERTEX
  8
PNOA-H_AMS_1956-57_33k_ES_PAN_21mic_H50_0449_fot_50A-08771_E_tif
  70
32
  10
185870.500
  20
4563829.793
  30
-14408
  0
VERTEX
  8
PNOA-H_AMS_1956-57_33k_ES_PAN_21mic_H50_0449_fot_50A-08771_E_tif
  70
32
  10
185884.500
  20
4563844.793
  30
-17746.449
  0
VERTEX
  8
PNOA-H_AMS_1956-57_33k_ES_PAN_21mic_H50_0449_fot_50A-08771_E_tif
  70
32
  10
185890.500
  20
4563844.793
  30
-14408.7
  0
VERTEX
  8
PNOA-H_AMS_1956-57_33k_ES_PAN_21mic_H50_0449_fot_50A-08771_E_tif
  70
32
  10
185904.500
  20
4563859.793
  30
-17748.699
  0
VERTEX
  8
PNOA-H_AMS_1956-57_33k_ES_PAN_21mic_H50_0449_fot_50A-08771_E_tif
  70
32
  10
185910.500
  20
4563859.793
  30
-14411.3
  0
VERTEX
  8
PNOA-H_AMS_1956-57_33k_ES_PAN_21mic_H50_0449_fot_50A-08771_E_tif
  70
32
  10
185914.500
  20
4563864.793
  30
-17748.699
  0
VERTEX
  8
PNOA-H_AMS_1956-57_33k_ES_PAN_21mic_H50_0449_fot_50A-08771_E_tif
  70
32
  10
185920.500
  20
4563864.793
  30
-14411.3
  0
VERTEX
  8
PNOA-H_AMS_1956-57_33k_ES_PAN_21mic_H50_0449_fot_50A-08771_E_tif
  70
32
  10
185924.500
  20
4563869.793
  30
-17748.699
  0
VERTEX
  8
PNOA-H_AMS_1956-57_33k_ES_PAN_21mic_H50_0449_fot_50A-08771_E_tif
  70
32
  10
185930.500
  20
4563869.793
  30
-14411.1
  0
VERTEX
  8
PNOA-H_AMS_1956-57_33k_ES_PAN_21mic_H50_0449_fot_50A-08771_E_tif
  70
32
  10
185934.500
  20
4563874.793
  30
-17747.35
  0
VERTEX
  8
PNOA-H_AMS_1956-57_33k_ES_PAN_21mic_H50_0449_fot_50A-08771_E_tif
  70
32
  10
185940.500
  20
4563874.793
  30
-14408.95
  0
VERTEX
  8
PNOA-H_AMS_1956-57_33k_ES_PAN_21mic_H50_0449_fot_50A-08771_E_tif
  70
32
  10
185949.500
  20
4563884.793
  30
-17746
  0
VERTEX
  8
PNOA-H_AMS_1956-57_33k_ES_PAN_21mic_H50_0449_fot_50A-08771_E_tif
  70
32
  10
185955.500
  20
4563884.793
  30
-14407.9
  0
VERTEX
  8
PNOA-H_AMS_1956-57_33k_ES_PAN_21mic_H50_0449_fot_50A-08771_E_tif
  70
32
  10
185959.500
  20
4563889.793
  30
-17745.551
  0
VERTEX
  8
PNOA-H_AMS_1956-57_33k_ES_PAN_21mic_H50_0449_fot_50A-08771_E_tif
  70
32
  10
185965.500
  20
4563889.793
  30
-14407.35
  0
VERTEX
  8
PNOA-H_AMS_1956-57_33k_ES_PAN_21mic_H50_0449_fot_50A-08771_E_tif
  70
32
  10
185974.500
  20
4563899.793
  30
-17744.65
  0
VERTEX
  8
PNOA-H_AMS_1956-57_33k_ES_PAN_21mic_H50_0449_fot_50A-08771_E_tif
  70
32
  10
185980.500
  20
4563899.793
  30
-14406.25
  0
VERTEX
  8
PNOA-H_AMS_1956-57_33k_ES_PAN_21mic_H50_0449_fot_50A-08771_E_tif
  70
32
  10
185989.500
  20
4563909.793
  30
-17743.75
  0
VERTEX
  8
PNOA-H_AMS_1956-57_33k_ES_PAN_21mic_H50_0449_fot_50A-08771_E_tif
  70
32
  10
185995.500
  20
4563909.793
  30
-14405.05
  0
VERTEX
  8
PNOA-H_AMS_1956-57_33k_ES_PAN_21mic_H50_0449_fot_50A-08771_E_tif
  70
32
  10
185999.500
  20
4563914.793
  30
-17742.4
  0
VERTEX
  8
PNOA-H_AMS_1956-57_33k_ES_PAN_21mic_H50_0449_fot_50A-08771_E_tif
  70
32
  10
186005.500
  20
4563914.793
  30
-14403.65
  0
VERTEX
  8
PNOA-H_AMS_1956-57_33k_ES_PAN_21mic_H50_0449_fot_50A-08771_E_tif
  70
32
  10
186024.500
  20
4563934.793
  30
-17742.4
  0
VERTEX
  8
PNOA-H_AMS_1956-57_33k_ES_PAN_21mic_H50_0449_fot_50A-08771_E_tif
  70
32
  10
186030.500
  20
4563934.793
  30
-14403.6
  0
VERTEX
  8
PNOA-H_AMS_1956-57_33k_ES_PAN_21mic_H50_0449_fot_50A-08771_E_tif
  70
32
  10
186034.500
  20
4563939.793
  30
-17742.4
  0
VERTEX
  8
PNOA-H_AMS_1956-57_33k_ES_PAN_21mic_H50_0449_fot_50A-08771_E_tif
  70
32
  10
186040.500
  20
4563939.793
  30
-14403.55
  0
VERTEX
  8
PNOA-H_AMS_1956-57_33k_ES_PAN_21mic_H50_0449_fot_50A-08771_E_tif
  70
32
  10
186049.500
  20
4563949.793
  30
-17741.949
  0
VERTEX
  8
PNOA-H_AMS_1956-57_33k_ES_PAN_21mic_H50_0449_fot_50A-08771_E_tif
  70
32
  10
186055.500
  20
4563949.793
  30
-14402.95
  0
VERTEX
  8
PNOA-H_AMS_1956-57_33k_ES_PAN_21mic_H50_0449_fot_50A-08771_E_tif
  70
32
  10
186064.500
  20
4563959.793
  30
-17741.5
  0
VERTEX
  8
PNOA-H_AMS_1956-57_33k_ES_PAN_21mic_H50_0449_fot_50A-08771_E_tif
  70
32
  10
186070.500
  20
4563959.793
  30
-14402.45
  0
VERTEX
  8
PNOA-H_AMS_1956-57_33k_ES_PAN_21mic_H50_0449_fot_50A-08771_E_tif
  70
32
  10
186079.500
  20
4563969.793
  30
-17741.051
  0
VERTEX
  8
PNOA-H_AMS_1956-57_33k_ES_PAN_21mic_H50_0449_fot_50A-08771_E_tif
  70
32
  10
186085.500
  20
4563969.793
  30
-14401.95
  0
VERTEX
  8
PNOA-H_AMS_1956-57_33k_ES_PAN_21mic_H50_0449_fot_50A-08771_E_tif
  70
32
  10
186089.500
  20
4563974.793
  30
-17741.051
  0
VERTEX
  8
PNOA-H_AMS_1956-57_33k_ES_PAN_21mic_H50_0449_fot_50A-08771_E_tif
  70
32
  10
186095.500
  20
4563974.793
  30
-14401.75
  0
VERTEX
  8
PNOA-H_AMS_1956-57_33k_ES_PAN_21mic_H50_0449_fot_50A-08771_E_tif
  70
32
  10
186099.500
  20
4563979.793
  30
-17739.699
  0
VERTEX
  8
PNOA-H_AMS_1956-57_33k_ES_PAN_21mic_H50_0449_fot_50A-08771_E_tif
  70
32
  10
186105.500
  20
4563979.793
  30
-14400.25
  0
VERTEX
  8
PNOA-H_AMS_1956-57_33k_ES_PAN_21mic_H50_0449_fot_50A-08771_E_tif
  70
32
  10
186114.500
  20
4563989.793
  30
-17739.699
  0
VERTEX
  8
PNOA-H_AMS_1956-57_33k_ES_PAN_21mic_H50_0449_fot_50A-08771_E_tif
  70
32
  10
186120.500
  20
4563989.793
  30
-14400.3
  0
VERTEX
  8
PNOA-H_AMS_1956-57_33k_ES_PAN_21mic_H50_0449_fot_50A-08771_E_tif
  70
32
  10
186134.500
  20
4564004.793
  30
-17740.15
  0
VERTEX
  8
PNOA-H_AMS_1956-57_33k_ES_PAN_21mic_H50_0449_fot_50A-08771_E_tif
  70
32
  10
186140.500
  20
4564004.793
  30
-14400.85
  0
VERTEX
  8
PNOA-H_AMS_1956-57_33k_ES_PAN_21mic_H50_0449_fot_50A-08771_E_tif
  70
32
  10
186144.073
  20
4564008.763
  30
-15726.642
  0
VERTEX
  8
PNOA-H_AMS_1956-57_33k_ES_PAN_21mic_H50_0449_fot_50A-08771_E_tif
  70
32
  10
187132.911
  20
4563966.100
  30
-14393.6
  0
SEQEND
  8
PNOA-H_AMS_1956-57_33k_ES_PAN_21mic_H50_0449_fot_50A-08771_E_tif
  0
TEXT
  8
PNOA-H_AMS_1956-57_33k_ES_PAN_21mic_H50_0449_fot_50A-08771_E_tif
 62
0
  1
PNOA-H_AMS_1956-57_33k_ES_PAN_21mic_H50_0449_fot_50A-08771_E.tif
 40
41.85758
  10
186583.082
  20
4563217.043
  0
POLYLINE
  8
PNOA-H_AMS_1956-57_33k_ES_PAN_21mic_H50_0449_fot_50A-08774_E_tif
  70
9
  66
1
  0
VERTEX
  8
PNOA-H_AMS_1956-57_33k_ES_PAN_21mic_H50_0449_fot_50A-08774_E_tif
  70
32
  10
197269.065
  20
4563538.356
  30
722.039
  0
VERTEX
  8
PNOA-H_AMS_1956-57_33k_ES_PAN_21mic_H50_0449_fot_50A-08774_E_tif
  70
32
  10
197168.500
  20
4560566.293
  30
702
  0
VERTEX
  8
PNOA-H_AMS_1956-57_33k_ES_PAN_21mic_H50_0449_fot_50A-08774_E_tif
  70
32
  10
196100.500
  20
4560157.793
  30
692.01
  0
VERTEX
  8
PNOA-H_AMS_1956-57_33k_ES_PAN_21mic_H50_0449_fot_50A-08774_E_tif
  70
32
  10
194094.500
  20
4560696.293
  30
711.18
  0
VERTEX
  8
PNOA-H_AMS_1956-57_33k_ES_PAN_21mic_H50_0449_fot_50A-08774_E_tif
  70
32
  10
194089.500
  20
4560697.793
  30
711
  0
VERTEX
  8
PNOA-H_AMS_1956-57_33k_ES_PAN_21mic_H50_0449_fot_50A-08774_E_tif
  70
32
  10
194089.500
  20
4560702.293
  30
711
  0
VERTEX
  8
PNOA-H_AMS_1956-57_33k_ES_PAN_21mic_H50_0449_fot_50A-08774_E_tif
  70
32
  10
194249.390
  20
4563664.284
  30
642.534
  0
SEQEND
  8
PNOA-H_AMS_1956-57_33k_ES_PAN_21mic_H50_0449_fot_50A-08774_E_tif
  0
TEXT
  8
PNOA-H_AMS_1956-57_33k_ES_PAN_21mic_H50_0449_fot_50A-08774_E_tif
 62
0
  1
PNOA-H_AMS_1956-57_33k_ES_PAN_21mic_H50_0449_fot_50A-08774_E.tif
 40
41.85758
  10
195714.618
  20
4562599.793
  0
POLYLINE
  8
PNOA-H_AMS_1956-57_33k_ES_PAN_21mic_H50_0449_fot_50A-08773_E_tif
  70
9
  66
1
  0
VERTEX
  8
PNOA-H_AMS_1956-57_33k_ES_PAN_21mic_H50_0449_fot_50A-08773_E_tif
  70
32
  10
194249.454
  20
4563664.281
  30
642.506
  0
VERTEX
  8
PNOA-H_AMS_1956-57_33k_ES_PAN_21mic_H50_0449_fot_50A-08773_E_tif
  70
32
  10
194089.500
  20
4560697.793
  30
711
  0
VERTEX
  8
PNOA-H_AMS_1956-57_33k_ES_PAN_21mic_H50_0449_fot_50A-08773_E_tif
  70
32
  10
193136.500
  20
4560287.293
  30
705.3
  0
VERTEX
  8
PNOA-H_AMS_1956-57_33k_ES_PAN_21mic_H50_0449_fot_50A-08773_E_tif
  70
32
  10
193111.500
  20
4560291.293
  30
704.3
  0
VERTEX
  8
PNOA-H_AMS_1956-57_33k_ES_PAN_21mic_H50_0449_fot_50A-08773_E_tif
  70
32
  10
191123.500
  20
4560675.793
  30
668.51
  0
VERTEX
  8
PNOA-H_AMS_1956-57_33k_ES_PAN_21mic_H50_0449_fot_50A-08773_E_tif
  70
32
  10
191231.615
  20
4563791.524
  30
691.359
  0
VERTEX
  8
PNOA-H_AMS_1956-57_33k_ES_PAN_21mic_H50_0449_fot_50A-08773_E_tif
  70
32
  10
194125.638
  20
4563669.445
  30
642.541
  0
SEQEND
  8
PNOA-H_AMS_1956-57_33k_ES_PAN_21mic_H50_0449_fot_50A-08773_E_tif
  0
TEXT
  8
PNOA-H_AMS_1956-57_33k_ES_PAN_21mic_H50_0449_fot_50A-08773_E_tif
 62
0
  1
PNOA-H_AMS_1956-57_33k_ES_PAN_21mic_H50_0449_fot_50A-08773_E.tif
 40
41.85758
  10
192696.886
  20
4562729.043
  0
POLYLINE
  8
PNOA-H_AMS_1956-57_33k_ES_PAN_21mic_H50_0449_fot_50A-08775_E_tif
  70
9
  66
1
  0
VERTEX
  8
PNOA-H_AMS_1956-57_33k_ES_PAN_21mic_H50_0449_fot_50A-08775_E_tif
  70
32
  10
200249.786
  20
4563415.316
  30
659.151
  0
VERTEX
  8
PNOA-H_AMS_1956-57_33k_ES_PAN_21mic_H50_0449_fot_50A-08775_E_tif
  70
32
  10
200122.500
  20
4560460.793
  30
704.15
  0
VERTEX
  8
PNOA-H_AMS_1956-57_33k_ES_PAN_21mic_H50_0449_fot_50A-08775_E_tif
  70
32
  10
198979.500
  20
4560047.293
  30
698.1
  0
VERTEX
  8
PNOA-H_AMS_1956-57_33k_ES_PAN_21mic_H50_0449_fot_50A-08775_E_tif
  70
32
  10
197168.500
  20
4560566.293
  30
702
  0
VERTEX
  8
PNOA-H_AMS_1956-57_33k_ES_PAN_21mic_H50_0449_fot_50A-08775_E_tif
  70
32
  10
197268.940
  20
4563538.362
  30
722.014
  0
VERTEX
  8
PNOA-H_AMS_1956-57_33k_ES_PAN_21mic_H50_0449_fot_50A-08775_E_tif
  70
32
  10
197621.968
  20
4563523.639
  30
721.995
  0
SEQEND
  8
PNOA-H_AMS_1956-57_33k_ES_PAN_21mic_H50_0449_fot_50A-08775_E_tif
  0
TEXT
  8
PNOA-H_AMS_1956-57_33k_ES_PAN_21mic_H50_0449_fot_50A-08775_E_tif
 62
0
  1
PNOA-H_AMS_1956-57_33k_ES_PAN_21mic_H50_0449_fot_50A-08775_E.tif
 40
41.85758
  10
198722.006
  20
4562497.543
  0
POLYLINE
  8
PNOA-H_AMS_1956-57_33k_ES_PAN_21mic_H50_0449_fot_50A-08776_E_tif
  70
9
  66
1
  0
VERTEX
  8
PNOA-H_AMS_1956-57_33k_ES_PAN_21mic_H50_0449_fot_50A-08776_E_tif
  70
32
  10
203330.868
  20
4563289.372
  30
690.814
  0
VERTEX
  8
PNOA-H_AMS_1956-57_33k_ES_PAN_21mic_H50_0449_fot_50A-08776_E_tif
  70
32
  10
203169.500
  20
4560379.793
  30
730
  0
VERTEX
  8
PNOA-H_AMS_1956-57_33k_ES_PAN_21mic_H50_0449_fot_50A-08776_E_tif
  70
32
  10
201855.500
  20
4559918.293
  30
718
  0
VERTEX
  8
PNOA-H_AMS_1956-57_33k_ES_PAN_21mic_H50_0449_fot_50A-08776_E_tif
  70
32
  10
200122.500
  20
4560460.793
  30
704.15
  0
VERTEX
  8
PNOA-H_AMS_1956-57_33k_ES_PAN_21mic_H50_0449_fot_50A-08776_E_tif
  70
32
  10
200249.508
  20
4563415.328
  30
659.394
  0
VERTEX
  8
PNOA-H_AMS_1956-57_33k_ES_PAN_21mic_H50_0449_fot_50A-08776_E_tif
  70
32
  10
201118.278
  20
4563379.515
  30
659.37
  0
SEQEND
  8
PNOA-H_AMS_1956-57_33k_ES_PAN_21mic_H50_0449_fot_50A-08776_E_tif
  0
TEXT
  8
PNOA-H_AMS_1956-57_33k_ES_PAN_21mic_H50_0449_fot_50A-08776_E_tif
 62
0
  1
PNOA-H_AMS_1956-57_33k_ES_PAN_21mic_H50_0449_fot_50A-08776_E.tif
 40
41.85758
  10
201741.489
  20
4562355.043
  0
POLYLINE
  8
PNOA-H_AMS_1956-57_33k_ES_PAN_21mic_H50_0450_fot_50A-08777_E_tif
  70
9
  66
1
  0
VERTEX
  8
PNOA-H_AMS_1956-57_33k_ES_PAN_21mic_H50_0450_fot_50A-08777_E_tif
  70
32
  10
204479.098
  20
4559891.150
  30
740.3
  0
VERTEX
  8
PNOA-H_AMS_1956-57_33k_ES_PAN_21mic_H50_0450_fot_50A-08777_E_tif
  70
32
  10
203169.500
  20
4560379.793
  30
730
  0
VERTEX
  8
PNOA-H_AMS_1956-57_33k_ES_PAN_21mic_H50_0450_fot_50A-08777_E_tif
  70
32
  10
203330.868
  20
4563289.372
  30
690.814
  0
VERTEX
  8
PNOA-H_AMS_1956-57_33k_ES_PAN_21mic_H50_0450_fot_50A-08777_E_tif
  70
32
  10
204614.566
  20
4563237.072
  30
690.56
  0
VERTEX
  8
PNOA-H_AMS_1956-57_33k_ES_PAN_21mic_H50_0450_fot_50A-08777_E_tif
  70
32
  10
204520.892
  20
4560923.722
  30
737.928
  0
SEQEND
  8
PNOA-H_AMS_1956-57_33k_ES_PAN_21mic_H50_0450_fot_50A-08777_E_tif
  0
TEXT
  8
PNOA-H_AMS_1956-57_33k_ES_PAN_21mic_H50_0450_fot_50A-08777_E_tif
 62
0
  1
PNOA-H_AMS_1956-57_33k_ES_PAN_21mic_H50_0450_fot_50A-08777_E.tif
 40
41.85758
  10
203892.033
  20
4561590.261
  0
POLYLINE
  8
PNOA-H_AMS_1956-57_33k_ES_PAN_21mic_H50_0449_fot_50A-08770_E_tif
  70
9
  66
1
  0
VERTEX
  8
PNOA-H_AMS_1956-57_33k_ES_PAN_21mic_H50_0449_fot_50A-08770_E_tif
  70
32
  10
183330.000
  20
4560468.706
  30
-6971.459
  0
VERTEX
  8
PNOA-H_AMS_1956-57_33k_ES_PAN_21mic_H50_0449_fot_50A-08770_E_tif
  70
32
  10
183330.000
  20
4562004.793
  30
-17646.059
  0
VERTEX
  8
PNOA-H_AMS_1956-57_33k_ES_PAN_21mic_H50_0449_fot_50A-08770_E_tif
  70
32
  10
183615.500
  20
4562004.793
  30
-17898.551
  0
VERTEX
  8
PNOA-H_AMS_1956-57_33k_ES_PAN_21mic_H50_0449_fot_50A-08770_E_tif
  70
32
  10
183619.500
  20
4561999.793
  30
-14595.35
  0
VERTEX
  8
PNOA-H_AMS_1956-57_33k_ES_PAN_21mic_H50_0449_fot_50A-08770_E_tif
  70
32
  10
183625.500
  20
4561999.793
  30
-14596.95
  0
VERTEX
  8
PNOA-H_AMS_1956-57_33k_ES_PAN_21mic_H50_0449_fot_50A-08770_E_tif
  70
32
  10
183629.500
  20
4562004.793
  30
-17902.15
  0
VERTEX
  8
PNOA-H_AMS_1956-57_33k_ES_PAN_21mic_H50_0449_fot_50A-08770_E_tif
  70
32
  10
183675.500
  20
4562004.793
  30
-17908
  0
VERTEX
  8
PNOA-H_AMS_1956-57_33k_ES_PAN_21mic_H50_0449_fot_50A-08770_E_tif
  70
32
  10
183679.500
  20
4561999.793
  30
-14606
  0
VERTEX
  8
PNOA-H_AMS_1956-57_33k_ES_PAN_21mic_H50_0449_fot_50A-08770_E_tif
  70
32
  10
183690.500
  20
4561999.793
  30
-14607.5
  0
VERTEX
  8
PNOA-H_AMS_1956-57_33k_ES_PAN_21mic_H50_0449_fot_50A-08770_E_tif
  70
32
  10
183694.500
  20
4562004.793
  30
-17911.6
  0
VERTEX
  8
PNOA-H_AMS_1956-57_33k_ES_PAN_21mic_H50_0449_fot_50A-08770_E_tif
  70
32
  10
183995.500
  20
4562004.793
  30
-14541.5
  0
VERTEX
  8
PNOA-H_AMS_1956-57_33k_ES_PAN_21mic_H50_0449_fot_50A-08770_E_tif
  70
32
  10
183997.500
  20
4562006.793
  30
-14541.1
  0
VERTEX
  8
PNOA-H_AMS_1956-57_33k_ES_PAN_21mic_H50_0449_fot_50A-08770_E_tif
  70
32
  10
183997.500
  20
4562717.793
  30
-17880.1
  0
VERTEX
  8
PNOA-H_AMS_1956-57_33k_ES_PAN_21mic_H50_0449_fot_50A-08770_E_tif
  70
32
  10
183999.500
  20
4562719.793
  30
-17880.1
  0
VERTEX
  8
PNOA-H_AMS_1956-57_33k_ES_PAN_21mic_H50_0449_fot_50A-08770_E_tif
  70
32
  10
184005.500
  20
4562719.793
  30
-14571.75
  0
VERTEX
  8
PNOA-H_AMS_1956-57_33k_ES_PAN_21mic_H50_0449_fot_50A-08770_E_tif
  70
32
  10
184009.500
  20
4562724.793
  30
-17879.199
  0
VERTEX
  8
PNOA-H_AMS_1956-57_33k_ES_PAN_21mic_H50_0449_fot_50A-08770_E_tif
  70
32
  10
184020.500
  20
4562724.793
  30
-14569.15
  0
VERTEX
  8
PNOA-H_AMS_1956-57_33k_ES_PAN_21mic_H50_0449_fot_50A-08770_E_tif
  70
32
  10
184024.500
  20
4562729.793
  30
-17875.15
  0
VERTEX
  8
PNOA-H_AMS_1956-57_33k_ES_PAN_21mic_H50_0449_fot_50A-08770_E_tif
  70
32
  10
184035.500
  20
4562729.793
  30
-14564.25
  0
VERTEX
  8
PNOA-H_AMS_1956-57_33k_ES_PAN_21mic_H50_0449_fot_50A-08770_E_tif
  70
32
  10
184039.500
  20
4562734.793
  30
-17871.1
  0
VERTEX
  8
PNOA-H_AMS_1956-57_33k_ES_PAN_21mic_H50_0449_fot_50A-08770_E_tif
  70
32
  10
184045.500
  20
4562734.793
  30
-14560.6
  0
VERTEX
  8
PNOA-H_AMS_1956-57_33k_ES_PAN_21mic_H50_0449_fot_50A-08770_E_tif
  70
32
  10
184054.500
  20
4562744.793
  30
-17868.85
  0
VERTEX
  8
PNOA-H_AMS_1956-57_33k_ES_PAN_21mic_H50_0449_fot_50A-08770_E_tif
  70
32
  10
184060.500
  20
4562744.793
  30
-14558
  0
VERTEX
  8
PNOA-H_AMS_1956-57_33k_ES_PAN_21mic_H50_0449_fot_50A-08770_E_tif
  70
32
  10
184064.500
  20
4562749.793
  30
-17867.949
  0
VERTEX
  8
PNOA-H_AMS_1956-57_33k_ES_PAN_21mic_H50_0449_fot_50A-08770_E_tif
  70
32
  10
184075.500
  20
4562749.793
  30
-14555.45
  0
VERTEX
  8
PNOA-H_AMS_1956-57_33k_ES_PAN_21mic_H50_0449_fot_50A-08770_E_tif
  70
32
  10
184079.500
  20
4562754.793
  30
-17863.9
  0
VERTEX
  8
PNOA-H_AMS_1956-57_33k_ES_PAN_21mic_H50_0449_fot_50A-08770_E_tif
  70
32
  10
184085.500
  20
4562754.793
  30
-14551.85
  0
VERTEX
  8
PNOA-H_AMS_1956-57_33k_ES_PAN_21mic_H50_0449_fot_50A-08770_E_tif
  70
32
  10
184089.500
  20
4562759.793
  30
-17862.1
  0
VERTEX
  8
PNOA-H_AMS_1956-57_33k_ES_PAN_21mic_H50_0449_fot_50A-08770_E_tif
  70
32
  10
184100.500
  20
4562759.793
  30
-14547.8
  0
VERTEX
  8
PNOA-H_AMS_1956-57_33k_ES_PAN_21mic_H50_0449_fot_50A-08770_E_tif
  70
32
  10
184104.500
  20
4562764.793
  30
-17858.051
  0
VERTEX
  8
PNOA-H_AMS_1956-57_33k_ES_PAN_21mic_H50_0449_fot_50A-08770_E_tif
  70
32
  10
184115.500
  20
4562764.793
  30
-14542.85
  0
VERTEX
  8
PNOA-H_AMS_1956-57_33k_ES_PAN_21mic_H50_0449_fot_50A-08770_E_tif
  70
32
  10
184119.500
  20
4562769.793
  30
-17854
  0
VERTEX
  8
PNOA-H_AMS_1956-57_33k_ES_PAN_21mic_H50_0449_fot_50A-08770_E_tif
  70
32
  10
184130.500
  20
4562769.793
  30
-14538
  0
VERTEX
  8
PNOA-H_AMS_1956-57_33k_ES_PAN_21mic_H50_0449_fot_50A-08770_E_tif
  70
32
  10
184134.500
  20
4562774.793
  30
-17850.4
  0
VERTEX
  8
PNOA-H_AMS_1956-57_33k_ES_PAN_21mic_H50_0449_fot_50A-08770_E_tif
  70
32
  10
184140.500
  20
4562774.793
  30
-14534.7
  0
VERTEX
  8
PNOA-H_AMS_1956-57_33k_ES_PAN_21mic_H50_0449_fot_50A-08770_E_tif
  70
32
  10
184144.500
  20
4562779.793
  30
-17847.699
  0
VERTEX
  8
PNOA-H_AMS_1956-57_33k_ES_PAN_21mic_H50_0449_fot_50A-08770_E_tif
  70
32
  10
184160.500
  20
4562779.793
  30
-14529.1
  0
VERTEX
  8
PNOA-H_AMS_1956-57_33k_ES_PAN_21mic_H50_0449_fot_50A-08770_E_tif
  70
32
  10
184164.500
  20
4562784.793
  30
-17842.75
  0
VERTEX
  8
PNOA-H_AMS_1956-57_33k_ES_PAN_21mic_H50_0449_fot_50A-08770_E_tif
  70
32
  10
184175.500
  20
4562784.793
  30
-14523.6
  0
VERTEX
  8
PNOA-H_AMS_1956-57_33k_ES_PAN_21mic_H50_0449_fot_50A-08770_E_tif
  70
32
  10
184179.500
  20
4562789.793
  30
-17838.25
  0
VERTEX
  8
PNOA-H_AMS_1956-57_33k_ES_PAN_21mic_H50_0449_fot_50A-08770_E_tif
  70
32
  10
184190.500
  20
4562789.793
  30
-14518.65
  0
VERTEX
  8
PNOA-H_AMS_1956-57_33k_ES_PAN_21mic_H50_0449_fot_50A-08770_E_tif
  70
32
  10
184194.500
  20
4562794.793
  30
-17834.199
  0
VERTEX
  8
PNOA-H_AMS_1956-57_33k_ES_PAN_21mic_H50_0449_fot_50A-08770_E_tif
  70
32
  10
184205.500
  20
4562794.793
  30
-14514.4
  0
VERTEX
  8
PNOA-H_AMS_1956-57_33k_ES_PAN_21mic_H50_0449_fot_50A-08770_E_tif
  70
32
  10
184209.500
  20
4562799.793
  30
-17831.5
  0
VERTEX
  8
PNOA-H_AMS_1956-57_33k_ES_PAN_21mic_H50_0449_fot_50A-08770_E_tif
  70
32
  10
184215.500
  20
4562799.793
  30
-14512.4
  0
VERTEX
  8
PNOA-H_AMS_1956-57_33k_ES_PAN_21mic_H50_0449_fot_50A-08770_E_tif
  70
32
  10
184229.500
  20
4562814.793
  30
-17832.4
  0
VERTEX
  8
PNOA-H_AMS_1956-57_33k_ES_PAN_21mic_H50_0449_fot_50A-08770_E_tif
  70
32
  10
184235.500
  20
4562814.793
  30
-14513.35
  0
VERTEX
  8
PNOA-H_AMS_1956-57_33k_ES_PAN_21mic_H50_0449_fot_50A-08770_E_tif
  70
32
  10
184239.500
  20
4562819.793
  30
-17830.6
  0
VERTEX
  8
PNOA-H_AMS_1956-57_33k_ES_PAN_21mic_H50_0449_fot_50A-08770_E_tif
  70
32
  10
184250.500
  20
4562819.793
  30
-14509.15
  0
VERTEX
  8
PNOA-H_AMS_1956-57_33k_ES_PAN_21mic_H50_0449_fot_50A-08770_E_tif
  70
32
  10
184254.500
  20
4562824.793
  30
-17825.65
  0
VERTEX
  8
PNOA-H_AMS_1956-57_33k_ES_PAN_21mic_H50_0449_fot_50A-08770_E_tif
  70
32
  10
184265.500
  20
4562824.793
  30
-14503.7
  0
VERTEX
  8
PNOA-H_AMS_1956-57_33k_ES_PAN_21mic_H50_0449_fot_50A-08770_E_tif
  70
32
  10
184269.500
  20
4562829.793
  30
-17821.6
  0
VERTEX
  8
PNOA-H_AMS_1956-57_33k_ES_PAN_21mic_H50_0449_fot_50A-08770_E_tif
  70
32
  10
184285.500
  20
4562829.793
  30
-14495.4
  0
VERTEX
  8
PNOA-H_AMS_1956-57_33k_ES_PAN_21mic_H50_0449_fot_50A-08770_E_tif
  70
32
  10
184289.500
  20
4562834.793
  30
-17814.4
  0
VERTEX
  8
PNOA-H_AMS_1956-57_33k_ES_PAN_21mic_H50_0449_fot_50A-08770_E_tif
  70
32
  10
184300.500
  20
4562834.793
  30
-14489.35
  0
VERTEX
  8
PNOA-H_AMS_1956-57_33k_ES_PAN_21mic_H50_0449_fot_50A-08770_E_tif
  70
32
  10
184304.500
  20
4562839.793
  30
-17809.449
  0
VERTEX
  8
PNOA-H_AMS_1956-57_33k_ES_PAN_21mic_H50_0449_fot_50A-08770_E_tif
  70
32
  10
184315.500
  20
4562839.793
  30
-14483.95
  0
VERTEX
  8
PNOA-H_AMS_1956-57_33k_ES_PAN_21mic_H50_0449_fot_50A-08770_E_tif
  70
32
  10
184319.500
  20
4562844.793
  30
-17805.85
  0
VERTEX
  8
PNOA-H_AMS_1956-57_33k_ES_PAN_21mic_H50_0449_fot_50A-08770_E_tif
  70
32
  10
184325.500
  20
4562844.793
  30
-14480.85
  0
VERTEX
  8
PNOA-H_AMS_1956-57_33k_ES_PAN_21mic_H50_0449_fot_50A-08770_E_tif
  70
32
  10
184334.500
  20
4562854.793
  30
-17804.051
  0
VERTEX
  8
PNOA-H_AMS_1956-57_33k_ES_PAN_21mic_H50_0449_fot_50A-08770_E_tif
  70
32
  10
184345.500
  20
4562854.793
  30
-14478.05
  0
VERTEX
  8
PNOA-H_AMS_1956-57_33k_ES_PAN_21mic_H50_0449_fot_50A-08770_E_tif
  70
32
  10
184349.500
  20
4562859.793
  30
-17801.35
  0
VERTEX
  8
PNOA-H_AMS_1956-57_33k_ES_PAN_21mic_H50_0449_fot_50A-08770_E_tif
  70
32
  10
184360.500
  20
4562859.793
  30
-14473.1
  0
VERTEX
  8
PNOA-H_AMS_1956-57_33k_ES_PAN_21mic_H50_0449_fot_50A-08770_E_tif
  70
32
  10
184364.500
  20
4562864.793
  30
-17797.301
  0
VERTEX
  8
PNOA-H_AMS_1956-57_33k_ES_PAN_21mic_H50_0449_fot_50A-08770_E_tif
  70
32
  10
184370.500
  20
4562864.793
  30
-14470.25
  0
VERTEX
  8
PNOA-H_AMS_1956-57_33k_ES_PAN_21mic_H50_0449_fot_50A-08770_E_tif
  70
32
  10
184374.500
  20
4562869.793
  30
-17794.6
  0
VERTEX
  8
PNOA-H_AMS_1956-57_33k_ES_PAN_21mic_H50_0449_fot_50A-08770_E_tif
  70
32
  10
184380.500
  20
4562869.793
  30
-14467.05
  0
VERTEX
  8
PNOA-H_AMS_1956-57_33k_ES_PAN_21mic_H50_0449_fot_50A-08770_E_tif
  70
32
  10
184384.500
  20
4562874.793
  30
-17792.35
  0
VERTEX
  8
PNOA-H_AMS_1956-57_33k_ES_PAN_21mic_H50_0449_fot_50A-08770_E_tif
  70
32
  10
184395.500
  20
4562874.793
  30
-14463.1
  0
VERTEX
  8
PNOA-H_AMS_1956-57_33k_ES_PAN_21mic_H50_0449_fot_50A-08770_E_tif
  70
32
  10
184399.500
  20
4562879.793
  30
-17788.75
  0
VERTEX
  8
PNOA-H_AMS_1956-57_33k_ES_PAN_21mic_H50_0449_fot_50A-08770_E_tif
  70
32
  10
184405.500
  20
4562879.793
  30
-14459.9
  0
VERTEX
  8
PNOA-H_AMS_1956-57_33k_ES_PAN_21mic_H50_0449_fot_50A-08770_E_tif
  70
32
  10
184409.500
  20
4562884.793
  30
-17786.5
  0
VERTEX
  8
PNOA-H_AMS_1956-57_33k_ES_PAN_21mic_H50_0449_fot_50A-08770_E_tif
  70
32
  10
184420.500
  20
4562884.793
  30
-14455.5
  0
VERTEX
  8
PNOA-H_AMS_1956-57_33k_ES_PAN_21mic_H50_0449_fot_50A-08770_E_tif
  70
32
  10
184424.500
  20
4562889.793
  30
-17782.9
  0
VERTEX
  8
PNOA-H_AMS_1956-57_33k_ES_PAN_21mic_H50_0449_fot_50A-08770_E_tif
  70
32
  10
184435.500
  20
4562889.793
  30
-14451.55
  0
VERTEX
  8
PNOA-H_AMS_1956-57_33k_ES_PAN_21mic_H50_0449_fot_50A-08770_E_tif
  70
32
  10
184439.500
  20
4562894.793
  30
-17779.301
  0
VERTEX
  8
PNOA-H_AMS_1956-57_33k_ES_PAN_21mic_H50_0449_fot_50A-08770_E_tif
  70
32
  10
184445.500
  20
4562894.793
  30
-14448.4
  0
VERTEX
  8
PNOA-H_AMS_1956-57_33k_ES_PAN_21mic_H50_0449_fot_50A-08770_E_tif
  70
32
  10
184449.500
  20
4562899.793
  30
-17777.5
  0
VERTEX
  8
PNOA-H_AMS_1956-57_33k_ES_PAN_21mic_H50_0449_fot_50A-08770_E_tif
  70
32
  10
184455.500
  20
4562899.793
  30
-14446.25
  0
VERTEX
  8
PNOA-H_AMS_1956-57_33k_ES_PAN_21mic_H50_0449_fot_50A-08770_E_tif
  70
32
  10
184459.500
  20
4562904.793
  30
-17775.699
  0
VERTEX
  8
PNOA-H_AMS_1956-57_33k_ES_PAN_21mic_H50_0449_fot_50A-08770_E_tif
  70
32
  10
184470.500
  20
4562904.793
  30
-14443.5
  0
VERTEX
  8
PNOA-H_AMS_1956-57_33k_ES_PAN_21mic_H50_0449_fot_50A-08770_E_tif
  70
32
  10
184474.500
  20
4562909.793
  30
-17773.9
  0
VERTEX
  8
PNOA-H_AMS_1956-57_33k_ES_PAN_21mic_H50_0449_fot_50A-08770_E_tif
  70
32
  10
184480.500
  20
4562909.793
  30
-14441.3
  0
VERTEX
  8
PNOA-H_AMS_1956-57_33k_ES_PAN_21mic_H50_0449_fot_50A-08770_E_tif
  70
32
  10
184484.500
  20
4562914.793
  30
-17771.65
  0
VERTEX
  8
PNOA-H_AMS_1956-57_33k_ES_PAN_21mic_H50_0449_fot_50A-08770_E_tif
  70
32
  10
184490.500
  20
4562914.793
  30
-14439.05
  0
VERTEX
  8
PNOA-H_AMS_1956-57_33k_ES_PAN_21mic_H50_0449_fot_50A-08770_E_tif
  70
32
  10
184494.500
  20
4562919.793
  30
-17769.85
  0
VERTEX
  8
PNOA-H_AMS_1956-57_33k_ES_PAN_21mic_H50_0449_fot_50A-08770_E_tif
  70
32
  10
184500.500
  20
4562919.793
  30
-14437
  0
VERTEX
  8
PNOA-H_AMS_1956-57_33k_ES_PAN_21mic_H50_0449_fot_50A-08770_E_tif
  70
32
  10
184504.500
  20
4562924.793
  30
-17768.949
  0
VERTEX
  8
PNOA-H_AMS_1956-57_33k_ES_PAN_21mic_H50_0449_fot_50A-08770_E_tif
  70
32
  10
184510.500
  20
4562924.793
  30
-14435.75
  0
VERTEX
  8
PNOA-H_AMS_1956-57_33k_ES_PAN_21mic_H50_0449_fot_50A-08770_E_tif
  70
32
  10
184514.500
  20
4562929.793
  30
-17767.15
  0
VERTEX
  8
PNOA-H_AMS_1956-57_33k_ES_PAN_21mic_H50_0449_fot_50A-08770_E_tif
  70
32
  10
184520.500
  20
4562929.793
  30
-14433.45
  0
VERTEX
  8
PNOA-H_AMS_1956-57_33k_ES_PAN_21mic_H50_0449_fot_50A-08770_E_tif
  70
32
  10
184524.500
  20
4562934.793
  30
-17764.9
  0
VERTEX
  8
PNOA-H_AMS_1956-57_33k_ES_PAN_21mic_H50_0449_fot_50A-08770_E_tif
  70
32
  10
184530.500
  20
4562934.793
  30
-14430.85
  0
VERTEX
  8
PNOA-H_AMS_1956-57_33k_ES_PAN_21mic_H50_0449_fot_50A-08770_E_tif
  70
32
  10
184534.500
  20
4562939.793
  30
-17763.551
  0
VERTEX
  8
PNOA-H_AMS_1956-57_33k_ES_PAN_21mic_H50_0449_fot_50A-08770_E_tif
  70
32
  10
184540.500
  20
4562939.793
  30
-14429.4
  0
VERTEX
  8
PNOA-H_AMS_1956-57_33k_ES_PAN_21mic_H50_0449_fot_50A-08770_E_tif
  70
32
  10
184544.500
  20
4562944.793
  30
-17763.1
  0
VERTEX
  8
PNOA-H_AMS_1956-57_33k_ES_PAN_21mic_H50_0449_fot_50A-08770_E_tif
  70
32
  10
184550.500
  20
4562944.793
  30
-14428.8
  0
VERTEX
  8
PNOA-H_AMS_1956-57_33k_ES_PAN_21mic_H50_0449_fot_50A-08770_E_tif
  70
32
  10
184554.500
  20
4562949.793
  30
-17762.65
  0
VERTEX
  8
PNOA-H_AMS_1956-57_33k_ES_PAN_21mic_H50_0449_fot_50A-08770_E_tif
  70
32
  10
184560.500
  20
4562949.793
  30
-14428.2
  0
VERTEX
  8
PNOA-H_AMS_1956-57_33k_ES_PAN_21mic_H50_0449_fot_50A-08770_E_tif
  70
32
  10
184569.500
  20
4562959.793
  30
-17761.301
  0
VERTEX
  8
PNOA-H_AMS_1956-57_33k_ES_PAN_21mic_H50_0449_fot_50A-08770_E_tif
  70
32
  10
184575.500
  20
4562959.793
  30
-14426.6
  0
VERTEX
  8
PNOA-H_AMS_1956-57_33k_ES_PAN_21mic_H50_0449_fot_50A-08770_E_tif
  70
32
  10
184579.500
  20
4562964.793
  30
-17760.85
  0
VERTEX
  8
PNOA-H_AMS_1956-57_33k_ES_PAN_21mic_H50_0449_fot_50A-08770_E_tif
  70
32
  10
184585.500
  20
4562964.793
  30
-14426.15
  0
VERTEX
  8
PNOA-H_AMS_1956-57_33k_ES_PAN_21mic_H50_0449_fot_50A-08770_E_tif
  70
32
  10
184604.500
  20
4562984.793
  30
-17762.65
  0
VERTEX
  8
PNOA-H_AMS_1956-57_33k_ES_PAN_21mic_H50_0449_fot_50A-08770_E_tif
  70
32
  10
184610.500
  20
4562984.793
  30
-14428.95
  0
VERTEX
  8
PNOA-H_AMS_1956-57_33k_ES_PAN_21mic_H50_0449_fot_50A-08770_E_tif
  70
32
  10
184619.500
  20
4562994.793
  30
-17764
  0
VERTEX
  8
PNOA-H_AMS_1956-57_33k_ES_PAN_21mic_H50_0449_fot_50A-08770_E_tif
  70
32
  10
184625.500
  20
4562994.793
  30
-14430.2
  0
VERTEX
  8
PNOA-H_AMS_1956-57_33k_ES_PAN_21mic_H50_0449_fot_50A-08770_E_tif
  70
32
  10
184634.500
  20
4563004.793
  30
-17765.801
  0
VERTEX
  8
PNOA-H_AMS_1956-57_33k_ES_PAN_21mic_H50_0449_fot_50A-08770_E_tif
  70
32
  10
184640.500
  20
4563004.793
  30
-14432.25
  0
VERTEX
  8
PNOA-H_AMS_1956-57_33k_ES_PAN_21mic_H50_0449_fot_50A-08770_E_tif
  70
32
  10
184644.500
  20
4563009.793
  30
-17766.25
  0
VERTEX
  8
PNOA-H_AMS_1956-57_33k_ES_PAN_21mic_H50_0449_fot_50A-08770_E_tif
  70
32
  10
184655.500
  20
4563009.793
  30
-14432.75
  0
VERTEX
  8
PNOA-H_AMS_1956-57_33k_ES_PAN_21mic_H50_0449_fot_50A-08770_E_tif
  70
32
  10
184669.500
  20
4563024.793
  30
-17766.25
  0
VERTEX
  8
PNOA-H_AMS_1956-57_33k_ES_PAN_21mic_H50_0449_fot_50A-08770_E_tif
  70
32
  10
184675.500
  20
4563024.793
  30
-14432.7
  0
VERTEX
  8
PNOA-H_AMS_1956-57_33k_ES_PAN_21mic_H50_0449_fot_50A-08770_E_tif
  70
32
  10
184684.500
  20
4563034.793
  30
-17765.35
  0
VERTEX
  8
PNOA-H_AMS_1956-57_33k_ES_PAN_21mic_H50_0449_fot_50A-08770_E_tif
  70
32
  10
184690.500
  20
4563034.793
  30
-14431.55
  0
VERTEX
  8
PNOA-H_AMS_1956-57_33k_ES_PAN_21mic_H50_0449_fot_50A-08770_E_tif
  70
32
  10
184694.500
  20
4563039.793
  30
-17764.9
  0
VERTEX
  8
PNOA-H_AMS_1956-57_33k_ES_PAN_21mic_H50_0449_fot_50A-08770_E_tif
  70
32
  10
184700.500
  20
4563039.793
  30
-14430.5
  0
VERTEX
  8
PNOA-H_AMS_1956-57_33k_ES_PAN_21mic_H50_0449_fot_50A-08770_E_tif
  70
32
  10
184719.500
  20
4563059.793
  30
-17763.551
  0
VERTEX
  8
PNOA-H_AMS_1956-57_33k_ES_PAN_21mic_H50_0449_fot_50A-08770_E_tif
  70
32
  10
184725.500
  20
4563059.793
  30
-14429.55
  0
VERTEX
  8
PNOA-H_AMS_1956-57_33k_ES_PAN_21mic_H50_0449_fot_50A-08770_E_tif
  70
32
  10
184734.500
  20
4563069.793
  30
-17764
  0
VERTEX
  8
PNOA-H_AMS_1956-57_33k_ES_PAN_21mic_H50_0449_fot_50A-08770_E_tif
  70
32
  10
184740.500
  20
4563069.793
  30
-14429.95
  0
VERTEX
  8
PNOA-H_AMS_1956-57_33k_ES_PAN_21mic_H50_0449_fot_50A-08770_E_tif
  70
32
  10
184749.500
  20
4563079.793
  30
-17763.1
  0
VERTEX
  8
PNOA-H_AMS_1956-57_33k_ES_PAN_21mic_H50_0449_fot_50A-08770_E_tif
  70
32
  10
184755.500
  20
4563079.793
  30
-14428.85
  0
VERTEX
  8
PNOA-H_AMS_1956-57_33k_ES_PAN_21mic_H50_0449_fot_50A-08770_E_tif
  70
32
  10
184764.500
  20
4563089.793
  30
-17762.199
  0
VERTEX
  8
PNOA-H_AMS_1956-57_33k_ES_PAN_21mic_H50_0449_fot_50A-08770_E_tif
  70
32
  10
184770.500
  20
4563089.793
  30
-14427.75
  0
VERTEX
  8
PNOA-H_AMS_1956-57_33k_ES_PAN_21mic_H50_0449_fot_50A-08770_E_tif
  70
32
  10
184779.500
  20
4563099.793
  30
-17761.301
  0
VERTEX
  8
PNOA-H_AMS_1956-57_33k_ES_PAN_21mic_H50_0449_fot_50A-08770_E_tif
  70
32
  10
184785.500
  20
4563099.793
  30
-14426.55
  0
VERTEX
  8
PNOA-H_AMS_1956-57_33k_ES_PAN_21mic_H50_0449_fot_50A-08770_E_tif
  70
32
  10
184789.500
  20
4563104.793
  30
-17760.4
  0
VERTEX
  8
PNOA-H_AMS_1956-57_33k_ES_PAN_21mic_H50_0449_fot_50A-08770_E_tif
  70
32
  10
184795.500
  20
4563104.793
  30
-14425.45
  0
VERTEX
  8
PNOA-H_AMS_1956-57_33k_ES_PAN_21mic_H50_0449_fot_50A-08770_E_tif
  70
32
  10
184799.500
  20
4563109.793
  30
-17759.5
  0
VERTEX
  8
PNOA-H_AMS_1956-57_33k_ES_PAN_21mic_H50_0449_fot_50A-08770_E_tif
  70
32
  10
184805.500
  20
4563109.793
  30
-14424.3
  0
VERTEX
  8
PNOA-H_AMS_1956-57_33k_ES_PAN_21mic_H50_0449_fot_50A-08770_E_tif
  70
32
  10
184814.500
  20
4563119.793
  30
-17757.25
  0
VERTEX
  8
PNOA-H_AMS_1956-57_33k_ES_PAN_21mic_H50_0449_fot_50A-08770_E_tif
  70
32
  10
184820.500
  20
4563119.793
  30
-14421.6
  0
VERTEX
  8
PNOA-H_AMS_1956-57_33k_ES_PAN_21mic_H50_0449_fot_50A-08770_E_tif
  70
32
  10
184824.500
  20
4563124.793
  30
-17756.35
  0
VERTEX
  8
PNOA-H_AMS_1956-57_33k_ES_PAN_21mic_H50_0449_fot_50A-08770_E_tif
  70
32
  10
184830.500
  20
4563124.793
  30
-14420.45
  0
VERTEX
  8
PNOA-H_AMS_1956-57_33k_ES_PAN_21mic_H50_0449_fot_50A-08770_E_tif
  70
32
  10
184834.500
  20
4563129.793
  30
-17755
  0
VERTEX
  8
PNOA-H_AMS_1956-57_33k_ES_PAN_21mic_H50_0449_fot_50A-08770_E_tif
  70
32
  10
184840.500
  20
4563129.793
  30
-14418.85
  0
VERTEX
  8
PNOA-H_AMS_1956-57_33k_ES_PAN_21mic_H50_0449_fot_50A-08770_E_tif
  70
32
  10
184844.500
  20
4563134.793
  30
-17754.1
  0
VERTEX
  8
PNOA-H_AMS_1956-57_33k_ES_PAN_21mic_H50_0449_fot_50A-08770_E_tif
  70
32
  10
184850.500
  20
4563134.793
  30
-14417.8
  0
VERTEX
  8
PNOA-H_AMS_1956-57_33k_ES_PAN_21mic_H50_0449_fot_50A-08770_E_tif
  70
32
  10
184854.500
  20
4563139.793
  30
-17753.65
  0
VERTEX
  8
PNOA-H_AMS_1956-57_33k_ES_PAN_21mic_H50_0449_fot_50A-08770_E_tif
  70
32
  10
184860.500
  20
4563139.793
  30
-14417.3
  0
VERTEX
  8
PNOA-H_AMS_1956-57_33k_ES_PAN_21mic_H50_0449_fot_50A-08770_E_tif
  70
32
  10
184869.500
  20
4563149.793
  30
-17753.65
  0
VERTEX
  8
PNOA-H_AMS_1956-57_33k_ES_PAN_21mic_H50_0449_fot_50A-08770_E_tif
  70
32
  10
184875.500
  20
4563149.793
  30
-14417.5
  0
VERTEX
  8
PNOA-H_AMS_1956-57_33k_ES_PAN_21mic_H50_0449_fot_50A-08770_E_tif
  70
32
  10
184894.500
  20
4563169.793
  30
-17755.9
  0
VERTEX
  8
PNOA-H_AMS_1956-57_33k_ES_PAN_21mic_H50_0449_fot_50A-08770_E_tif
  70
32
  10
184900.500
  20
4563169.793
  30
-14420.1
  0
VERTEX
  8
PNOA-H_AMS_1956-57_33k_ES_PAN_21mic_H50_0449_fot_50A-08770_E_tif
  70
32
  10
184909.500
  20
4563179.793
  30
-17755.449
  0
VERTEX
  8
PNOA-H_AMS_1956-57_33k_ES_PAN_21mic_H50_0449_fot_50A-08770_E_tif
  70
32
  10
184915.500
  20
4563179.793
  30
-14419.4
  0
VERTEX
  8
PNOA-H_AMS_1956-57_33k_ES_PAN_21mic_H50_0449_fot_50A-08770_E_tif
  70
32
  10
184924.500
  20
4563189.793
  30
-17754.551
  0
VERTEX
  8
PNOA-H_AMS_1956-57_33k_ES_PAN_21mic_H50_0449_fot_50A-08770_E_tif
  70
32
  10
184940.500
  20
4563189.793
  30
-14416.25
  0
VERTEX
  8
PNOA-H_AMS_1956-57_33k_ES_PAN_21mic_H50_0449_fot_50A-08770_E_tif
  70
32
  10
184942.500
  20
4563191.793
  30
-14416.25
  0
VERTEX
  8
PNOA-H_AMS_1956-57_33k_ES_PAN_21mic_H50_0449_fot_50A-08770_E_tif
  70
32
  10
184942.500
  20
4563197.793
  30
-17752.75
  0
VERTEX
  8
PNOA-H_AMS_1956-57_33k_ES_PAN_21mic_H50_0449_fot_50A-08770_E_tif
  70
32
  10
184949.500
  20
4563204.793
  30
-17752.75
  0
VERTEX
  8
PNOA-H_AMS_1956-57_33k_ES_PAN_21mic_H50_0449_fot_50A-08770_E_tif
  70
32
  10
184954.000
  20
4563204.793
  30
-16084.5
  0
VERTEX
  8
PNOA-H_AMS_1956-57_33k_ES_PAN_21mic_H50_0449_fot_50A-08770_E_tif
  70
32
  10
184984.000
  20
4560713.793
  30
358.2
  0
VERTEX
  8
PNOA-H_AMS_1956-57_33k_ES_PAN_21mic_H50_0449_fot_50A-08770_E_tif
  70
32
  10
184424.000
  20
4560377.293
  30
311.4
  0
VERTEX
  8
PNOA-H_AMS_1956-57_33k_ES_PAN_21mic_H50_0449_fot_50A-08770_E_tif
  70
32
  10
183330.000
  20
4560468.706
  30
-6971.459
  0
SEQEND
  8
PNOA-H_AMS_1956-57_33k_ES_PAN_21mic_H50_0449_fot_50A-08770_E_tif
  0
TEXT
  8
PNOA-H_AMS_1956-57_33k_ES_PAN_21mic_H50_0449_fot_50A-08770_E_tif
 62
0
  1
PNOA-H_AMS_1956-57_33k_ES_PAN_21mic_H50_0449_fot_50A-08770_E.tif
 40
41.85758
  10
184150.513
  20
4561791.043
  0
POLYLINE
  8
PNOA-H_AMS_1956-57_33k_ES_PAN_21mic_H50_0449_fot_51A-08820_E_tif
  70
9
  66
1
  0
VERTEX
  8
PNOA-H_AMS_1956-57_33k_ES_PAN_21mic_H50_0449_fot_51A-08820_E_tif
  70
32
  10
182010.258
  20
4559900.000
  30
-12139.292
  0
VERTEX
  8
PNOA-H_AMS_1956-57_33k_ES_PAN_21mic_H50_0449_fot_51A-08820_E_tif
  70
32
  10
183330.000
  20
4559900.000
  30
-2854.94
  0
VERTEX
  8
PNOA-H_AMS_1956-57_33k_ES_PAN_21mic_H50_0449_fot_51A-08820_E_tif
  70
32
  10
183330.000
  20
4560468.660
  30
-6969.602
  0
VERTEX
  8
PNOA-H_AMS_1956-57_33k_ES_PAN_21mic_H50_0449_fot_51A-08820_E_tif
  70
32
  10
184423.000
  20
4560377.293
  30
310.8
  0
VERTEX
  8
PNOA-H_AMS_1956-57_33k_ES_PAN_21mic_H50_0449_fot_51A-08820_E_tif
  70
32
  10
184506.000
  20
4557355.793
  30
189
  0
VERTEX
  8
PNOA-H_AMS_1956-57_33k_ES_PAN_21mic_H50_0449_fot_51A-08820_E_tif
  70
32
  10
184505.500
  20
4557350.293
  30
189
  0
VERTEX
  8
PNOA-H_AMS_1956-57_33k_ES_PAN_21mic_H50_0449_fot_51A-08820_E_tif
  70
32
  10
183997.500
  20
4556991.793
  30
-16207.05
  0
VERTEX
  8
PNOA-H_AMS_1956-57_33k_ES_PAN_21mic_H50_0449_fot_51A-08820_E_tif
  70
32
  10
183997.500
  20
4557992.793
  30
-14599.25
  0
VERTEX
  8
PNOA-H_AMS_1956-57_33k_ES_PAN_21mic_H50_0449_fot_51A-08820_E_tif
  70
32
  10
183995.500
  20
4557994.793
  30
-14598.45
  0
VERTEX
  8
PNOA-H_AMS_1956-57_33k_ES_PAN_21mic_H50_0449_fot_51A-08820_E_tif
  70
32
  10
183964.500
  20
4557994.793
  30
-14595.95
  0
VERTEX
  8
PNOA-H_AMS_1956-57_33k_ES_PAN_21mic_H50_0449_fot_51A-08820_E_tif
  70
32
  10
183960.500
  20
4557989.793
  30
-17899.449
  0
VERTEX
  8
PNOA-H_AMS_1956-57_33k_ES_PAN_21mic_H50_0449_fot_51A-08820_E_tif
  70
32
  10
183324.500
  20
4557989.793
  30
-17868.85
  0
VERTEX
  8
PNOA-H_AMS_1956-57_33k_ES_PAN_21mic_H50_0449_fot_51A-08820_E_tif
  70
32
  10
183320.500
  20
4557994.793
  30
-14558.15
  0
VERTEX
  8
PNOA-H_AMS_1956-57_33k_ES_PAN_21mic_H50_0449_fot_51A-08820_E_tif
  70
32
  10
182684.500
  20
4557994.793
  30
-14494.3
  0
VERTEX
  8
PNOA-H_AMS_1956-57_33k_ES_PAN_21mic_H50_0449_fot_51A-08820_E_tif
  70
32
  10
182680.500
  20
4557989.793
  30
-17816.65
  0
VERTEX
  8
PNOA-H_AMS_1956-57_33k_ES_PAN_21mic_H50_0449_fot_51A-08820_E_tif
  70
32
  10
182044.500
  20
4557989.793
  30
-17800
  0
VERTEX
  8
PNOA-H_AMS_1956-57_33k_ES_PAN_21mic_H50_0449_fot_51A-08820_E_tif
  70
32
  10
182040.500
  20
4557994.793
  30
-14474
  0
VERTEX
  8
PNOA-H_AMS_1956-57_33k_ES_PAN_21mic_H50_0449_fot_51A-08820_E_tif
  70
32
  10
182014.500
  20
4557994.793
  30
-16136.5
  0
VERTEX
  8
PNOA-H_AMS_1956-57_33k_ES_PAN_21mic_H50_0449_fot_51A-08820_E_tif
  70
32
  10
182016.000
  20
4558000.293
  30
494.6
  0
VERTEX
  8
PNOA-H_AMS_1956-57_33k_ES_PAN_21mic_H50_0449_fot_51A-08820_E_tif
  70
32
  10
182013.000
  20
4558003.293
  30
495.08
  0
VERTEX
  8
PNOA-H_AMS_1956-57_33k_ES_PAN_21mic_H50_0449_fot_51A-08820_E_tif
  70
32
  10
182008.000
  20
4558002.293
  30
-12809.8
  0
VERTEX
  8
PNOA-H_AMS_1956-57_33k_ES_PAN_21mic_H50_0449_fot_51A-08820_E_tif
  70
32
  10
182008.500
  20
4558648.793
  30
-9500.61
  0
VERTEX
  8
PNOA-H_AMS_1956-57_33k_ES_PAN_21mic_H50_0449_fot_51A-08820_E_tif
  70
32
  10
182011.000
  20
4558652.293
  30
470
  0
VERTEX
  8
PNOA-H_AMS_1956-57_33k_ES_PAN_21mic_H50_0449_fot_51A-08820_E_tif
  70
32
  10
182012.000
  20
4559894.793
  30
540.3
  0
VERTEX
  8
PNOA-H_AMS_1956-57_33k_ES_PAN_21mic_H50_0449_fot_51A-08820_E_tif
  70
32
  10
182007.500
  20
4559897.793
  30
-17778.4
  0
VERTEX
  8
PNOA-H_AMS_1956-57_33k_ES_PAN_21mic_H50_0449_fot_51A-08820_E_tif
  70
32
  10
182010.258
  20
4559900.000
  30
-12139.292
  0
SEQEND
  8
PNOA-H_AMS_1956-57_33k_ES_PAN_21mic_H50_0449_fot_51A-08820_E_tif
  0
TEXT
  8
PNOA-H_AMS_1956-57_33k_ES_PAN_21mic_H50_0449_fot_51A-08820_E_tif
 62
0
  1
PNOA-H_AMS_1956-57_33k_ES_PAN_21mic_H50_0449_fot_51A-08820_E.tif
 40
41.85758
  10
183239.654
  20
4558730.227
  0
POLYLINE
  8
PNOA-H_AMS_1956-57_33k_ES_PAN_21mic_H50_0449_fot_51A-08821_E_tif
  70
9
  66
1
  0
VERTEX
  8
PNOA-H_AMS_1956-57_33k_ES_PAN_21mic_H50_0449_fot_51A-08821_E_tif
  70
32
  10
185754.500
  20
4560623.293
  30
531
  0
VERTEX
  8
PNOA-H_AMS_1956-57_33k_ES_PAN_21mic_H50_0449_fot_51A-08821_E_tif
  70
32
  10
187399.000
  20
4560430.293
  30
603.92
  0
VERTEX
  8
PNOA-H_AMS_1956-57_33k_ES_PAN_21mic_H50_0449_fot_51A-08821_E_tif
  70
32
  10
187403.000
  20
4560429.793
  30
603.7
  0
VERTEX
  8
PNOA-H_AMS_1956-57_33k_ES_PAN_21mic_H50_0449_fot_51A-08821_E_tif
  70
32
  10
187404.000
  20
4560428.293
  30
603.36
  0
VERTEX
  8
PNOA-H_AMS_1956-57_33k_ES_PAN_21mic_H50_0449_fot_51A-08821_E_tif
  70
32
  10
187458.500
  20
4557150.793
  30
579.09
  0
VERTEX
  8
PNOA-H_AMS_1956-57_33k_ES_PAN_21mic_H50_0449_fot_51A-08821_E_tif
  70
32
  10
186212.500
  20
4556451.293
  30
411.8
  0
VERTEX
  8
PNOA-H_AMS_1956-57_33k_ES_PAN_21mic_H50_0449_fot_51A-08821_E_tif
  70
32
  10
186194.500
  20
4556459.793
  30
407.3
  0
VERTEX
  8
PNOA-H_AMS_1956-57_33k_ES_PAN_21mic_H50_0449_fot_51A-08821_E_tif
  70
32
  10
184506.000
  20
4557350.793
  30
189
  0
VERTEX
  8
PNOA-H_AMS_1956-57_33k_ES_PAN_21mic_H50_0449_fot_51A-08821_E_tif
  70
32
  10
184423.000
  20
4560377.293
  30
310.8
  0
VERTEX
  8
PNOA-H_AMS_1956-57_33k_ES_PAN_21mic_H50_0449_fot_51A-08821_E_tif
  70
32
  10
184983.500
  20
4560713.793
  30
358.1
  0
VERTEX
  8
PNOA-H_AMS_1956-57_33k_ES_PAN_21mic_H50_0449_fot_51A-08821_E_tif
  70
32
  10
185751.500
  20
4560623.293
  30
531
  0
VERTEX
  8
PNOA-H_AMS_1956-57_33k_ES_PAN_21mic_H50_0449_fot_51A-08821_E_tif
  70
32
  10
185754.500
  20
4560623.293
  30
531
  0
SEQEND
  8
PNOA-H_AMS_1956-57_33k_ES_PAN_21mic_H50_0449_fot_51A-08821_E_tif
  0
TEXT
  8
PNOA-H_AMS_1956-57_33k_ES_PAN_21mic_H50_0449_fot_51A-08821_E_tif
 62
0
  1
PNOA-H_AMS_1956-57_33k_ES_PAN_21mic_H50_0449_fot_51A-08821_E.tif
 40
41.85758
  10
185953.456
  20
4558582.543
  0
POLYLINE
  8
PNOA-H_AMS_1956-57_33k_ES_PAN_21mic_H50_0449_fot_51A-08823_E_tif
  70
9
  66
1
  0
VERTEX
  8
PNOA-H_AMS_1956-57_33k_ES_PAN_21mic_H50_0449_fot_51A-08823_E_tif
  70
32
  10
191898.500
  20
4560525.793
  30
686.3
  0
VERTEX
  8
PNOA-H_AMS_1956-57_33k_ES_PAN_21mic_H50_0449_fot_51A-08823_E_tif
  70
32
  10
193135.000
  20
4560287.293
  30
705
  0
VERTEX
  8
PNOA-H_AMS_1956-57_33k_ES_PAN_21mic_H50_0449_fot_51A-08823_E_tif
  70
32
  10
193190.500
  20
4556902.293
  30
746
  0
VERTEX
  8
PNOA-H_AMS_1956-57_33k_ES_PAN_21mic_H50_0449_fot_51A-08823_E_tif
  70
32
  10
192449.500
  20
4556417.293
  30
729
  0
VERTEX
  8
PNOA-H_AMS_1956-57_33k_ES_PAN_21mic_H50_0449_fot_51A-08823_E_tif
  70
32
  10
192445.500
  20
4556414.793
  30
729
  0
VERTEX
  8
PNOA-H_AMS_1956-57_33k_ES_PAN_21mic_H50_0449_fot_51A-08823_E_tif
  70
32
  10
192443.000
  20
4556414.793
  30
729
  0
VERTEX
  8
PNOA-H_AMS_1956-57_33k_ES_PAN_21mic_H50_0449_fot_51A-08823_E_tif
  70
32
  10
190250.000
  20
4557021.793
  30
671
  0
VERTEX
  8
PNOA-H_AMS_1956-57_33k_ES_PAN_21mic_H50_0449_fot_51A-08823_E_tif
  70
32
  10
190326.500
  20
4560335.293
  30
672.72
  0
VERTEX
  8
PNOA-H_AMS_1956-57_33k_ES_PAN_21mic_H50_0449_fot_51A-08823_E_tif
  70
32
  10
191123.000
  20
4560675.793
  30
668.58
  0
VERTEX
  8
PNOA-H_AMS_1956-57_33k_ES_PAN_21mic_H50_0449_fot_51A-08823_E_tif
  70
32
  10
191895.500
  20
4560526.293
  30
686.2
  0
VERTEX
  8
PNOA-H_AMS_1956-57_33k_ES_PAN_21mic_H50_0449_fot_51A-08823_E_tif
  70
32
  10
191898.500
  20
4560525.793
  30
686.3
  0
SEQEND
  8
PNOA-H_AMS_1956-57_33k_ES_PAN_21mic_H50_0449_fot_51A-08823_E_tif
  0
TEXT
  8
PNOA-H_AMS_1956-57_33k_ES_PAN_21mic_H50_0449_fot_51A-08823_E_tif
 62
0
  1
PNOA-H_AMS_1956-57_33k_ES_PAN_21mic_H50_0449_fot_51A-08823_E.tif
 40
41.85758
  10
191724.368
  20
4558545.293
  0
POLYLINE
  8
PNOA-H_AMS_1956-57_33k_ES_PAN_21mic_H50_0449_fot_51A-08822_E_tif
  70
9
  66
1
  0
VERTEX
  8
PNOA-H_AMS_1956-57_33k_ES_PAN_21mic_H50_0449_fot_51A-08822_E_tif
  70
32
  10
187802.000
  20
4560615.793
  30
616.6
  0
VERTEX
  8
PNOA-H_AMS_1956-57_33k_ES_PAN_21mic_H50_0449_fot_51A-08822_E_tif
  70
32
  10
188165.000
  20
4560784.793
  30
631.5
  0
VERTEX
  8
PNOA-H_AMS_1956-57_33k_ES_PAN_21mic_H50_0449_fot_51A-08822_E_tif
  70
32
  10
190326.500
  20
4560335.293
  30
672.72
  0
VERTEX
  8
PNOA-H_AMS_1956-57_33k_ES_PAN_21mic_H50_0449_fot_51A-08822_E_tif
  70
32
  10
190250.000
  20
4557021.793
  30
671
  0
VERTEX
  8
PNOA-H_AMS_1956-57_33k_ES_PAN_21mic_H50_0449_fot_51A-08822_E_tif
  70
32
  10
189346.000
  20
4556376.293
  30
656.16
  0
VERTEX
  8
PNOA-H_AMS_1956-57_33k_ES_PAN_21mic_H50_0449_fot_51A-08822_E_tif
  70
32
  10
189340.000
  20
4556377.793
  30
656
  0
VERTEX
  8
PNOA-H_AMS_1956-57_33k_ES_PAN_21mic_H50_0449_fot_51A-08822_E_tif
  70
32
  10
187458.500
  20
4557150.793
  30
579.09
  0
VERTEX
  8
PNOA-H_AMS_1956-57_33k_ES_PAN_21mic_H50_0449_fot_51A-08822_E_tif
  70
32
  10
187403.500
  20
4560429.293
  30
603.58
  0
VERTEX
  8
PNOA-H_AMS_1956-57_33k_ES_PAN_21mic_H50_0449_fot_51A-08822_E_tif
  70
32
  10
187801.000
  20
4560615.293
  30
616.8
  0
VERTEX
  8
PNOA-H_AMS_1956-57_33k_ES_PAN_21mic_H50_0449_fot_51A-08822_E_tif
  70
32
  10
187802.000
  20
4560615.793
  30
616.6
  0
SEQEND
  8
PNOA-H_AMS_1956-57_33k_ES_PAN_21mic_H50_0449_fot_51A-08822_E_tif
  0
TEXT
  8
PNOA-H_AMS_1956-57_33k_ES_PAN_21mic_H50_0449_fot_51A-08822_E_tif
 62
0
  1
PNOA-H_AMS_1956-57_33k_ES_PAN_21mic_H50_0449_fot_51A-08822_E.tif
 40
41.85758
  10
188860.251
  20
4558580.543
  0
POLYLINE
  8
PNOA-H_AMS_1956-57_33k_ES_PAN_21mic_H50_0449_fot_51A-08820_E_tif
  70
9
  66
1
  0
VERTEX
  8
PNOA-H_AMS_1956-57_33k_ES_PAN_21mic_H50_0449_fot_51A-08820_E_tif
  70
32
  10
183440.500
  20
4556004.793
  30
-16289
  0
VERTEX
  8
PNOA-H_AMS_1956-57_33k_ES_PAN_21mic_H50_0449_fot_51A-08820_E_tif
  70
32
  10
183445.500
  20
4556004.793
  30
-17936.801
  0
VERTEX
  8
PNOA-H_AMS_1956-57_33k_ES_PAN_21mic_H50_0449_fot_51A-08820_E_tif
  70
32
  10
183447.500
  20
4556002.793
  30
-17936.801
  0
VERTEX
  8
PNOA-H_AMS_1956-57_33k_ES_PAN_21mic_H50_0449_fot_51A-08820_E_tif
  70
32
  10
183447.500
  20
4555997.793
  30
-16289
  0
VERTEX
  8
PNOA-H_AMS_1956-57_33k_ES_PAN_21mic_H50_0449_fot_51A-08820_E_tif
  70
32
  10
183443.500
  20
4555995.793
  30
189
  0
VERTEX
  8
PNOA-H_AMS_1956-57_33k_ES_PAN_21mic_H50_0449_fot_51A-08820_E_tif
  70
32
  10
183441.500
  20
4555996.293
  30
189
  0
VERTEX
  8
PNOA-H_AMS_1956-57_33k_ES_PAN_21mic_H50_0449_fot_51A-08820_E_tif
  70
32
  10
183438.500
  20
4555999.793
  30
189
  0
VERTEX
  8
PNOA-H_AMS_1956-57_33k_ES_PAN_21mic_H50_0449_fot_51A-08820_E_tif
  70
32
  10
183440.000
  20
4556003.293
  30
-6402.2
  0
VERTEX
  8
PNOA-H_AMS_1956-57_33k_ES_PAN_21mic_H50_0449_fot_51A-08820_E_tif
  70
32
  10
183440.500
  20
4556004.793
  30
-16289
  0
SEQEND
  8
PNOA-H_AMS_1956-57_33k_ES_PAN_21mic_H50_0449_fot_51A-08820_E_tif
  0
TEXT
  8
PNOA-H_AMS_1956-57_33k_ES_PAN_21mic_H50_0449_fot_51A-08820_E_tif
 62
0
  1
PNOA-H_AMS_1956-57_33k_ES_PAN_21mic_H50_0449_fot_51A-08820_E.tif
 40
41.85758
  10
183443.107
  20
4556000.293
  0
POLYLINE
  8
PNOA-H_AMS_1956-57_33k_ES_PAN_21mic_H50_0449_fot_52A-25907_E_tif
  70
9
  66
1
  0
VERTEX
  8
PNOA-H_AMS_1956-57_33k_ES_PAN_21mic_H50_0449_fot_52A-25907_E_tif
  70
32
  10
187458.000
  20
4557150.793
  30
579.12
  0
VERTEX
  8
PNOA-H_AMS_1956-57_33k_ES_PAN_21mic_H50_0449_fot_52A-25907_E_tif
  70
32
  10
189345.000
  20
4556376.293
  30
656
  0
VERTEX
  8
PNOA-H_AMS_1956-57_33k_ES_PAN_21mic_H50_0449_fot_52A-25907_E_tif
  70
32
  10
189299.000
  20
4555481.793
  30
648
  0
VERTEX
  8
PNOA-H_AMS_1956-57_33k_ES_PAN_21mic_H50_0449_fot_52A-25907_E_tif
  70
32
  10
188904.500
  20
4554665.293
  30
638
  0
VERTEX
  8
PNOA-H_AMS_1956-57_33k_ES_PAN_21mic_H50_0449_fot_52A-25907_E_tif
  70
32
  10
188902.500
  20
4554661.293
  30
638
  0
VERTEX
  8
PNOA-H_AMS_1956-57_33k_ES_PAN_21mic_H50_0449_fot_52A-25907_E_tif
  70
32
  10
188895.500
  20
4554661.793
  30
637.91
  0
VERTEX
  8
PNOA-H_AMS_1956-57_33k_ES_PAN_21mic_H50_0449_fot_52A-25907_E_tif
  70
32
  10
186153.000
  20
4555094.793
  30
618.8
  0
VERTEX
  8
PNOA-H_AMS_1956-57_33k_ES_PAN_21mic_H50_0449_fot_52A-25907_E_tif
  70
32
  10
186146.000
  20
4555116.793
  30
614.48
  0
VERTEX
  8
PNOA-H_AMS_1956-57_33k_ES_PAN_21mic_H50_0449_fot_52A-25907_E_tif
  70
32
  10
186146.000
  20
4555124.293
  30
614.12
  0
VERTEX
  8
PNOA-H_AMS_1956-57_33k_ES_PAN_21mic_H50_0449_fot_52A-25907_E_tif
  70
32
  10
186212.000
  20
4556451.293
  30
411.6
  0
VERTEX
  8
PNOA-H_AMS_1956-57_33k_ES_PAN_21mic_H50_0449_fot_52A-25907_E_tif
  70
32
  10
187457.500
  20
4557149.793
  30
579.25
  0
VERTEX
  8
PNOA-H_AMS_1956-57_33k_ES_PAN_21mic_H50_0449_fot_52A-25907_E_tif
  70
32
  10
187458.000
  20
4557150.793
  30
579.12
  0
SEQEND
  8
PNOA-H_AMS_1956-57_33k_ES_PAN_21mic_H50_0449_fot_52A-25907_E_tif
  0
TEXT
  8
PNOA-H_AMS_1956-57_33k_ES_PAN_21mic_H50_0449_fot_52A-25907_E_tif
 62
0
  1
PNOA-H_AMS_1956-57_33k_ES_PAN_21mic_H50_0449_fot_52A-25907_E.tif
 40
41.85758
  10
187752.849
  20
4555906.043
  0
POLYLINE
  8
PNOA-H_AMS_1956-57_33k_ES_PAN_21mic_H50_0449_fot_52A-25906_E_tif
  70
9
  66
1
  0
VERTEX
  8
PNOA-H_AMS_1956-57_33k_ES_PAN_21mic_H50_0449_fot_52A-25906_E_tif
  70
32
  10
185754.500
  20
4556692.293
  30
282.6
  0
VERTEX
  8
PNOA-H_AMS_1956-57_33k_ES_PAN_21mic_H50_0449_fot_52A-25906_E_tif
  70
32
  10
186212.000
  20
4556451.293
  30
411.6
  0
VERTEX
  8
PNOA-H_AMS_1956-57_33k_ES_PAN_21mic_H50_0449_fot_52A-25906_E_tif
  70
32
  10
186146.000
  20
4555117.793
  30
614.38
  0
VERTEX
  8
PNOA-H_AMS_1956-57_33k_ES_PAN_21mic_H50_0449_fot_52A-25906_E_tif
  70
32
  10
183467.500
  20
4554980.793
  30
189
  0
VERTEX
  8
PNOA-H_AMS_1956-57_33k_ES_PAN_21mic_H50_0449_fot_52A-25906_E_tif
  70
32
  10
183107.500
  20
4555974.293
  30
257.5
  0
VERTEX
  8
PNOA-H_AMS_1956-57_33k_ES_PAN_21mic_H50_0449_fot_52A-25906_E_tif
  70
32
  10
183106.500
  20
4556004.793
  30
-16250.5
  0
VERTEX
  8
PNOA-H_AMS_1956-57_33k_ES_PAN_21mic_H50_0449_fot_52A-25906_E_tif
  70
32
  10
183335.500
  20
4556004.793
  30
-17926.9
  0
VERTEX
  8
PNOA-H_AMS_1956-57_33k_ES_PAN_21mic_H50_0449_fot_52A-25906_E_tif
  70
32
  10
183339.500
  20
4555999.793
  30
-14629.55
  0
VERTEX
  8
PNOA-H_AMS_1956-57_33k_ES_PAN_21mic_H50_0449_fot_52A-25906_E_tif
  70
32
  10
183345.500
  20
4555999.793
  30
-14630.75
  0
VERTEX
  8
PNOA-H_AMS_1956-57_33k_ES_PAN_21mic_H50_0449_fot_52A-25906_E_tif
  70
32
  10
183349.500
  20
4556004.793
  30
-17928.25
  0
VERTEX
  8
PNOA-H_AMS_1956-57_33k_ES_PAN_21mic_H50_0449_fot_52A-25906_E_tif
  70
32
  10
183370.500
  20
4556004.793
  30
-17930.051
  0
VERTEX
  8
PNOA-H_AMS_1956-57_33k_ES_PAN_21mic_H50_0449_fot_52A-25906_E_tif
  70
32
  10
183374.500
  20
4555999.793
  30
-14633.85
  0
VERTEX
  8
PNOA-H_AMS_1956-57_33k_ES_PAN_21mic_H50_0449_fot_52A-25906_E_tif
  70
32
  10
183380.500
  20
4555999.793
  30
-14634.85
  0
VERTEX
  8
PNOA-H_AMS_1956-57_33k_ES_PAN_21mic_H50_0449_fot_52A-25906_E_tif
  70
32
  10
183384.500
  20
4556004.793
  30
-17932.75
  0
VERTEX
  8
PNOA-H_AMS_1956-57_33k_ES_PAN_21mic_H50_0449_fot_52A-25906_E_tif
  70
32
  10
183440.500
  20
4556004.793
  30
-16289
  0
VERTEX
  8
PNOA-H_AMS_1956-57_33k_ES_PAN_21mic_H50_0449_fot_52A-25906_E_tif
  70
32
  10
183438.500
  20
4555999.793
  30
189
  0
VERTEX
  8
PNOA-H_AMS_1956-57_33k_ES_PAN_21mic_H50_0449_fot_52A-25906_E_tif
  70
32
  10
183442.500
  20
4555995.793
  30
189
  0
VERTEX
  8
PNOA-H_AMS_1956-57_33k_ES_PAN_21mic_H50_0449_fot_52A-25906_E_tif
  70
32
  10
183447.500
  20
4555997.793
  30
-16289
  0
VERTEX
  8
PNOA-H_AMS_1956-57_33k_ES_PAN_21mic_H50_0449_fot_52A-25906_E_tif
  70
32
  10
183449.500
  20
4555994.793
  30
-14641.2
  0
VERTEX
  8
PNOA-H_AMS_1956-57_33k_ES_PAN_21mic_H50_0449_fot_52A-25906_E_tif
  70
32
  10
183500.500
  20
4555994.793
  30
-14641.2
  0
VERTEX
  8
PNOA-H_AMS_1956-57_33k_ES_PAN_21mic_H50_0449_fot_52A-25906_E_tif
  70
32
  10
183504.500
  20
4555999.793
  30
-17936.801
  0
VERTEX
  8
PNOA-H_AMS_1956-57_33k_ES_PAN_21mic_H50_0449_fot_52A-25906_E_tif
  70
32
  10
183520.500
  20
4555999.793
  30
-14640.65
  0
VERTEX
  8
PNOA-H_AMS_1956-57_33k_ES_PAN_21mic_H50_0449_fot_52A-25906_E_tif
  70
32
  10
183524.500
  20
4556004.793
  30
-17936.35
  0
VERTEX
  8
PNOA-H_AMS_1956-57_33k_ES_PAN_21mic_H50_0449_fot_52A-25906_E_tif
  70
32
  10
183995.500
  20
4556004.793
  30
-14641.2
  0
VERTEX
  8
PNOA-H_AMS_1956-57_33k_ES_PAN_21mic_H50_0449_fot_52A-25906_E_tif
  70
32
  10
183997.500
  20
4556006.793
  30
-14641.2
  0
VERTEX
  8
PNOA-H_AMS_1956-57_33k_ES_PAN_21mic_H50_0449_fot_52A-25906_E_tif
  70
32
  10
183997.500
  20
4556991.793
  30
-16207.05
  0
VERTEX
  8
PNOA-H_AMS_1956-57_33k_ES_PAN_21mic_H50_0449_fot_52A-25906_E_tif
  70
32
  10
184000.500
  20
4556994.293
  30
353.34
  0
VERTEX
  8
PNOA-H_AMS_1956-57_33k_ES_PAN_21mic_H50_0449_fot_52A-25906_E_tif
  70
32
  10
184503.000
  20
4557349.293
  30
189
  0
VERTEX
  8
PNOA-H_AMS_1956-57_33k_ES_PAN_21mic_H50_0449_fot_52A-25906_E_tif
  70
32
  10
184506.500
  20
4557350.793
  30
189
  0
VERTEX
  8
PNOA-H_AMS_1956-57_33k_ES_PAN_21mic_H50_0449_fot_52A-25906_E_tif
  70
32
  10
185753.000
  20
4556692.793
  30
281.6
  0
VERTEX
  8
PNOA-H_AMS_1956-57_33k_ES_PAN_21mic_H50_0449_fot_52A-25906_E_tif
  70
32
  10
185754.500
  20
4556692.293
  30
282.6
  0
SEQEND
  8
PNOA-H_AMS_1956-57_33k_ES_PAN_21mic_H50_0449_fot_52A-25906_E_tif
  0
TEXT
  8
PNOA-H_AMS_1956-57_33k_ES_PAN_21mic_H50_0449_fot_52A-25906_E_tif
 62
0
  1
PNOA-H_AMS_1956-57_33k_ES_PAN_21mic_H50_0449_fot_52A-25906_E.tif
 40
41.85758
  10
185097.685
  20
4556165.793
  0
POLYLINE
  8
PNOA-H_AMS_1956-57_33k_ES_PAN_21mic_H50_0449_fot_000-10294_R_tif
  70
9
  66
1
  0
VERTEX
  8
PNOA-H_AMS_1956-57_33k_ES_PAN_21mic_H50_0449_fot_000-10294_R_tif
  70
32
  10
191590.000
  20
4553205.793
  30
694
  0
VERTEX
  8
PNOA-H_AMS_1956-57_33k_ES_PAN_21mic_H50_0449_fot_000-10294_R_tif
  70
32
  10
191502.000
  20
4551929.793
  30
709.3
  0
VERTEX
  8
PNOA-H_AMS_1956-57_33k_ES_PAN_21mic_H50_0449_fot_000-10294_R_tif
  70
32
  10
189418.000
  20
4551698.793
  30
692.18
  0
VERTEX
  8
PNOA-H_AMS_1956-57_33k_ES_PAN_21mic_H50_0449_fot_000-10294_R_tif
  70
32
  10
188736.000
  20
4552021.793
  30
644.2
  0
VERTEX
  8
PNOA-H_AMS_1956-57_33k_ES_PAN_21mic_H50_0449_fot_000-10294_R_tif
  70
32
  10
188902.000
  20
4554661.293
  30
638
  0
VERTEX
  8
PNOA-H_AMS_1956-57_33k_ES_PAN_21mic_H50_0449_fot_000-10294_R_tif
  70
32
  10
189298.500
  20
4555481.793
  30
648
  0
VERTEX
  8
PNOA-H_AMS_1956-57_33k_ES_PAN_21mic_H50_0449_fot_000-10294_R_tif
  70
32
  10
189313.500
  20
4555473.793
  30
649
  0
VERTEX
  8
PNOA-H_AMS_1956-57_33k_ES_PAN_21mic_H50_0449_fot_000-10294_R_tif
  70
32
  10
191649.000
  20
4554083.293
  30
694.8
  0
VERTEX
  8
PNOA-H_AMS_1956-57_33k_ES_PAN_21mic_H50_0449_fot_000-10294_R_tif
  70
32
  10
191650.000
  20
4554082.293
  30
695
  0
VERTEX
  8
PNOA-H_AMS_1956-57_33k_ES_PAN_21mic_H50_0449_fot_000-10294_R_tif
  70
32
  10
191649.500
  20
4554070.293
  30
695
  0
VERTEX
  8
PNOA-H_AMS_1956-57_33k_ES_PAN_21mic_H50_0449_fot_000-10294_R_tif
  70
32
  10
191590.000
  20
4553212.793
  30
694
  0
VERTEX
  8
PNOA-H_AMS_1956-57_33k_ES_PAN_21mic_H50_0449_fot_000-10294_R_tif
  70
32
  10
191590.000
  20
4553205.793
  30
694
  0
SEQEND
  8
PNOA-H_AMS_1956-57_33k_ES_PAN_21mic_H50_0449_fot_000-10294_R_tif
  0
TEXT
  8
PNOA-H_AMS_1956-57_33k_ES_PAN_21mic_H50_0449_fot_000-10294_R_tif
 62
0
  1
PNOA-H_AMS_1956-57_33k_ES_PAN_21mic_H50_0449_fot_000-10294_R.tif
 40
41.85758
  10
190225.419
  20
4553590.293
  0
POLYLINE
  8
PNOA-H_AMS_1956-57_33k_ES_PAN_21mic_H50_0449_fot_000-10295_R_tif
  70
9
  66
1
  0
VERTEX
  8
PNOA-H_AMS_1956-57_33k_ES_PAN_21mic_H50_0449_fot_000-10295_R_tif
  70
32
  10
186153.000
  20
4555094.793
  30
618.8
  0
VERTEX
  8
PNOA-H_AMS_1956-57_33k_ES_PAN_21mic_H50_0449_fot_000-10295_R_tif
  70
32
  10
188902.000
  20
4554661.293
  30
638
  0
VERTEX
  8
PNOA-H_AMS_1956-57_33k_ES_PAN_21mic_H50_0449_fot_000-10295_R_tif
  70
32
  10
188736.000
  20
4552021.793
  30
644.2
  0
VERTEX
  8
PNOA-H_AMS_1956-57_33k_ES_PAN_21mic_H50_0449_fot_000-10295_R_tif
  70
32
  10
186433.000
  20
4551733.293
  30
603
  0
VERTEX
  8
PNOA-H_AMS_1956-57_33k_ES_PAN_21mic_H50_0449_fot_000-10295_R_tif
  70
32
  10
185931.000
  20
4552004.793
  30
584.8
  0
VERTEX
  8
PNOA-H_AMS_1956-57_33k_ES_PAN_21mic_H50_0449_fot_000-10295_R_tif
  70
32
  10
186153.000
  20
4555088.793
  30
619.42
  0
VERTEX
  8
PNOA-H_AMS_1956-57_33k_ES_PAN_21mic_H50_0449_fot_000-10295_R_tif
  70
32
  10
186153.000
  20
4555094.793
  30
618.8
  0
SEQEND
  8
PNOA-H_AMS_1956-57_33k_ES_PAN_21mic_H50_0449_fot_000-10295_R_tif
  0
TEXT
  8
PNOA-H_AMS_1956-57_33k_ES_PAN_21mic_H50_0449_fot_000-10295_R_tif
 62
0
  1
PNOA-H_AMS_1956-57_33k_ES_PAN_21mic_H50_0449_fot_000-10295_R.tif
 40
41.85758
  10
187428.002
  20
4553414.043
  0
POLYLINE
  8
PNOA-H_AMS_1956-57_33k_ES_PAN_21mic_H50_0449_fot_000-10297_R_tif
  70
9
  66
1
  0
VERTEX
  8
PNOA-H_AMS_1956-57_33k_ES_PAN_21mic_H50_0449_fot_000-10297_R_tif
  70
32
  10
183106.000
  20
4555976.793
  30
258.4
  0
VERTEX
  8
PNOA-H_AMS_1956-57_33k_ES_PAN_21mic_H50_0449_fot_000-10297_R_tif
  70
32
  10
183107.000
  20
4555976.793
  30
257.8
  0
VERTEX
  8
PNOA-H_AMS_1956-57_33k_ES_PAN_21mic_H50_0449_fot_000-10297_R_tif
  70
32
  10
183110.500
  20
4555967.793
  30
255.8
  0
VERTEX
  8
PNOA-H_AMS_1956-57_33k_ES_PAN_21mic_H50_0449_fot_000-10297_R_tif
  70
32
  10
183467.500
  20
4554981.293
  30
189
  0
VERTEX
  8
PNOA-H_AMS_1956-57_33k_ES_PAN_21mic_H50_0449_fot_000-10297_R_tif
  70
32
  10
183315.500
  20
4551999.793
  30
468.5
  0
VERTEX
  8
PNOA-H_AMS_1956-57_33k_ES_PAN_21mic_H50_0449_fot_000-10297_R_tif
  70
32
  10
180575.500
  20
4552084.293
  30
327.9
  0
VERTEX
  8
PNOA-H_AMS_1956-57_33k_ES_PAN_21mic_H50_0449_fot_000-10297_R_tif
  70
32
  10
179997.500
  20
4552427.793
  30
-16202
  0
VERTEX
  8
PNOA-H_AMS_1956-57_33k_ES_PAN_21mic_H50_0449_fot_000-10297_R_tif
  70
32
  10
179997.500
  20
4552672.793
  30
-16201.95
  0
VERTEX
  8
PNOA-H_AMS_1956-57_33k_ES_PAN_21mic_H50_0449_fot_000-10297_R_tif
  70
32
  10
180003.000
  20
4552670.793
  30
362.7
  0
VERTEX
  8
PNOA-H_AMS_1956-57_33k_ES_PAN_21mic_H50_0449_fot_000-10297_R_tif
  70
32
  10
180006.500
  20
4552674.293
  30
363.7
  0
VERTEX
  8
PNOA-H_AMS_1956-57_33k_ES_PAN_21mic_H50_0449_fot_000-10297_R_tif
  70
32
  10
180004.500
  20
4552679.793
  30
-16201.5
  0
VERTEX
  8
PNOA-H_AMS_1956-57_33k_ES_PAN_21mic_H50_0449_fot_000-10297_R_tif
  70
32
  10
180009.500
  20
4552684.793
  30
-17857.15
  0
VERTEX
  8
PNOA-H_AMS_1956-57_33k_ES_PAN_21mic_H50_0449_fot_000-10297_R_tif
  70
32
  10
180015.500
  20
4552684.793
  30
-14543.15
  0
VERTEX
  8
PNOA-H_AMS_1956-57_33k_ES_PAN_21mic_H50_0449_fot_000-10297_R_tif
  70
32
  10
180024.500
  20
4552694.793
  30
-17855.35
  0
VERTEX
  8
PNOA-H_AMS_1956-57_33k_ES_PAN_21mic_H50_0449_fot_000-10297_R_tif
  70
32
  10
180030.500
  20
4552694.793
  30
-14541.55
  0
VERTEX
  8
PNOA-H_AMS_1956-57_33k_ES_PAN_21mic_H50_0449_fot_000-10297_R_tif
  70
32
  10
180044.500
  20
4552709.793
  30
-17854.9
  0
VERTEX
  8
PNOA-H_AMS_1956-57_33k_ES_PAN_21mic_H50_0449_fot_000-10297_R_tif
  70
32
  10
180050.500
  20
4552709.793
  30
-14541.15
  0
VERTEX
  8
PNOA-H_AMS_1956-57_33k_ES_PAN_21mic_H50_0449_fot_000-10297_R_tif
  70
32
  10
180064.500
  20
4552724.793
  30
-17855.35
  0
VERTEX
  8
PNOA-H_AMS_1956-57_33k_ES_PAN_21mic_H50_0449_fot_000-10297_R_tif
  70
32
  10
180070.500
  20
4552724.793
  30
-14541.65
  0
VERTEX
  8
PNOA-H_AMS_1956-57_33k_ES_PAN_21mic_H50_0449_fot_000-10297_R_tif
  70
32
  10
180079.500
  20
4552734.793
  30
-17855.35
  0
VERTEX
  8
PNOA-H_AMS_1956-57_33k_ES_PAN_21mic_H50_0449_fot_000-10297_R_tif
  70
32
  10
180085.500
  20
4552734.793
  30
-14541.65
  0
VERTEX
  8
PNOA-H_AMS_1956-57_33k_ES_PAN_21mic_H50_0449_fot_000-10297_R_tif
  70
32
  10
180089.500
  20
4552739.793
  30
-17855.35
  0
VERTEX
  8
PNOA-H_AMS_1956-57_33k_ES_PAN_21mic_H50_0449_fot_000-10297_R_tif
  70
32
  10
180095.500
  20
4552739.793
  30
-14541.55
  0
VERTEX
  8
PNOA-H_AMS_1956-57_33k_ES_PAN_21mic_H50_0449_fot_000-10297_R_tif
  70
32
  10
180109.500
  20
4552754.793
  30
-17853.551
  0
VERTEX
  8
PNOA-H_AMS_1956-57_33k_ES_PAN_21mic_H50_0449_fot_000-10297_R_tif
  70
32
  10
180115.500
  20
4552754.793
  30
-14539.25
  0
VERTEX
  8
PNOA-H_AMS_1956-57_33k_ES_PAN_21mic_H50_0449_fot_000-10297_R_tif
  70
32
  10
180119.500
  20
4552759.793
  30
-17852.199
  0
VERTEX
  8
PNOA-H_AMS_1956-57_33k_ES_PAN_21mic_H50_0449_fot_000-10297_R_tif
  70
32
  10
180125.500
  20
4552759.793
  30
-14537.65
  0
VERTEX
  8
PNOA-H_AMS_1956-57_33k_ES_PAN_21mic_H50_0449_fot_000-10297_R_tif
  70
32
  10
180129.500
  20
4552764.793
  30
-17851.301
  0
VERTEX
  8
PNOA-H_AMS_1956-57_33k_ES_PAN_21mic_H50_0449_fot_000-10297_R_tif
  70
32
  10
180135.500
  20
4552764.793
  30
-14536.4
  0
VERTEX
  8
PNOA-H_AMS_1956-57_33k_ES_PAN_21mic_H50_0449_fot_000-10297_R_tif
  70
32
  10
180139.500
  20
4552769.793
  30
-17849.5
  0
VERTEX
  8
PNOA-H_AMS_1956-57_33k_ES_PAN_21mic_H50_0449_fot_000-10297_R_tif
  70
32
  10
180145.500
  20
4552769.793
  30
-14534.25
  0
VERTEX
  8
PNOA-H_AMS_1956-57_33k_ES_PAN_21mic_H50_0449_fot_000-10297_R_tif
  70
32
  10
180149.500
  20
4552774.793
  30
-17848.15
  0
VERTEX
  8
PNOA-H_AMS_1956-57_33k_ES_PAN_21mic_H50_0449_fot_000-10297_R_tif
  70
32
  10
180155.500
  20
4552774.793
  30
-14532
  0
VERTEX
  8
PNOA-H_AMS_1956-57_33k_ES_PAN_21mic_H50_0449_fot_000-10297_R_tif
  70
32
  10
180159.500
  20
4552779.793
  30
-17845.9
  0
VERTEX
  8
PNOA-H_AMS_1956-57_33k_ES_PAN_21mic_H50_0449_fot_000-10297_R_tif
  70
32
  10
180165.500
  20
4552779.793
  30
-14529.9
  0
VERTEX
  8
PNOA-H_AMS_1956-57_33k_ES_PAN_21mic_H50_0449_fot_000-10297_R_tif
  70
32
  10
180169.500
  20
4552784.793
  30
-17844.551
  0
VERTEX
  8
PNOA-H_AMS_1956-57_33k_ES_PAN_21mic_H50_0449_fot_000-10297_R_tif
  70
32
  10
180175.500
  20
4552784.793
  30
-14528.3
  0
VERTEX
  8
PNOA-H_AMS_1956-57_33k_ES_PAN_21mic_H50_0449_fot_000-10297_R_tif
  70
32
  10
180184.500
  20
4552794.793
  30
-17842.75
  0
VERTEX
  8
PNOA-H_AMS_1956-57_33k_ES_PAN_21mic_H50_0449_fot_000-10297_R_tif
  70
32
  10
180195.500
  20
4552794.793
  30
-14526.15
  0
VERTEX
  8
PNOA-H_AMS_1956-57_33k_ES_PAN_21mic_H50_0449_fot_000-10297_R_tif
  70
32
  10
180219.500
  20
4552819.793
  30
-17841.4
  0
VERTEX
  8
PNOA-H_AMS_1956-57_33k_ES_PAN_21mic_H50_0449_fot_000-10297_R_tif
  70
32
  10
180225.500
  20
4552819.793
  30
-14524.6
  0
VERTEX
  8
PNOA-H_AMS_1956-57_33k_ES_PAN_21mic_H50_0449_fot_000-10297_R_tif
  70
32
  10
180234.500
  20
4552829.793
  30
-17841.4
  0
VERTEX
  8
PNOA-H_AMS_1956-57_33k_ES_PAN_21mic_H50_0449_fot_000-10297_R_tif
  70
32
  10
180240.500
  20
4552829.793
  30
-14524.6
  0
VERTEX
  8
PNOA-H_AMS_1956-57_33k_ES_PAN_21mic_H50_0449_fot_000-10297_R_tif
  70
32
  10
180249.500
  20
4552839.793
  30
-17841.4
  0
VERTEX
  8
PNOA-H_AMS_1956-57_33k_ES_PAN_21mic_H50_0449_fot_000-10297_R_tif
  70
32
  10
180255.500
  20
4552839.793
  30
-14524.65
  0
VERTEX
  8
PNOA-H_AMS_1956-57_33k_ES_PAN_21mic_H50_0449_fot_000-10297_R_tif
  70
32
  10
180269.500
  20
4552854.793
  30
-17841.85
  0
VERTEX
  8
PNOA-H_AMS_1956-57_33k_ES_PAN_21mic_H50_0449_fot_000-10297_R_tif
  70
32
  10
180275.500
  20
4552854.793
  30
-14525.15
  0
VERTEX
  8
PNOA-H_AMS_1956-57_33k_ES_PAN_21mic_H50_0449_fot_000-10297_R_tif
  70
32
  10
180279.500
  20
4552859.793
  30
-17841.85
  0
VERTEX
  8
PNOA-H_AMS_1956-57_33k_ES_PAN_21mic_H50_0449_fot_000-10297_R_tif
  70
32
  10
180285.500
  20
4552859.793
  30
-14525.05
  0
VERTEX
  8
PNOA-H_AMS_1956-57_33k_ES_PAN_21mic_H50_0449_fot_000-10297_R_tif
  70
32
  10
180289.500
  20
4552864.793
  30
-17840.949
  0
VERTEX
  8
PNOA-H_AMS_1956-57_33k_ES_PAN_21mic_H50_0449_fot_000-10297_R_tif
  70
32
  10
180295.500
  20
4552864.793
  30
-14524.05
  0
VERTEX
  8
PNOA-H_AMS_1956-57_33k_ES_PAN_21mic_H50_0449_fot_000-10297_R_tif
  70
32
  10
180304.500
  20
4552874.793
  30
-17840.949
  0
VERTEX
  8
PNOA-H_AMS_1956-57_33k_ES_PAN_21mic_H50_0449_fot_000-10297_R_tif
  70
32
  10
180310.500
  20
4552874.793
  30
-14523.9
  0
VERTEX
  8
PNOA-H_AMS_1956-57_33k_ES_PAN_21mic_H50_0449_fot_000-10297_R_tif
  70
32
  10
180324.500
  20
4552889.793
  30
-17840.051
  0
VERTEX
  8
PNOA-H_AMS_1956-57_33k_ES_PAN_21mic_H50_0449_fot_000-10297_R_tif
  70
32
  10
180330.500
  20
4552889.793
  30
-14522.95
  0
VERTEX
  8
PNOA-H_AMS_1956-57_33k_ES_PAN_21mic_H50_0449_fot_000-10297_R_tif
  70
32
  10
180339.500
  20
4552899.793
  30
-17839.6
  0
VERTEX
  8
PNOA-H_AMS_1956-57_33k_ES_PAN_21mic_H50_0449_fot_000-10297_R_tif
  70
32
  10
180345.500
  20
4552899.793
  30
-14522.25
  0
VERTEX
  8
PNOA-H_AMS_1956-57_33k_ES_PAN_21mic_H50_0449_fot_000-10297_R_tif
  70
32
  10
180349.500
  20
4552904.793
  30
-17838.699
  0
VERTEX
  8
PNOA-H_AMS_1956-57_33k_ES_PAN_21mic_H50_0449_fot_000-10297_R_tif
  70
32
  10
180355.500
  20
4552904.793
  30
-14521.15
  0
VERTEX
  8
PNOA-H_AMS_1956-57_33k_ES_PAN_21mic_H50_0449_fot_000-10297_R_tif
  70
32
  10
180369.500
  20
4552919.793
  30
-17836.9
  0
VERTEX
  8
PNOA-H_AMS_1956-57_33k_ES_PAN_21mic_H50_0449_fot_000-10297_R_tif
  70
32
  10
180380.500
  20
4552919.793
  30
-14518.95
  0
VERTEX
  8
PNOA-H_AMS_1956-57_33k_ES_PAN_21mic_H50_0449_fot_000-10297_R_tif
  70
32
  10
180389.500
  20
4552929.793
  30
-17835.1
  0
VERTEX
  8
PNOA-H_AMS_1956-57_33k_ES_PAN_21mic_H50_0449_fot_000-10297_R_tif
  70
32
  10
180400.500
  20
4552929.793
  30
-14516.1
  0
VERTEX
  8
PNOA-H_AMS_1956-57_33k_ES_PAN_21mic_H50_0449_fot_000-10297_R_tif
  70
32
  10
180409.500
  20
4552939.793
  30
-17832.85
  0
VERTEX
  8
PNOA-H_AMS_1956-57_33k_ES_PAN_21mic_H50_0449_fot_000-10297_R_tif
  70
32
  10
180415.500
  20
4552939.793
  30
-14513.5
  0
VERTEX
  8
PNOA-H_AMS_1956-57_33k_ES_PAN_21mic_H50_0449_fot_000-10297_R_tif
  70
32
  10
180419.500
  20
4552944.793
  30
-17831.949
  0
VERTEX
  8
PNOA-H_AMS_1956-57_33k_ES_PAN_21mic_H50_0449_fot_000-10297_R_tif
  70
32
  10
180425.500
  20
4552944.793
  30
-14512.9
  0
VERTEX
  8
PNOA-H_AMS_1956-57_33k_ES_PAN_21mic_H50_0449_fot_000-10297_R_tif
  70
32
  10
180434.500
  20
4552954.793
  30
-17830.6
  0
VERTEX
  8
PNOA-H_AMS_1956-57_33k_ES_PAN_21mic_H50_0449_fot_000-10297_R_tif
  70
32
  10
180440.500
  20
4552954.793
  30
-14511.25
  0
VERTEX
  8
PNOA-H_AMS_1956-57_33k_ES_PAN_21mic_H50_0449_fot_000-10297_R_tif
  70
32
  10
180444.500
  20
4552959.793
  30
-17829.699
  0
VERTEX
  8
PNOA-H_AMS_1956-57_33k_ES_PAN_21mic_H50_0449_fot_000-10297_R_tif
  70
32
  10
180450.500
  20
4552959.793
  30
-14510
  0
VERTEX
  8
PNOA-H_AMS_1956-57_33k_ES_PAN_21mic_H50_0449_fot_000-10297_R_tif
  70
32
  10
180454.500
  20
4552964.793
  30
-17827.9
  0
VERTEX
  8
PNOA-H_AMS_1956-57_33k_ES_PAN_21mic_H50_0449_fot_000-10297_R_tif
  70
32
  10
180460.500
  20
4552964.793
  30
-14507.95
  0
VERTEX
  8
PNOA-H_AMS_1956-57_33k_ES_PAN_21mic_H50_0449_fot_000-10297_R_tif
  70
32
  10
180464.500
  20
4552969.793
  30
-17827
  0
VERTEX
  8
PNOA-H_AMS_1956-57_33k_ES_PAN_21mic_H50_0449_fot_000-10297_R_tif
  70
32
  10
180470.500
  20
4552969.793
  30
-14506.85
  0
VERTEX
  8
PNOA-H_AMS_1956-57_33k_ES_PAN_21mic_H50_0449_fot_000-10297_R_tif
  70
32
  10
180479.500
  20
4552979.793
  30
-17825.199
  0
VERTEX
  8
PNOA-H_AMS_1956-57_33k_ES_PAN_21mic_H50_0449_fot_000-10297_R_tif
  70
32
  10
180485.500
  20
4552979.793
  30
-14504.6
  0
VERTEX
  8
PNOA-H_AMS_1956-57_33k_ES_PAN_21mic_H50_0449_fot_000-10297_R_tif
  70
32
  10
180489.500
  20
4552984.793
  30
-17823.85
  0
VERTEX
  8
PNOA-H_AMS_1956-57_33k_ES_PAN_21mic_H50_0449_fot_000-10297_R_tif
  70
32
  10
180495.500
  20
4552984.793
  30
-14502.9
  0
VERTEX
  8
PNOA-H_AMS_1956-57_33k_ES_PAN_21mic_H50_0449_fot_000-10297_R_tif
  70
32
  10
180504.500
  20
4552994.793
  30
-17822.5
  0
VERTEX
  8
PNOA-H_AMS_1956-57_33k_ES_PAN_21mic_H50_0449_fot_000-10297_R_tif
  70
32
  10
180510.500
  20
4552994.793
  30
-14500.55
  0
VERTEX
  8
PNOA-H_AMS_1956-57_33k_ES_PAN_21mic_H50_0449_fot_000-10297_R_tif
  70
32
  10
180519.500
  20
4553004.793
  30
-17819.801
  0
VERTEX
  8
PNOA-H_AMS_1956-57_33k_ES_PAN_21mic_H50_0449_fot_000-10297_R_tif
  70
32
  10
180530.500
  20
4553004.793
  30
-14497.3
  0
VERTEX
  8
PNOA-H_AMS_1956-57_33k_ES_PAN_21mic_H50_0449_fot_000-10297_R_tif
  70
32
  10
180539.500
  20
4553014.793
  30
-17816.199
  0
VERTEX
  8
PNOA-H_AMS_1956-57_33k_ES_PAN_21mic_H50_0449_fot_000-10297_R_tif
  70
32
  10
180545.500
  20
4553014.793
  30
-14493.6
  0
VERTEX
  8
PNOA-H_AMS_1956-57_33k_ES_PAN_21mic_H50_0449_fot_000-10297_R_tif
  70
32
  10
180554.500
  20
4553024.793
  30
-17813.5
  0
VERTEX
  8
PNOA-H_AMS_1956-57_33k_ES_PAN_21mic_H50_0449_fot_000-10297_R_tif
  70
32
  10
180560.500
  20
4553024.793
  30
-14490.3
  0
VERTEX
  8
PNOA-H_AMS_1956-57_33k_ES_PAN_21mic_H50_0449_fot_000-10297_R_tif
  70
32
  10
180574.500
  20
4553039.793
  30
-17809.9
  0
VERTEX
  8
PNOA-H_AMS_1956-57_33k_ES_PAN_21mic_H50_0449_fot_000-10297_R_tif
  70
32
  10
180580.500
  20
4553039.793
  30
-14486
  0
VERTEX
  8
PNOA-H_AMS_1956-57_33k_ES_PAN_21mic_H50_0449_fot_000-10297_R_tif
  70
32
  10
180589.500
  20
4553049.793
  30
-17808.551
  0
VERTEX
  8
PNOA-H_AMS_1956-57_33k_ES_PAN_21mic_H50_0449_fot_000-10297_R_tif
  70
32
  10
180595.500
  20
4553049.793
  30
-14484.2
  0
VERTEX
  8
PNOA-H_AMS_1956-57_33k_ES_PAN_21mic_H50_0449_fot_000-10297_R_tif
  70
32
  10
180599.500
  20
4553054.793
  30
-17806.75
  0
VERTEX
  8
PNOA-H_AMS_1956-57_33k_ES_PAN_21mic_H50_0449_fot_000-10297_R_tif
  70
32
  10
180605.500
  20
4553054.793
  30
-14482.15
  0
VERTEX
  8
PNOA-H_AMS_1956-57_33k_ES_PAN_21mic_H50_0449_fot_000-10297_R_tif
  70
32
  10
180609.500
  20
4553059.793
  30
-17805.85
  0
VERTEX
  8
PNOA-H_AMS_1956-57_33k_ES_PAN_21mic_H50_0449_fot_000-10297_R_tif
  70
32
  10
180615.500
  20
4553059.793
  30
-14481.05
  0
VERTEX
  8
PNOA-H_AMS_1956-57_33k_ES_PAN_21mic_H50_0449_fot_000-10297_R_tif
  70
32
  10
180619.500
  20
4553064.793
  30
-17804.949
  0
VERTEX
  8
PNOA-H_AMS_1956-57_33k_ES_PAN_21mic_H50_0449_fot_000-10297_R_tif
  70
32
  10
180625.500
  20
4553064.793
  30
-14480
  0
VERTEX
  8
PNOA-H_AMS_1956-57_33k_ES_PAN_21mic_H50_0449_fot_000-10297_R_tif
  70
32
  10
180634.500
  20
4553074.793
  30
-17804.051
  0
VERTEX
  8
PNOA-H_AMS_1956-57_33k_ES_PAN_21mic_H50_0449_fot_000-10297_R_tif
  70
32
  10
180640.500
  20
4553074.793
  30
-14478.95
  0
VERTEX
  8
PNOA-H_AMS_1956-57_33k_ES_PAN_21mic_H50_0449_fot_000-10297_R_tif
  70
32
  10
180649.500
  20
4553084.793
  30
-17804.051
  0
VERTEX
  8
PNOA-H_AMS_1956-57_33k_ES_PAN_21mic_H50_0449_fot_000-10297_R_tif
  70
32
  10
180655.500
  20
4553084.793
  30
-14478.95
  0
VERTEX
  8
PNOA-H_AMS_1956-57_33k_ES_PAN_21mic_H50_0449_fot_000-10297_R_tif
  70
32
  10
180674.500
  20
4553104.793
  30
-17804.5
  0
VERTEX
  8
PNOA-H_AMS_1956-57_33k_ES_PAN_21mic_H50_0449_fot_000-10297_R_tif
  70
32
  10
180680.500
  20
4553104.793
  30
-14479.55
  0
VERTEX
  8
PNOA-H_AMS_1956-57_33k_ES_PAN_21mic_H50_0449_fot_000-10297_R_tif
  70
32
  10
180689.500
  20
4553114.793
  30
-17805.4
  0
VERTEX
  8
PNOA-H_AMS_1956-57_33k_ES_PAN_21mic_H50_0449_fot_000-10297_R_tif
  70
32
  10
180695.500
  20
4553114.793
  30
-14480.65
  0
VERTEX
  8
PNOA-H_AMS_1956-57_33k_ES_PAN_21mic_H50_0449_fot_000-10297_R_tif
  70
32
  10
180709.500
  20
4553129.793
  30
-17806.301
  0
VERTEX
  8
PNOA-H_AMS_1956-57_33k_ES_PAN_21mic_H50_0449_fot_000-10297_R_tif
  70
32
  10
180715.500
  20
4553129.793
  30
-14481.75
  0
VERTEX
  8
PNOA-H_AMS_1956-57_33k_ES_PAN_21mic_H50_0449_fot_000-10297_R_tif
  70
32
  10
180734.500
  20
4553149.793
  30
-17809
  0
VERTEX
  8
PNOA-H_AMS_1956-57_33k_ES_PAN_21mic_H50_0449_fot_000-10297_R_tif
  70
32
  10
180740.500
  20
4553149.793
  30
-14485.15
  0
VERTEX
  8
PNOA-H_AMS_1956-57_33k_ES_PAN_21mic_H50_0449_fot_000-10297_R_tif
  70
32
  10
180749.500
  20
4553159.793
  30
-17810.801
  0
VERTEX
  8
PNOA-H_AMS_1956-57_33k_ES_PAN_21mic_H50_0449_fot_000-10297_R_tif
  70
32
  10
180755.500
  20
4553159.793
  30
-14487.3
  0
VERTEX
  8
PNOA-H_AMS_1956-57_33k_ES_PAN_21mic_H50_0449_fot_000-10297_R_tif
  70
32
  10
180764.500
  20
4553169.793
  30
-17812.15
  0
VERTEX
  8
PNOA-H_AMS_1956-57_33k_ES_PAN_21mic_H50_0449_fot_000-10297_R_tif
  70
32
  10
180770.500
  20
4553169.793
  30
-14489.05
  0
VERTEX
  8
PNOA-H_AMS_1956-57_33k_ES_PAN_21mic_H50_0449_fot_000-10297_R_tif
  70
32
  10
180784.500
  20
4553184.793
  30
-17814.85
  0
VERTEX
  8
PNOA-H_AMS_1956-57_33k_ES_PAN_21mic_H50_0449_fot_000-10297_R_tif
  70
32
  10
180790.500
  20
4553184.793
  30
-14492.3
  0
VERTEX
  8
PNOA-H_AMS_1956-57_33k_ES_PAN_21mic_H50_0449_fot_000-10297_R_tif
  70
32
  10
180799.500
  20
4553194.793
  30
-17816.65
  0
VERTEX
  8
PNOA-H_AMS_1956-57_33k_ES_PAN_21mic_H50_0449_fot_000-10297_R_tif
  70
32
  10
180805.500
  20
4553194.793
  30
-14494.55
  0
VERTEX
  8
PNOA-H_AMS_1956-57_33k_ES_PAN_21mic_H50_0449_fot_000-10297_R_tif
  70
32
  10
180814.500
  20
4553204.793
  30
-17818.449
  0
VERTEX
  8
PNOA-H_AMS_1956-57_33k_ES_PAN_21mic_H50_0449_fot_000-10297_R_tif
  70
32
  10
180820.500
  20
4553204.793
  30
-14496.6
  0
VERTEX
  8
PNOA-H_AMS_1956-57_33k_ES_PAN_21mic_H50_0449_fot_000-10297_R_tif
  70
32
  10
180829.500
  20
4553214.793
  30
-17818.9
  0
VERTEX
  8
PNOA-H_AMS_1956-57_33k_ES_PAN_21mic_H50_0449_fot_000-10297_R_tif
  70
32
  10
180835.500
  20
4553214.793
  30
-14497.3
  0
VERTEX
  8
PNOA-H_AMS_1956-57_33k_ES_PAN_21mic_H50_0449_fot_000-10297_R_tif
  70
32
  10
180854.500
  20
4553234.793
  30
-17821.6
  0
VERTEX
  8
PNOA-H_AMS_1956-57_33k_ES_PAN_21mic_H50_0449_fot_000-10297_R_tif
  70
32
  10
180860.500
  20
4553234.793
  30
-14500.75
  0
VERTEX
  8
PNOA-H_AMS_1956-57_33k_ES_PAN_21mic_H50_0449_fot_000-10297_R_tif
  70
32
  10
180874.500
  20
4553249.793
  30
-17822.949
  0
VERTEX
  8
PNOA-H_AMS_1956-57_33k_ES_PAN_21mic_H50_0449_fot_000-10297_R_tif
  70
32
  10
180880.500
  20
4553249.793
  30
-14501.9
  0
VERTEX
  8
PNOA-H_AMS_1956-57_33k_ES_PAN_21mic_H50_0449_fot_000-10297_R_tif
  70
32
  10
180889.500
  20
4553259.793
  30
-17822.051
  0
VERTEX
  8
PNOA-H_AMS_1956-57_33k_ES_PAN_21mic_H50_0449_fot_000-10297_R_tif
  70
32
  10
180895.500
  20
4553259.793
  30
-14500.7
  0
VERTEX
  8
PNOA-H_AMS_1956-57_33k_ES_PAN_21mic_H50_0449_fot_000-10297_R_tif
  70
32
  10
180904.500
  20
4553269.793
  30
-17820.699
  0
VERTEX
  8
PNOA-H_AMS_1956-57_33k_ES_PAN_21mic_H50_0449_fot_000-10297_R_tif
  70
32
  10
180910.500
  20
4553269.793
  30
-14498.95
  0
VERTEX
  8
PNOA-H_AMS_1956-57_33k_ES_PAN_21mic_H50_0449_fot_000-10297_R_tif
  70
32
  10
180919.500
  20
4553279.793
  30
-17818.9
  0
VERTEX
  8
PNOA-H_AMS_1956-57_33k_ES_PAN_21mic_H50_0449_fot_000-10297_R_tif
  70
32
  10
180925.500
  20
4553279.793
  30
-14497
  0
VERTEX
  8
PNOA-H_AMS_1956-57_33k_ES_PAN_21mic_H50_0449_fot_000-10297_R_tif
  70
32
  10
180929.500
  20
4553284.793
  30
-17818.449
  0
VERTEX
  8
PNOA-H_AMS_1956-57_33k_ES_PAN_21mic_H50_0449_fot_000-10297_R_tif
  70
32
  10
180935.500
  20
4553284.793
  30
-14496.5
  0
VERTEX
  8
PNOA-H_AMS_1956-57_33k_ES_PAN_21mic_H50_0449_fot_000-10297_R_tif
  70
32
  10
180949.500
  20
4553299.793
  30
-17818.449
  0
VERTEX
  8
PNOA-H_AMS_1956-57_33k_ES_PAN_21mic_H50_0449_fot_000-10297_R_tif
  70
32
  10
180955.500
  20
4553299.793
  30
-14496.6
  0
VERTEX
  8
PNOA-H_AMS_1956-57_33k_ES_PAN_21mic_H50_0449_fot_000-10297_R_tif
  70
32
  10
180969.500
  20
4553314.793
  30
-17818.9
  0
VERTEX
  8
PNOA-H_AMS_1956-57_33k_ES_PAN_21mic_H50_0449_fot_000-10297_R_tif
  70
32
  10
180975.500
  20
4553314.793
  30
-14497.2
  0
VERTEX
  8
PNOA-H_AMS_1956-57_33k_ES_PAN_21mic_H50_0449_fot_000-10297_R_tif
  70
32
  10
180989.500
  20
4553329.793
  30
-17819.35
  0
VERTEX
  8
PNOA-H_AMS_1956-57_33k_ES_PAN_21mic_H50_0449_fot_000-10297_R_tif
  70
32
  10
180995.500
  20
4553329.793
  30
-14497.75
  0
VERTEX
  8
PNOA-H_AMS_1956-57_33k_ES_PAN_21mic_H50_0449_fot_000-10297_R_tif
  70
32
  10
181004.500
  20
4553339.793
  30
-17819.801
  0
VERTEX
  8
PNOA-H_AMS_1956-57_33k_ES_PAN_21mic_H50_0449_fot_000-10297_R_tif
  70
32
  10
181010.500
  20
4553339.793
  30
-14498.45
  0
VERTEX
  8
PNOA-H_AMS_1956-57_33k_ES_PAN_21mic_H50_0449_fot_000-10297_R_tif
  70
32
  10
181024.500
  20
4553354.793
  30
-17822.949
  0
VERTEX
  8
PNOA-H_AMS_1956-57_33k_ES_PAN_21mic_H50_0449_fot_000-10297_R_tif
  70
32
  10
181030.500
  20
4553354.793
  30
-14502.2
  0
VERTEX
  8
PNOA-H_AMS_1956-57_33k_ES_PAN_21mic_H50_0449_fot_000-10297_R_tif
  70
32
  10
181074.500
  20
4553399.793
  30
-17835.1
  0
VERTEX
  8
PNOA-H_AMS_1956-57_33k_ES_PAN_21mic_H50_0449_fot_000-10297_R_tif
  70
32
  10
181080.500
  20
4553399.793
  30
-14517.7
  0
VERTEX
  8
PNOA-H_AMS_1956-57_33k_ES_PAN_21mic_H50_0449_fot_000-10297_R_tif
  70
32
  10
181092.500
  20
4553411.793
  30
-14522.55
  0
VERTEX
  8
PNOA-H_AMS_1956-57_33k_ES_PAN_21mic_H50_0449_fot_000-10297_R_tif
  70
32
  10
181092.500
  20
4553417.793
  30
-17840.949
  0
VERTEX
  8
PNOA-H_AMS_1956-57_33k_ES_PAN_21mic_H50_0449_fot_000-10297_R_tif
  70
32
  10
181104.500
  20
4553429.793
  30
-17844.1
  0
VERTEX
  8
PNOA-H_AMS_1956-57_33k_ES_PAN_21mic_H50_0449_fot_000-10297_R_tif
  70
32
  10
181110.500
  20
4553429.793
  30
-14528.2
  0
VERTEX
  8
PNOA-H_AMS_1956-57_33k_ES_PAN_21mic_H50_0449_fot_000-10297_R_tif
  70
32
  10
181112.500
  20
4553431.793
  30
-14530.2
  0
VERTEX
  8
PNOA-H_AMS_1956-57_33k_ES_PAN_21mic_H50_0449_fot_000-10297_R_tif
  70
32
  10
181112.500
  20
4553437.793
  30
-17847.25
  0
VERTEX
  8
PNOA-H_AMS_1956-57_33k_ES_PAN_21mic_H50_0449_fot_000-10297_R_tif
  70
32
  10
181117.000
  20
4553441.793
  30
-17516.82
  0
VERTEX
  8
PNOA-H_AMS_1956-57_33k_ES_PAN_21mic_H50_0449_fot_000-10297_R_tif
  70
32
  10
181118.000
  20
4553440.793
  30
-8896.84
  0
VERTEX
  8
PNOA-H_AMS_1956-57_33k_ES_PAN_21mic_H50_0449_fot_000-10297_R_tif
  70
32
  10
181117.500
  20
4553442.793
  30
-17848.6
  0
VERTEX
  8
PNOA-H_AMS_1956-57_33k_ES_PAN_21mic_H50_0449_fot_000-10297_R_tif
  70
32
  10
181119.500
  20
4553444.793
  30
-17848.6
  0
VERTEX
  8
PNOA-H_AMS_1956-57_33k_ES_PAN_21mic_H50_0449_fot_000-10297_R_tif
  70
32
  10
181125.500
  20
4553444.793
  30
-14533.7
  0
VERTEX
  8
PNOA-H_AMS_1956-57_33k_ES_PAN_21mic_H50_0449_fot_000-10297_R_tif
  70
32
  10
181147.500
  20
4553466.793
  30
-14543.4
  0
VERTEX
  8
PNOA-H_AMS_1956-57_33k_ES_PAN_21mic_H50_0449_fot_000-10297_R_tif
  70
32
  10
181147.500
  20
4553472.793
  30
-17858.051
  0
VERTEX
  8
PNOA-H_AMS_1956-57_33k_ES_PAN_21mic_H50_0449_fot_000-10297_R_tif
  70
32
  10
181154.500
  20
4553479.793
  30
-17859.4
  0
VERTEX
  8
PNOA-H_AMS_1956-57_33k_ES_PAN_21mic_H50_0449_fot_000-10297_R_tif
  70
32
  10
181160.500
  20
4553479.793
  30
-14546.45
  0
VERTEX
  8
PNOA-H_AMS_1956-57_33k_ES_PAN_21mic_H50_0449_fot_000-10297_R_tif
  70
32
  10
181164.500
  20
4553484.793
  30
-17858.5
  0
VERTEX
  8
PNOA-H_AMS_1956-57_33k_ES_PAN_21mic_H50_0449_fot_000-10297_R_tif
  70
32
  10
181170.500
  20
4553484.793
  30
-14545.4
  0
VERTEX
  8
PNOA-H_AMS_1956-57_33k_ES_PAN_21mic_H50_0449_fot_000-10297_R_tif
  70
32
  10
181179.500
  20
4553494.793
  30
-17857.6
  0
VERTEX
  8
PNOA-H_AMS_1956-57_33k_ES_PAN_21mic_H50_0449_fot_000-10297_R_tif
  70
32
  10
181185.500
  20
4553494.793
  30
-14544.2
  0
VERTEX
  8
PNOA-H_AMS_1956-57_33k_ES_PAN_21mic_H50_0449_fot_000-10297_R_tif
  70
32
  10
181189.500
  20
4553499.793
  30
-17856.25
  0
VERTEX
  8
PNOA-H_AMS_1956-57_33k_ES_PAN_21mic_H50_0449_fot_000-10297_R_tif
  70
32
  10
181200.500
  20
4553499.793
  30
-14542
  0
VERTEX
  8
PNOA-H_AMS_1956-57_33k_ES_PAN_21mic_H50_0449_fot_000-10297_R_tif
  70
32
  10
181204.500
  20
4553504.793
  30
-17854.449
  0
VERTEX
  8
PNOA-H_AMS_1956-57_33k_ES_PAN_21mic_H50_0449_fot_000-10297_R_tif
  70
32
  10
181210.500
  20
4553504.793
  30
-14540.45
  0
VERTEX
  8
PNOA-H_AMS_1956-57_33k_ES_PAN_21mic_H50_0449_fot_000-10297_R_tif
  70
32
  10
181214.500
  20
4553509.793
  30
-17853.551
  0
VERTEX
  8
PNOA-H_AMS_1956-57_33k_ES_PAN_21mic_H50_0449_fot_000-10297_R_tif
  70
32
  10
181220.500
  20
4553509.793
  30
-14539.4
  0
VERTEX
  8
PNOA-H_AMS_1956-57_33k_ES_PAN_21mic_H50_0449_fot_000-10297_R_tif
  70
32
  10
181229.500
  20
4553519.793
  30
-17852.199
  0
VERTEX
  8
PNOA-H_AMS_1956-57_33k_ES_PAN_21mic_H50_0449_fot_000-10297_R_tif
  70
32
  10
181235.500
  20
4553519.793
  30
-14537.65
  0
VERTEX
  8
PNOA-H_AMS_1956-57_33k_ES_PAN_21mic_H50_0449_fot_000-10297_R_tif
  70
32
  10
181244.500
  20
4553529.793
  30
-17850.85
  0
VERTEX
  8
PNOA-H_AMS_1956-57_33k_ES_PAN_21mic_H50_0449_fot_000-10297_R_tif
  70
32
  10
181250.500
  20
4553529.793
  30
-14536
  0
VERTEX
  8
PNOA-H_AMS_1956-57_33k_ES_PAN_21mic_H50_0449_fot_000-10297_R_tif
  70
32
  10
181254.500
  20
4553534.793
  30
-17849.949
  0
VERTEX
  8
PNOA-H_AMS_1956-57_33k_ES_PAN_21mic_H50_0449_fot_000-10297_R_tif
  70
32
  10
181260.500
  20
4553534.793
  30
-14534.9
  0
VERTEX
  8
PNOA-H_AMS_1956-57_33k_ES_PAN_21mic_H50_0449_fot_000-10297_R_tif
  70
32
  10
181269.500
  20
4553544.793
  30
-17849.051
  0
VERTEX
  8
PNOA-H_AMS_1956-57_33k_ES_PAN_21mic_H50_0449_fot_000-10297_R_tif
  70
32
  10
181275.500
  20
4553544.793
  30
-14533.85
  0
VERTEX
  8
PNOA-H_AMS_1956-57_33k_ES_PAN_21mic_H50_0449_fot_000-10297_R_tif
  70
32
  10
181279.500
  20
4553549.793
  30
-17848.6
  0
VERTEX
  8
PNOA-H_AMS_1956-57_33k_ES_PAN_21mic_H50_0449_fot_000-10297_R_tif
  70
32
  10
181290.500
  20
4553549.793
  30
-14534
  0
VERTEX
  8
PNOA-H_AMS_1956-57_33k_ES_PAN_21mic_H50_0449_fot_000-10297_R_tif
  70
32
  10
181292.500
  20
4553551.793
  30
-14534
  0
VERTEX
  8
PNOA-H_AMS_1956-57_33k_ES_PAN_21mic_H50_0449_fot_000-10297_R_tif
  70
32
  10
181292.500
  20
4553557.793
  30
-17849.051
  0
VERTEX
  8
PNOA-H_AMS_1956-57_33k_ES_PAN_21mic_H50_0449_fot_000-10297_R_tif
  70
32
  10
181299.500
  20
4553564.793
  30
-17849.949
  0
VERTEX
  8
PNOA-H_AMS_1956-57_33k_ES_PAN_21mic_H50_0449_fot_000-10297_R_tif
  70
32
  10
181305.500
  20
4553564.793
  30
-14535.2
  0
VERTEX
  8
PNOA-H_AMS_1956-57_33k_ES_PAN_21mic_H50_0449_fot_000-10297_R_tif
  70
32
  10
181349.500
  20
4553609.793
  30
-17859.85
  0
VERTEX
  8
PNOA-H_AMS_1956-57_33k_ES_PAN_21mic_H50_0449_fot_000-10297_R_tif
  70
32
  10
181355.500
  20
4553609.793
  30
-14547
  0
VERTEX
  8
PNOA-H_AMS_1956-57_33k_ES_PAN_21mic_H50_0449_fot_000-10297_R_tif
  70
32
  10
181359.500
  20
4553614.793
  30
-17858.949
  0
VERTEX
  8
PNOA-H_AMS_1956-57_33k_ES_PAN_21mic_H50_0449_fot_000-10297_R_tif
  70
32
  10
181365.500
  20
4553614.793
  30
-14545.45
  0
VERTEX
  8
PNOA-H_AMS_1956-57_33k_ES_PAN_21mic_H50_0449_fot_000-10297_R_tif
  70
32
  10
181369.500
  20
4553619.793
  30
-17858.051
  0
VERTEX
  8
PNOA-H_AMS_1956-57_33k_ES_PAN_21mic_H50_0449_fot_000-10297_R_tif
  70
32
  10
181375.500
  20
4553619.793
  30
-14544.25
  0
VERTEX
  8
PNOA-H_AMS_1956-57_33k_ES_PAN_21mic_H50_0449_fot_000-10297_R_tif
  70
32
  10
181379.500
  20
4553624.793
  30
-17856.699
  0
VERTEX
  8
PNOA-H_AMS_1956-57_33k_ES_PAN_21mic_H50_0449_fot_000-10297_R_tif
  70
32
  10
181385.500
  20
4553624.793
  30
-14543.15
  0
VERTEX
  8
PNOA-H_AMS_1956-57_33k_ES_PAN_21mic_H50_0449_fot_000-10297_R_tif
  70
32
  10
181392.500
  20
4553631.793
  30
-14539.45
  0
VERTEX
  8
PNOA-H_AMS_1956-57_33k_ES_PAN_21mic_H50_0449_fot_000-10297_R_tif
  70
32
  10
181392.500
  20
4553637.793
  30
-14536.35
  0
VERTEX
  8
PNOA-H_AMS_1956-57_33k_ES_PAN_21mic_H50_0449_fot_000-10297_R_tif
  70
32
  10
181387.500
  20
4553641.793
  30
-17849.5
  0
VERTEX
  8
PNOA-H_AMS_1956-57_33k_ES_PAN_21mic_H50_0449_fot_000-10297_R_tif
  70
32
  10
181387.500
  20
4553647.793
  30
-14532.5
  0
VERTEX
  8
PNOA-H_AMS_1956-57_33k_ES_PAN_21mic_H50_0449_fot_000-10297_R_tif
  70
32
  10
181382.500
  20
4553651.793
  30
-17846.35
  0
VERTEX
  8
PNOA-H_AMS_1956-57_33k_ES_PAN_21mic_H50_0449_fot_000-10297_R_tif
  70
32
  10
181382.500
  20
4553662.793
  30
-14527.5
  0
VERTEX
  8
PNOA-H_AMS_1956-57_33k_ES_PAN_21mic_H50_0449_fot_000-10297_R_tif
  70
32
  10
181377.500
  20
4553666.793
  30
-17841.85
  0
VERTEX
  8
PNOA-H_AMS_1956-57_33k_ES_PAN_21mic_H50_0449_fot_000-10297_R_tif
  70
32
  10
181377.500
  20
4553672.793
  30
-14523.75
  0
VERTEX
  8
PNOA-H_AMS_1956-57_33k_ES_PAN_21mic_H50_0449_fot_000-10297_R_tif
  70
32
  10
181367.500
  20
4553681.793
  30
-17837.35
  0
VERTEX
  8
PNOA-H_AMS_1956-57_33k_ES_PAN_21mic_H50_0449_fot_000-10297_R_tif
  70
32
  10
181367.500
  20
4553692.793
  30
-14514.9
  0
VERTEX
  8
PNOA-H_AMS_1956-57_33k_ES_PAN_21mic_H50_0449_fot_000-10297_R_tif
  70
32
  10
181362.500
  20
4553696.793
  30
-17831.949
  0
VERTEX
  8
PNOA-H_AMS_1956-57_33k_ES_PAN_21mic_H50_0449_fot_000-10297_R_tif
  70
32
  10
181362.500
  20
4553702.793
  30
-14511.7
  0
VERTEX
  8
PNOA-H_AMS_1956-57_33k_ES_PAN_21mic_H50_0449_fot_000-10297_R_tif
  70
32
  10
181357.500
  20
4553706.793
  30
-17829.699
  0
VERTEX
  8
PNOA-H_AMS_1956-57_33k_ES_PAN_21mic_H50_0449_fot_000-10297_R_tif
  70
32
  10
181357.500
  20
4553712.793
  30
-14507.1
  0
VERTEX
  8
PNOA-H_AMS_1956-57_33k_ES_PAN_21mic_H50_0449_fot_000-10297_R_tif
  70
32
  10
181352.500
  20
4553716.793
  30
-17825.199
  0
VERTEX
  8
PNOA-H_AMS_1956-57_33k_ES_PAN_21mic_H50_0449_fot_000-10297_R_tif
  70
32
  10
181352.500
  20
4553722.793
  30
-14503.4
  0
VERTEX
  8
PNOA-H_AMS_1956-57_33k_ES_PAN_21mic_H50_0449_fot_000-10297_R_tif
  70
32
  10
181347.500
  20
4553726.793
  30
-17822.5
  0
VERTEX
  8
PNOA-H_AMS_1956-57_33k_ES_PAN_21mic_H50_0449_fot_000-10297_R_tif
  70
32
  10
181347.500
  20
4553737.793
  30
-14497.3
  0
VERTEX
  8
PNOA-H_AMS_1956-57_33k_ES_PAN_21mic_H50_0449_fot_000-10297_R_tif
  70
32
  10
181337.500
  20
4553746.793
  30
-17816.65
  0
VERTEX
  8
PNOA-H_AMS_1956-57_33k_ES_PAN_21mic_H50_0449_fot_000-10297_R_tif
  70
32
  10
181337.500
  20
4553757.793
  30
-14492.4
  0
VERTEX
  8
PNOA-H_AMS_1956-57_33k_ES_PAN_21mic_H50_0449_fot_000-10297_R_tif
  70
32
  10
181327.500
  20
4553766.793
  30
-17813.051
  0
VERTEX
  8
PNOA-H_AMS_1956-57_33k_ES_PAN_21mic_H50_0449_fot_000-10297_R_tif
  70
32
  10
181327.500
  20
4553777.793
  30
-14487.1
  0
VERTEX
  8
PNOA-H_AMS_1956-57_33k_ES_PAN_21mic_H50_0449_fot_000-10297_R_tif
  70
32
  10
181322.500
  20
4553781.793
  30
-17810.35
  0
VERTEX
  8
PNOA-H_AMS_1956-57_33k_ES_PAN_21mic_H50_0449_fot_000-10297_R_tif
  70
32
  10
181322.500
  20
4553787.793
  30
-14484.9
  0
VERTEX
  8
PNOA-H_AMS_1956-57_33k_ES_PAN_21mic_H50_0449_fot_000-10297_R_tif
  70
32
  10
181317.500
  20
4553791.793
  30
-17808.551
  0
VERTEX
  8
PNOA-H_AMS_1956-57_33k_ES_PAN_21mic_H50_0449_fot_000-10297_R_tif
  70
32
  10
181317.500
  20
4553797.793
  30
-14483.15
  0
VERTEX
  8
PNOA-H_AMS_1956-57_33k_ES_PAN_21mic_H50_0449_fot_000-10297_R_tif
  70
32
  10
181312.500
  20
4553801.793
  30
-17806.75
  0
VERTEX
  8
PNOA-H_AMS_1956-57_33k_ES_PAN_21mic_H50_0449_fot_000-10297_R_tif
  70
32
  10
181312.500
  20
4553807.793
  30
-14482.15
  0
VERTEX
  8
PNOA-H_AMS_1956-57_33k_ES_PAN_21mic_H50_0449_fot_000-10297_R_tif
  70
32
  10
181307.500
  20
4553811.793
  30
-17806.301
  0
VERTEX
  8
PNOA-H_AMS_1956-57_33k_ES_PAN_21mic_H50_0449_fot_000-10297_R_tif
  70
32
  10
181307.500
  20
4553817.793
  30
-14481.15
  0
VERTEX
  8
PNOA-H_AMS_1956-57_33k_ES_PAN_21mic_H50_0449_fot_000-10297_R_tif
  70
32
  10
181302.500
  20
4553821.793
  30
-17805.85
  0
VERTEX
  8
PNOA-H_AMS_1956-57_33k_ES_PAN_21mic_H50_0449_fot_000-10297_R_tif
  70
32
  10
181302.500
  20
4553827.793
  30
-14480.6
  0
VERTEX
  8
PNOA-H_AMS_1956-57_33k_ES_PAN_21mic_H50_0449_fot_000-10297_R_tif
  70
32
  10
181297.500
  20
4553831.793
  30
-17805.4
  0
VERTEX
  8
PNOA-H_AMS_1956-57_33k_ES_PAN_21mic_H50_0449_fot_000-10297_R_tif
  70
32
  10
181297.500
  20
4553837.793
  30
-14480.05
  0
VERTEX
  8
PNOA-H_AMS_1956-57_33k_ES_PAN_21mic_H50_0449_fot_000-10297_R_tif
  70
32
  10
181287.500
  20
4553846.793
  30
-17804.949
  0
VERTEX
  8
PNOA-H_AMS_1956-57_33k_ES_PAN_21mic_H50_0449_fot_000-10297_R_tif
  70
32
  10
181287.500
  20
4553852.793
  30
-14479.5
  0
VERTEX
  8
PNOA-H_AMS_1956-57_33k_ES_PAN_21mic_H50_0449_fot_000-10297_R_tif
  70
32
  10
181282.500
  20
4553856.793
  30
-17804.5
  0
VERTEX
  8
PNOA-H_AMS_1956-57_33k_ES_PAN_21mic_H50_0449_fot_000-10297_R_tif
  70
32
  10
181282.500
  20
4553867.793
  30
-14479
  0
VERTEX
  8
PNOA-H_AMS_1956-57_33k_ES_PAN_21mic_H50_0449_fot_000-10297_R_tif
  70
32
  10
181277.500
  20
4553871.793
  30
-17804.5
  0
VERTEX
  8
PNOA-H_AMS_1956-57_33k_ES_PAN_21mic_H50_0449_fot_000-10297_R_tif
  70
32
  10
181277.500
  20
4553877.793
  30
-14479.6
  0
VERTEX
  8
PNOA-H_AMS_1956-57_33k_ES_PAN_21mic_H50_0449_fot_000-10297_R_tif
  70
32
  10
181267.500
  20
4553886.793
  30
-17804.949
  0
VERTEX
  8
PNOA-H_AMS_1956-57_33k_ES_PAN_21mic_H50_0449_fot_000-10297_R_tif
  70
32
  10
181267.500
  20
4553892.793
  30
-14480.05
  0
VERTEX
  8
PNOA-H_AMS_1956-57_33k_ES_PAN_21mic_H50_0449_fot_000-10297_R_tif
  70
32
  10
181262.500
  20
4553896.793
  30
-17804.949
  0
VERTEX
  8
PNOA-H_AMS_1956-57_33k_ES_PAN_21mic_H50_0449_fot_000-10297_R_tif
  70
32
  10
181262.500
  20
4553902.793
  30
-14480.6
  0
VERTEX
  8
PNOA-H_AMS_1956-57_33k_ES_PAN_21mic_H50_0449_fot_000-10297_R_tif
  70
32
  10
181257.500
  20
4553906.793
  30
-17805.4
  0
VERTEX
  8
PNOA-H_AMS_1956-57_33k_ES_PAN_21mic_H50_0449_fot_000-10297_R_tif
  70
32
  10
181257.500
  20
4553912.793
  30
-14480.6
  0
VERTEX
  8
PNOA-H_AMS_1956-57_33k_ES_PAN_21mic_H50_0449_fot_000-10297_R_tif
  70
32
  10
181252.500
  20
4553916.793
  30
-17805.4
  0
VERTEX
  8
PNOA-H_AMS_1956-57_33k_ES_PAN_21mic_H50_0449_fot_000-10297_R_tif
  70
32
  10
181252.500
  20
4553922.793
  30
-14481.15
  0
VERTEX
  8
PNOA-H_AMS_1956-57_33k_ES_PAN_21mic_H50_0449_fot_000-10297_R_tif
  70
32
  10
181247.500
  20
4553926.793
  30
-17805.85
  0
VERTEX
  8
PNOA-H_AMS_1956-57_33k_ES_PAN_21mic_H50_0449_fot_000-10297_R_tif
  70
32
  10
181247.500
  20
4553932.793
  30
-14481.7
  0
VERTEX
  8
PNOA-H_AMS_1956-57_33k_ES_PAN_21mic_H50_0449_fot_000-10297_R_tif
  70
32
  10
181242.500
  20
4553936.793
  30
-17806.301
  0
VERTEX
  8
PNOA-H_AMS_1956-57_33k_ES_PAN_21mic_H50_0449_fot_000-10297_R_tif
  70
32
  10
181242.500
  20
4553942.793
  30
-14482.25
  0
VERTEX
  8
PNOA-H_AMS_1956-57_33k_ES_PAN_21mic_H50_0449_fot_000-10297_R_tif
  70
32
  10
181237.500
  20
4553946.793
  30
-17806.75
  0
VERTEX
  8
PNOA-H_AMS_1956-57_33k_ES_PAN_21mic_H50_0449_fot_000-10297_R_tif
  70
32
  10
181237.500
  20
4553952.793
  30
-14482.8
  0
VERTEX
  8
PNOA-H_AMS_1956-57_33k_ES_PAN_21mic_H50_0449_fot_000-10297_R_tif
  70
32
  10
181232.500
  20
4553956.793
  30
-17807.199
  0
VERTEX
  8
PNOA-H_AMS_1956-57_33k_ES_PAN_21mic_H50_0449_fot_000-10297_R_tif
  70
32
  10
181232.500
  20
4553962.793
  30
-14483.35
  0
VERTEX
  8
PNOA-H_AMS_1956-57_33k_ES_PAN_21mic_H50_0449_fot_000-10297_R_tif
  70
32
  10
181222.500
  20
4553971.793
  30
-17808.1
  0
VERTEX
  8
PNOA-H_AMS_1956-57_33k_ES_PAN_21mic_H50_0449_fot_000-10297_R_tif
  70
32
  10
181222.500
  20
4553977.793
  30
-14484
  0
VERTEX
  8
PNOA-H_AMS_1956-57_33k_ES_PAN_21mic_H50_0449_fot_000-10297_R_tif
  70
32
  10
181217.500
  20
4553981.793
  30
-17808.551
  0
VERTEX
  8
PNOA-H_AMS_1956-57_33k_ES_PAN_21mic_H50_0449_fot_000-10297_R_tif
  70
32
  10
181217.500
  20
4553987.793
  30
-14485
  0
VERTEX
  8
PNOA-H_AMS_1956-57_33k_ES_PAN_21mic_H50_0449_fot_000-10297_R_tif
  70
32
  10
181212.500
  20
4553991.793
  30
-17809
  0
VERTEX
  8
PNOA-H_AMS_1956-57_33k_ES_PAN_21mic_H50_0449_fot_000-10297_R_tif
  70
32
  10
181212.500
  20
4553997.793
  30
-16147
  0
VERTEX
  8
PNOA-H_AMS_1956-57_33k_ES_PAN_21mic_H50_0449_fot_000-10297_R_tif
  70
32
  10
181218.000
  20
4553995.793
  30
473
  0
VERTEX
  8
PNOA-H_AMS_1956-57_33k_ES_PAN_21mic_H50_0449_fot_000-10297_R_tif
  70
32
  10
181221.500
  20
4553999.293
  30
472.7
  0
VERTEX
  8
PNOA-H_AMS_1956-57_33k_ES_PAN_21mic_H50_0449_fot_000-10297_R_tif
  70
32
  10
181219.500
  20
4554004.793
  30
-16147
  0
VERTEX
  8
PNOA-H_AMS_1956-57_33k_ES_PAN_21mic_H50_0449_fot_000-10297_R_tif
  70
32
  10
181995.500
  20
4554004.793
  30
-14540.6
  0
VERTEX
  8
PNOA-H_AMS_1956-57_33k_ES_PAN_21mic_H50_0449_fot_000-10297_R_tif
  70
32
  10
181997.500
  20
4554006.793
  30
-14543.4
  0
VERTEX
  8
PNOA-H_AMS_1956-57_33k_ES_PAN_21mic_H50_0449_fot_000-10297_R_tif
  70
32
  10
181997.500
  20
4555209.293
  30
-16260.3
  0
VERTEX
  8
PNOA-H_AMS_1956-57_33k_ES_PAN_21mic_H50_0449_fot_000-10297_R_tif
  70
32
  10
183105.500
  20
4555975.793
  30
258.7
  0
VERTEX
  8
PNOA-H_AMS_1956-57_33k_ES_PAN_21mic_H50_0449_fot_000-10297_R_tif
  70
32
  10
183106.000
  20
4555976.793
  30
258.4
  0
SEQEND
  8
PNOA-H_AMS_1956-57_33k_ES_PAN_21mic_H50_0449_fot_000-10297_R_tif
  0
TEXT
  8
PNOA-H_AMS_1956-57_33k_ES_PAN_21mic_H50_0449_fot_000-10297_R_tif
 62
0
  1
PNOA-H_AMS_1956-57_33k_ES_PAN_21mic_H50_0449_fot_000-10297_R.tif
 40
41.85758
  10
182316.875
  20
4553988.293
  0
POLYLINE
  8
PNOA-H_AMS_1956-57_33k_ES_PAN_21mic_H50_0449_fot_000-10296_R_tif
  70
9
  66
1
  0
VERTEX
  8
PNOA-H_AMS_1956-57_33k_ES_PAN_21mic_H50_0449_fot_000-10296_R_tif
  70
32
  10
186140.000
  20
4555117.793
  30
613.9
  0
VERTEX
  8
PNOA-H_AMS_1956-57_33k_ES_PAN_21mic_H50_0449_fot_000-10296_R_tif
  70
32
  10
186146.000
  20
4555117.793
  30
614.38
  0
VERTEX
  8
PNOA-H_AMS_1956-57_33k_ES_PAN_21mic_H50_0449_fot_000-10296_R_tif
  70
32
  10
186146.500
  20
4555116.793
  30
614.67
  0
VERTEX
  8
PNOA-H_AMS_1956-57_33k_ES_PAN_21mic_H50_0449_fot_000-10296_R_tif
  70
32
  10
186153.000
  20
4555095.793
  30
618.72
  0
VERTEX
  8
PNOA-H_AMS_1956-57_33k_ES_PAN_21mic_H50_0449_fot_000-10296_R_tif
  70
32
  10
186153.000
  20
4555088.793
  30
619.42
  0
VERTEX
  8
PNOA-H_AMS_1956-57_33k_ES_PAN_21mic_H50_0449_fot_000-10296_R_tif
  70
32
  10
185931.000
  20
4552004.793
  30
584.8
  0
VERTEX
  8
PNOA-H_AMS_1956-57_33k_ES_PAN_21mic_H50_0449_fot_000-10296_R_tif
  70
32
  10
183408.500
  20
4551959.793
  30
469.2
  0
VERTEX
  8
PNOA-H_AMS_1956-57_33k_ES_PAN_21mic_H50_0449_fot_000-10296_R_tif
  70
32
  10
183389.000
  20
4551959.793
  30
465.8
  0
VERTEX
  8
PNOA-H_AMS_1956-57_33k_ES_PAN_21mic_H50_0449_fot_000-10296_R_tif
  70
32
  10
183315.500
  20
4551999.293
  30
468.4
  0
VERTEX
  8
PNOA-H_AMS_1956-57_33k_ES_PAN_21mic_H50_0449_fot_000-10296_R_tif
  70
32
  10
183467.000
  20
4554978.293
  30
189
  0
VERTEX
  8
PNOA-H_AMS_1956-57_33k_ES_PAN_21mic_H50_0449_fot_000-10296_R_tif
  70
32
  10
183467.500
  20
4554980.793
  30
189
  0
VERTEX
  8
PNOA-H_AMS_1956-57_33k_ES_PAN_21mic_H50_0449_fot_000-10296_R_tif
  70
32
  10
183483.000
  20
4554981.793
  30
189
  0
VERTEX
  8
PNOA-H_AMS_1956-57_33k_ES_PAN_21mic_H50_0449_fot_000-10296_R_tif
  70
32
  10
186130.000
  20
4555117.293
  30
612
  0
VERTEX
  8
PNOA-H_AMS_1956-57_33k_ES_PAN_21mic_H50_0449_fot_000-10296_R_tif
  70
32
  10
186140.000
  20
4555117.793
  30
613.9
  0
SEQEND
  8
PNOA-H_AMS_1956-57_33k_ES_PAN_21mic_H50_0449_fot_000-10296_R_tif
  0
TEXT
  8
PNOA-H_AMS_1956-57_33k_ES_PAN_21mic_H50_0449_fot_000-10296_R_tif
 62
0
  1
PNOA-H_AMS_1956-57_33k_ES_PAN_21mic_H50_0449_fot_000-10296_R.tif
 40
41.85758
  10
184717.608
  20
4553538.793
  0
POLYLINE
  8
PNOA-H_AMS_1956-57_33k_ES_PAN_21mic_H50_0449_fot_52A-25908_E_tif
  70
9
  66
1
  0
VERTEX
  8
PNOA-H_AMS_1956-57_33k_ES_PAN_21mic_H50_0449_fot_52A-25908_E_tif
  70
32
  10
191898.500
  20
4556565.793
  30
721
  0
VERTEX
  8
PNOA-H_AMS_1956-57_33k_ES_PAN_21mic_H50_0449_fot_52A-25908_E_tif
  70
32
  10
192444.500
  20
4556414.793
  30
729
  0
VERTEX
  8
PNOA-H_AMS_1956-57_33k_ES_PAN_21mic_H50_0449_fot_52A-25908_E_tif
  70
32
  10
192370.500
  20
4555236.793
  30
685
  0
VERTEX
  8
PNOA-H_AMS_1956-57_33k_ES_PAN_21mic_H50_0449_fot_52A-25908_E_tif
  70
32
  10
192368.000
  20
4555229.793
  30
685
  0
VERTEX
  8
PNOA-H_AMS_1956-57_33k_ES_PAN_21mic_H50_0449_fot_52A-25908_E_tif
  70
32
  10
191650.000
  20
4554082.293
  30
695
  0
VERTEX
  8
PNOA-H_AMS_1956-57_33k_ES_PAN_21mic_H50_0449_fot_52A-25908_E_tif
  70
32
  10
189299.000
  20
4555481.793
  30
648
  0
VERTEX
  8
PNOA-H_AMS_1956-57_33k_ES_PAN_21mic_H50_0449_fot_52A-25908_E_tif
  70
32
  10
189345.000
  20
4556376.293
  30
656
  0
VERTEX
  8
PNOA-H_AMS_1956-57_33k_ES_PAN_21mic_H50_0449_fot_52A-25908_E_tif
  70
32
  10
190249.000
  20
4557021.793
  30
670.8
  0
VERTEX
  8
PNOA-H_AMS_1956-57_33k_ES_PAN_21mic_H50_0449_fot_52A-25908_E_tif
  70
32
  10
190275.500
  20
4557015.293
  30
672.1
  0
VERTEX
  8
PNOA-H_AMS_1956-57_33k_ES_PAN_21mic_H50_0449_fot_52A-25908_E_tif
  70
32
  10
191897.500
  20
4556565.793
  30
721
  0
VERTEX
  8
PNOA-H_AMS_1956-57_33k_ES_PAN_21mic_H50_0449_fot_52A-25908_E_tif
  70
32
  10
191898.500
  20
4556565.793
  30
721
  0
SEQEND
  8
PNOA-H_AMS_1956-57_33k_ES_PAN_21mic_H50_0449_fot_52A-25908_E_tif
  0
TEXT
  8
PNOA-H_AMS_1956-57_33k_ES_PAN_21mic_H50_0449_fot_52A-25908_E_tif
 62
0
  1
PNOA-H_AMS_1956-57_33k_ES_PAN_21mic_H50_0449_fot_52A-25908_E.tif
 40
41.85758
  10
190846.458
  20
4555552.043
  0
POLYLINE
  8
PNOA-H_AMS_1956-57_33k_ES_PAN_21mic_H50_0449_fot_53A-25897_W_tif
  70
9
  66
1
  0
VERTEX
  8
PNOA-H_AMS_1956-57_33k_ES_PAN_21mic_H50_0449_fot_53A-25897_W_tif
  70
32
  10
181658.500
  20
4552050.793
  30
198.7
  0
VERTEX
  8
PNOA-H_AMS_1956-57_33k_ES_PAN_21mic_H50_0449_fot_53A-25897_W_tif
  70
32
  10
183315.500
  20
4551999.793
  30
468.5
  0
VERTEX
  8
PNOA-H_AMS_1956-57_33k_ES_PAN_21mic_H50_0449_fot_53A-25897_W_tif
  70
32
  10
183389.500
  20
4551959.793
  30
465.9
  0
VERTEX
  8
PNOA-H_AMS_1956-57_33k_ES_PAN_21mic_H50_0449_fot_53A-25897_W_tif
  70
32
  10
183423.500
  20
4548036.793
  30
495.8
  0
VERTEX
  8
PNOA-H_AMS_1956-57_33k_ES_PAN_21mic_H50_0449_fot_53A-25897_W_tif
  70
32
  10
182157.000
  20
4547451.293
  30
487
  0
VERTEX
  8
PNOA-H_AMS_1956-57_33k_ES_PAN_21mic_H50_0449_fot_53A-25897_W_tif
  70
32
  10
182154.500
  20
4547451.293
  30
485.84
  0
VERTEX
  8
PNOA-H_AMS_1956-57_33k_ES_PAN_21mic_H50_0449_fot_53A-25897_W_tif
  70
32
  10
182131.500
  20
4547460.793
  30
458.19
  0
VERTEX
  8
PNOA-H_AMS_1956-57_33k_ES_PAN_21mic_H50_0449_fot_53A-25897_W_tif
  70
32
  10
180510.500
  20
4548134.293
  30
419.8
  0
VERTEX
  8
PNOA-H_AMS_1956-57_33k_ES_PAN_21mic_H50_0449_fot_53A-25897_W_tif
  70
32
  10
180575.500
  20
4552084.293
  30
327.9
  0
VERTEX
  8
PNOA-H_AMS_1956-57_33k_ES_PAN_21mic_H50_0449_fot_53A-25897_W_tif
  70
32
  10
181653.000
  20
4552050.793
  30
196.5
  0
VERTEX
  8
PNOA-H_AMS_1956-57_33k_ES_PAN_21mic_H50_0449_fot_53A-25897_W_tif
  70
32
  10
181658.500
  20
4552050.793
  30
198.7
  0
SEQEND
  8
PNOA-H_AMS_1956-57_33k_ES_PAN_21mic_H50_0449_fot_53A-25897_W_tif
  0
TEXT
  8
PNOA-H_AMS_1956-57_33k_ES_PAN_21mic_H50_0449_fot_53A-25897_W_tif
 62
0
  1
PNOA-H_AMS_1956-57_33k_ES_PAN_21mic_H50_0449_fot_53A-25897_W.tif
 40
41.85758
  10
181972.939
  20
4549767.793
  0
POLYLINE
  8
PNOA-H_AMS_1956-57_33k_ES_PAN_21mic_H50_0449_fot_53A-25895_W_tif
  70
9
  66
1
  0
VERTEX
  8
PNOA-H_AMS_1956-57_33k_ES_PAN_21mic_H50_0449_fot_53A-25895_W_tif
  70
32
  10
188733.500
  20
4552021.793
  30
643.73
  0
VERTEX
  8
PNOA-H_AMS_1956-57_33k_ES_PAN_21mic_H50_0449_fot_53A-25895_W_tif
  70
32
  10
188740.000
  20
4552020.293
  30
645
  0
VERTEX
  8
PNOA-H_AMS_1956-57_33k_ES_PAN_21mic_H50_0449_fot_53A-25895_W_tif
  70
32
  10
189419.000
  20
4551698.793
  30
692.24
  0
VERTEX
  8
PNOA-H_AMS_1956-57_33k_ES_PAN_21mic_H50_0449_fot_53A-25895_W_tif
  70
32
  10
189450.000
  20
4547871.793
  30
604.1
  0
VERTEX
  8
PNOA-H_AMS_1956-57_33k_ES_PAN_21mic_H50_0449_fot_53A-25895_W_tif
  70
32
  10
188070.500
  20
4547406.793
  30
650.01
  0
VERTEX
  8
PNOA-H_AMS_1956-57_33k_ES_PAN_21mic_H50_0449_fot_53A-25895_W_tif
  70
32
  10
186465.500
  20
4548081.793
  30
518.99
  0
VERTEX
  8
PNOA-H_AMS_1956-57_33k_ES_PAN_21mic_H50_0449_fot_53A-25895_W_tif
  70
32
  10
186433.000
  20
4551733.293
  30
603
  0
VERTEX
  8
PNOA-H_AMS_1956-57_33k_ES_PAN_21mic_H50_0449_fot_53A-25895_W_tif
  70
32
  10
188729.500
  20
4552021.293
  30
643.18
  0
VERTEX
  8
PNOA-H_AMS_1956-57_33k_ES_PAN_21mic_H50_0449_fot_53A-25895_W_tif
  70
32
  10
188733.500
  20
4552021.793
  30
643.73
  0
SEQEND
  8
PNOA-H_AMS_1956-57_33k_ES_PAN_21mic_H50_0449_fot_53A-25895_W_tif
  0
TEXT
  8
PNOA-H_AMS_1956-57_33k_ES_PAN_21mic_H50_0449_fot_53A-25895_W_tif
 62
0
  1
PNOA-H_AMS_1956-57_33k_ES_PAN_21mic_H50_0449_fot_53A-25895_W.tif
 40
41.85758
  10
187943.023
  20
4549714.293
  0
POLYLINE
  8
PNOA-H_AMS_1956-57_33k_ES_PAN_21mic_H50_0449_fot_53A-25896_W_tif
  70
9
  66
1
  0
VERTEX
  8
PNOA-H_AMS_1956-57_33k_ES_PAN_21mic_H50_0449_fot_53A-25896_W_tif
  70
32
  10
183690.000
  20
4551965.293
  30
511.4
  0
VERTEX
  8
PNOA-H_AMS_1956-57_33k_ES_PAN_21mic_H50_0449_fot_53A-25896_W_tif
  70
32
  10
185931.500
  20
4552004.793
  30
584.7
  0
VERTEX
  8
PNOA-H_AMS_1956-57_33k_ES_PAN_21mic_H50_0449_fot_53A-25896_W_tif
  70
32
  10
186433.000
  20
4551733.793
  30
603
  0
VERTEX
  8
PNOA-H_AMS_1956-57_33k_ES_PAN_21mic_H50_0449_fot_53A-25896_W_tif
  70
32
  10
186465.500
  20
4548081.793
  30
518.99
  0
VERTEX
  8
PNOA-H_AMS_1956-57_33k_ES_PAN_21mic_H50_0449_fot_53A-25896_W_tif
  70
32
  10
185114.000
  20
4547401.293
  30
452.8
  0
VERTEX
  8
PNOA-H_AMS_1956-57_33k_ES_PAN_21mic_H50_0449_fot_53A-25896_W_tif
  70
32
  10
183423.500
  20
4548037.293
  30
495.7
  0
VERTEX
  8
PNOA-H_AMS_1956-57_33k_ES_PAN_21mic_H50_0449_fot_53A-25896_W_tif
  70
32
  10
183389.500
  20
4551959.793
  30
465.9
  0
VERTEX
  8
PNOA-H_AMS_1956-57_33k_ES_PAN_21mic_H50_0449_fot_53A-25896_W_tif
  70
32
  10
183662.000
  20
4551964.793
  30
508.7
  0
VERTEX
  8
PNOA-H_AMS_1956-57_33k_ES_PAN_21mic_H50_0449_fot_53A-25896_W_tif
  70
32
  10
183690.000
  20
4551965.293
  30
511.4
  0
SEQEND
  8
PNOA-H_AMS_1956-57_33k_ES_PAN_21mic_H50_0449_fot_53A-25896_W_tif
  0
TEXT
  8
PNOA-H_AMS_1956-57_33k_ES_PAN_21mic_H50_0449_fot_53A-25896_W_tif
 62
0
  1
PNOA-H_AMS_1956-57_33k_ES_PAN_21mic_H50_0449_fot_53A-25896_W.tif
 40
41.85758
  10
184930.067
  20
4549703.043
  0
POLYLINE
  8
PNOA-H_AMS_1956-57_33k_ES_PAN_21mic_H50_0449_fot_53A-25894_W_tif
  70
9
  66
1
  0
VERTEX
  8
PNOA-H_AMS_1956-57_33k_ES_PAN_21mic_H50_0449_fot_53A-25894_W_tif
  70
32
  10
189846.500
  20
4551746.293
  30
701
  0
VERTEX
  8
PNOA-H_AMS_1956-57_33k_ES_PAN_21mic_H50_0449_fot_53A-25894_W_tif
  70
32
  10
191502.500
  20
4551929.793
  30
709.25
  0
VERTEX
  8
PNOA-H_AMS_1956-57_33k_ES_PAN_21mic_H50_0449_fot_53A-25894_W_tif
  70
32
  10
192193.500
  20
4551586.793
  30
731
  0
VERTEX
  8
PNOA-H_AMS_1956-57_33k_ES_PAN_21mic_H50_0449_fot_53A-25894_W_tif
  70
32
  10
192266.500
  20
4547840.793
  30
668.51
  0
VERTEX
  8
PNOA-H_AMS_1956-57_33k_ES_PAN_21mic_H50_0449_fot_53A-25894_W_tif
  70
32
  10
190932.000
  20
4547288.293
  30
609.4
  0
VERTEX
  8
PNOA-H_AMS_1956-57_33k_ES_PAN_21mic_H50_0449_fot_53A-25894_W_tif
  70
32
  10
189450.000
  20
4547871.793
  30
604.1
  0
VERTEX
  8
PNOA-H_AMS_1956-57_33k_ES_PAN_21mic_H50_0449_fot_53A-25894_W_tif
  70
32
  10
189419.000
  20
4551698.793
  30
692.24
  0
VERTEX
  8
PNOA-H_AMS_1956-57_33k_ES_PAN_21mic_H50_0449_fot_53A-25894_W_tif
  70
32
  10
189842.000
  20
4551745.793
  30
700.58
  0
VERTEX
  8
PNOA-H_AMS_1956-57_33k_ES_PAN_21mic_H50_0449_fot_53A-25894_W_tif
  70
32
  10
189846.500
  20
4551746.293
  30
701
  0
SEQEND
  8
PNOA-H_AMS_1956-57_33k_ES_PAN_21mic_H50_0449_fot_53A-25894_W_tif
  0
TEXT
  8
PNOA-H_AMS_1956-57_33k_ES_PAN_21mic_H50_0449_fot_53A-25894_W_tif
 62
0
  1
PNOA-H_AMS_1956-57_33k_ES_PAN_21mic_H50_0449_fot_53A-25894_W.tif
 40
41.85758
  10
190833.984
  20
4549609.043
  0
POLYLINE
  8
PNOA-H_AMS_1956-57_33k_ES_PAN_21mic_H50_0449_fot_53A-25896_W_tif
  70
9
  66
1
  0
VERTEX
  8
PNOA-H_AMS_1956-57_33k_ES_PAN_21mic_H50_0449_fot_53A-25896_W_tif
  70
32
  10
184337.500
  20
4547754.293
  30
374.9
  0
VERTEX
  8
PNOA-H_AMS_1956-57_33k_ES_PAN_21mic_H50_0449_fot_53A-25896_W_tif
  70
32
  10
184338.000
  20
4547753.293
  30
374.76
  0
VERTEX
  8
PNOA-H_AMS_1956-57_33k_ES_PAN_21mic_H50_0449_fot_53A-25896_W_tif
  70
32
  10
184342.000
  20
4547749.793
  30
377.9
  0
VERTEX
  8
PNOA-H_AMS_1956-57_33k_ES_PAN_21mic_H50_0449_fot_53A-25896_W_tif
  70
32
  10
184342.000
  20
4547744.793
  30
371.8
  0
VERTEX
  8
PNOA-H_AMS_1956-57_33k_ES_PAN_21mic_H50_0449_fot_53A-25896_W_tif
  70
32
  10
184334.000
  20
4547736.293
  30
341.84
  0
VERTEX
  8
PNOA-H_AMS_1956-57_33k_ES_PAN_21mic_H50_0449_fot_53A-25896_W_tif
  70
32
  10
184332.500
  20
4547735.293
  30
339.7
  0
VERTEX
  8
PNOA-H_AMS_1956-57_33k_ES_PAN_21mic_H50_0449_fot_53A-25896_W_tif
  70
32
  10
184327.500
  20
4547735.293
  30
329.4
  0
VERTEX
  8
PNOA-H_AMS_1956-57_33k_ES_PAN_21mic_H50_0449_fot_53A-25896_W_tif
  70
32
  10
184323.000
  20
4547739.793
  30
319
  0
VERTEX
  8
PNOA-H_AMS_1956-57_33k_ES_PAN_21mic_H50_0449_fot_53A-25896_W_tif
  70
32
  10
184323.000
  20
4547749.793
  30
322.9
  0
VERTEX
  8
PNOA-H_AMS_1956-57_33k_ES_PAN_21mic_H50_0449_fot_53A-25896_W_tif
  70
32
  10
184326.000
  20
4547753.293
  30
335.84
  0
VERTEX
  8
PNOA-H_AMS_1956-57_33k_ES_PAN_21mic_H50_0449_fot_53A-25896_W_tif
  70
32
  10
184327.500
  20
4547754.293
  30
342.7
  0
VERTEX
  8
PNOA-H_AMS_1956-57_33k_ES_PAN_21mic_H50_0449_fot_53A-25896_W_tif
  70
32
  10
184337.500
  20
4547754.293
  30
374.9
  0
SEQEND
  8
PNOA-H_AMS_1956-57_33k_ES_PAN_21mic_H50_0449_fot_53A-25896_W_tif
  0
TEXT
  8
PNOA-H_AMS_1956-57_33k_ES_PAN_21mic_H50_0449_fot_53A-25896_W_tif
 62
0
  1
PNOA-H_AMS_1956-57_33k_ES_PAN_21mic_H50_0449_fot_53A-25896_W.tif
 40
41.85758
  10
184332.500
  20
4547744.793
  0
POLYLINE
  8
PNOA-H_AMS_1956-57_33k_ES_PAN_21mic_H50_0449_fot_54A-29181_W_tif
  70
9
  66
1
  0
VERTEX
  8
PNOA-H_AMS_1956-57_33k_ES_PAN_21mic_H50_0449_fot_54A-29181_W_tif
  70
32
  10
184327.500
  20
4547754.293
  30
342.7
  0
VERTEX
  8
PNOA-H_AMS_1956-57_33k_ES_PAN_21mic_H50_0449_fot_54A-29181_W_tif
  70
32
  10
184337.500
  20
4547754.293
  30
374.9
  0
VERTEX
  8
PNOA-H_AMS_1956-57_33k_ES_PAN_21mic_H50_0449_fot_54A-29181_W_tif
  70
32
  10
184342.000
  20
4547749.793
  30
377.9
  0
VERTEX
  8
PNOA-H_AMS_1956-57_33k_ES_PAN_21mic_H50_0449_fot_54A-29181_W_tif
  70
32
  10
184342.000
  20
4547744.793
  30
371.8
  0
VERTEX
  8
PNOA-H_AMS_1956-57_33k_ES_PAN_21mic_H50_0449_fot_54A-29181_W_tif
  70
32
  10
184332.500
  20
4547735.293
  30
339.7
  0
VERTEX
  8
PNOA-H_AMS_1956-57_33k_ES_PAN_21mic_H50_0449_fot_54A-29181_W_tif
  70
32
  10
184327.500
  20
4547735.293
  30
329.4
  0
VERTEX
  8
PNOA-H_AMS_1956-57_33k_ES_PAN_21mic_H50_0449_fot_54A-29181_W_tif
  70
32
  10
184323.000
  20
4547739.793
  30
319
  0
VERTEX
  8
PNOA-H_AMS_1956-57_33k_ES_PAN_21mic_H50_0449_fot_54A-29181_W_tif
  70
32
  10
184323.000
  20
4547749.793
  30
322.9
  0
VERTEX
  8
PNOA-H_AMS_1956-57_33k_ES_PAN_21mic_H50_0449_fot_54A-29181_W_tif
  70
32
  10
184327.000
  20
4547753.293
  30
338.68
  0
VERTEX
  8
PNOA-H_AMS_1956-57_33k_ES_PAN_21mic_H50_0449_fot_54A-29181_W_tif
  70
32
  10
184327.500
  20
4547754.293
  30
342.7
  0
SEQEND
  8
PNOA-H_AMS_1956-57_33k_ES_PAN_21mic_H50_0449_fot_54A-29181_W_tif
  0
TEXT
  8
PNOA-H_AMS_1956-57_33k_ES_PAN_21mic_H50_0449_fot_54A-29181_W_tif
 62
0
  1
PNOA-H_AMS_1956-57_33k_ES_PAN_21mic_H50_0449_fot_54A-29181_W.tif
 40
41.85758
  10
184332.500
  20
4547744.793
  0
POLYLINE
  8
PNOA-H_AMS_1956-57_33k_ES_PAN_21mic_H50_0449_fot_54A-29181_W_tif
  70
9
  66
1
  0
VERTEX
  8
PNOA-H_AMS_1956-57_33k_ES_PAN_21mic_H50_0449_fot_54A-29181_W_tif
  70
32
  10
185057.281
  20
4545514.027
  30
518.921
  0
VERTEX
  8
PNOA-H_AMS_1956-57_33k_ES_PAN_21mic_H50_0449_fot_54A-29181_W_tif
  70
32
  10
182834.912
  20
4545609.591
  30
562.689
  0
VERTEX
  8
PNOA-H_AMS_1956-57_33k_ES_PAN_21mic_H50_0449_fot_54A-29181_W_tif
  70
32
  10
182075.807
  20
4545642.597
  30
562.716
  0
VERTEX
  8
PNOA-H_AMS_1956-57_33k_ES_PAN_21mic_H50_0449_fot_54A-29181_W_tif
  70
32
  10
182156.000
  20
4547451.293
  30
486.8
  0
VERTEX
  8
PNOA-H_AMS_1956-57_33k_ES_PAN_21mic_H50_0449_fot_54A-29181_W_tif
  70
32
  10
183423.500
  20
4548037.293
  30
495.7
  0
VERTEX
  8
PNOA-H_AMS_1956-57_33k_ES_PAN_21mic_H50_0449_fot_54A-29181_W_tif
  70
32
  10
183705.500
  20
4547930.793
  30
439.1
  0
VERTEX
  8
PNOA-H_AMS_1956-57_33k_ES_PAN_21mic_H50_0449_fot_54A-29181_W_tif
  70
32
  10
183706.500
  20
4547930.793
  30
438.7
  0
VERTEX
  8
PNOA-H_AMS_1956-57_33k_ES_PAN_21mic_H50_0449_fot_54A-29181_W_tif
  70
32
  10
185113.500
  20
4547401.293
  30
452.7
  0
SEQEND
  8
PNOA-H_AMS_1956-57_33k_ES_PAN_21mic_H50_0449_fot_54A-29181_W_tif
  0
TEXT
  8
PNOA-H_AMS_1956-57_33k_ES_PAN_21mic_H50_0449_fot_54A-29181_W_tif
 62
0
  1
PNOA-H_AMS_1956-57_33k_ES_PAN_21mic_H50_0449_fot_54A-29181_W.tif
 40
41.85758
  10
183582.318
  20
4546016.543
  0
POLYLINE
  8
PNOA-H_AMS_1956-57_33k_ES_PAN_21mic_H50_0449_fot_54A-29180_W_tif
  70
9
  66
1
  0
VERTEX
  8
PNOA-H_AMS_1956-57_33k_ES_PAN_21mic_H50_0449_fot_54A-29180_W_tif
  70
32
  10
187925.928
  20
4545391.433
  30
594.624
  0
VERTEX
  8
PNOA-H_AMS_1956-57_33k_ES_PAN_21mic_H50_0449_fot_54A-29180_W_tif
  70
32
  10
186340.196
  20
4545458.861
  30
519.496
  0
VERTEX
  8
PNOA-H_AMS_1956-57_33k_ES_PAN_21mic_H50_0449_fot_54A-29180_W_tif
  70
32
  10
185056.964
  20
4545514.041
  30
518.909
  0
VERTEX
  8
PNOA-H_AMS_1956-57_33k_ES_PAN_21mic_H50_0449_fot_54A-29180_W_tif
  70
32
  10
185113.500
  20
4547401.293
  30
452.7
  0
VERTEX
  8
PNOA-H_AMS_1956-57_33k_ES_PAN_21mic_H50_0449_fot_54A-29180_W_tif
  70
32
  10
185752.500
  20
4547723.293
  30
549
  0
VERTEX
  8
PNOA-H_AMS_1956-57_33k_ES_PAN_21mic_H50_0449_fot_54A-29180_W_tif
  70
32
  10
185753.500
  20
4547723.793
  30
548.61
  0
VERTEX
  8
PNOA-H_AMS_1956-57_33k_ES_PAN_21mic_H50_0449_fot_54A-29180_W_tif
  70
32
  10
186452.500
  20
4548075.793
  30
518.3
  0
VERTEX
  8
PNOA-H_AMS_1956-57_33k_ES_PAN_21mic_H50_0449_fot_54A-29180_W_tif
  70
32
  10
186464.500
  20
4548081.793
  30
518.9
  0
VERTEX
  8
PNOA-H_AMS_1956-57_33k_ES_PAN_21mic_H50_0449_fot_54A-29180_W_tif
  70
32
  10
186466.500
  20
4548081.793
  30
518.97
  0
VERTEX
  8
PNOA-H_AMS_1956-57_33k_ES_PAN_21mic_H50_0449_fot_54A-29180_W_tif
  70
32
  10
188069.500
  20
4547406.793
  30
650
  0
SEQEND
  8
PNOA-H_AMS_1956-57_33k_ES_PAN_21mic_H50_0449_fot_54A-29180_W_tif
  0
TEXT
  8
PNOA-H_AMS_1956-57_33k_ES_PAN_21mic_H50_0449_fot_54A-29180_W_tif
 62
0
  1
PNOA-H_AMS_1956-57_33k_ES_PAN_21mic_H50_0449_fot_54A-29180_W.tif
 40
41.85758
  10
186517.292
  20
4545938.543
  0
POLYLINE
  8
PNOA-H_AMS_1956-57_33k_ES_PAN_21mic_H50_0449_fot_54A-29179_W_tif
  70
9
  66
1
  0
VERTEX
  8
PNOA-H_AMS_1956-57_33k_ES_PAN_21mic_H50_0449_fot_54A-29179_W_tif
  70
32
  10
190845.623
  20
4545267.762
  30
590.45
  0
VERTEX
  8
PNOA-H_AMS_1956-57_33k_ES_PAN_21mic_H50_0449_fot_54A-29179_W_tif
  70
32
  10
189845.457
  20
4545309.812
  30
590.446
  0
VERTEX
  8
PNOA-H_AMS_1956-57_33k_ES_PAN_21mic_H50_0449_fot_54A-29179_W_tif
  70
32
  10
187925.704
  20
4545391.443
  30
594.147
  0
VERTEX
  8
PNOA-H_AMS_1956-57_33k_ES_PAN_21mic_H50_0449_fot_54A-29179_W_tif
  70
32
  10
188069.500
  20
4547406.793
  30
650
  0
VERTEX
  8
PNOA-H_AMS_1956-57_33k_ES_PAN_21mic_H50_0449_fot_54A-29179_W_tif
  70
32
  10
189448.500
  20
4547871.793
  30
604.4
  0
VERTEX
  8
PNOA-H_AMS_1956-57_33k_ES_PAN_21mic_H50_0449_fot_54A-29179_W_tif
  70
32
  10
189451.000
  20
4547871.793
  30
604.08
  0
VERTEX
  8
PNOA-H_AMS_1956-57_33k_ES_PAN_21mic_H50_0449_fot_54A-29179_W_tif
  70
32
  10
189849.500
  20
4547714.293
  30
633.64
  0
VERTEX
  8
PNOA-H_AMS_1956-57_33k_ES_PAN_21mic_H50_0449_fot_54A-29179_W_tif
  70
32
  10
189850.500
  20
4547713.793
  30
633.6
  0
VERTEX
  8
PNOA-H_AMS_1956-57_33k_ES_PAN_21mic_H50_0449_fot_54A-29179_W_tif
  70
32
  10
190931.500
  20
4547288.793
  30
609.3
  0
SEQEND
  8
PNOA-H_AMS_1956-57_33k_ES_PAN_21mic_H50_0449_fot_54A-29179_W_tif
  0
TEXT
  8
PNOA-H_AMS_1956-57_33k_ES_PAN_21mic_H50_0449_fot_54A-29179_W_tif
 62
0
  1
PNOA-H_AMS_1956-57_33k_ES_PAN_21mic_H50_0449_fot_54A-29179_W.tif
 40
41.85758
  10
189406.056
  20
4545703.543
  0
POLYLINE
  8
PNOA-H_AMS_1956-57_33k_ES_PAN_21mic_H50_0449_fot_51A-08824_E_tif
  70
9
  66
1
  0
VERTEX
  8
PNOA-H_AMS_1956-57_33k_ES_PAN_21mic_H50_0449_fot_51A-08824_E_tif
  70
32
  10
193946.000
  20
4560636.293
  30
712.04
  0
VERTEX
  8
PNOA-H_AMS_1956-57_33k_ES_PAN_21mic_H50_0449_fot_51A-08824_E_tif
  70
32
  10
194088.500
  20
4560697.793
  30
711
  0
VERTEX
  8
PNOA-H_AMS_1956-57_33k_ES_PAN_21mic_H50_0449_fot_51A-08824_E_tif
  70
32
  10
194091.000
  20
4560697.793
  30
711
  0
VERTEX
  8
PNOA-H_AMS_1956-57_33k_ES_PAN_21mic_H50_0449_fot_51A-08824_E_tif
  70
32
  10
196100.000
  20
4560157.793
  30
692
  0
VERTEX
  8
PNOA-H_AMS_1956-57_33k_ES_PAN_21mic_H50_0449_fot_51A-08824_E_tif
  70
32
  10
195970.500
  20
4556774.293
  30
727
  0
VERTEX
  8
PNOA-H_AMS_1956-57_33k_ES_PAN_21mic_H50_0449_fot_51A-08824_E_tif
  70
32
  10
195269.000
  20
4556378.293
  30
724
  0
VERTEX
  8
PNOA-H_AMS_1956-57_33k_ES_PAN_21mic_H50_0449_fot_51A-08824_E_tif
  70
32
  10
193190.500
  20
4556902.293
  30
746
  0
VERTEX
  8
PNOA-H_AMS_1956-57_33k_ES_PAN_21mic_H50_0449_fot_51A-08824_E_tif
  70
32
  10
193135.000
  20
4560287.293
  30
705
  0
VERTEX
  8
PNOA-H_AMS_1956-57_33k_ES_PAN_21mic_H50_0449_fot_51A-08824_E_tif
  70
32
  10
193944.500
  20
4560635.793
  30
712
  0
VERTEX
  8
PNOA-H_AMS_1956-57_33k_ES_PAN_21mic_H50_0449_fot_51A-08824_E_tif
  70
32
  10
193946.000
  20
4560636.293
  30
712.04
  0
SEQEND
  8
PNOA-H_AMS_1956-57_33k_ES_PAN_21mic_H50_0449_fot_51A-08824_E_tif
  0
TEXT
  8
PNOA-H_AMS_1956-57_33k_ES_PAN_21mic_H50_0449_fot_51A-08824_E_tif
 62
0
  1
PNOA-H_AMS_1956-57_33k_ES_PAN_21mic_H50_0449_fot_51A-08824_E.tif
 40
41.85758
  10
194600.843
  20
4558538.043
  0
POLYLINE
  8
PNOA-H_AMS_1956-57_33k_ES_PAN_21mic_H50_0449_fot_51A-08825_E_tif
  70
9
  66
1
  0
VERTEX
  8
PNOA-H_AMS_1956-57_33k_ES_PAN_21mic_H50_0449_fot_51A-08825_E_tif
  70
32
  10
195994.000
  20
4557391.793
  30
721.28
  0
VERTEX
  8
PNOA-H_AMS_1956-57_33k_ES_PAN_21mic_H50_0449_fot_51A-08825_E_tif
  70
32
  10
196100.500
  20
4560158.293
  30
692.02
  0
VERTEX
  8
PNOA-H_AMS_1956-57_33k_ES_PAN_21mic_H50_0449_fot_51A-08825_E_tif
  70
32
  10
197158.000
  20
4560562.793
  30
702
  0
VERTEX
  8
PNOA-H_AMS_1956-57_33k_ES_PAN_21mic_H50_0449_fot_51A-08825_E_tif
  70
32
  10
197169.500
  20
4560566.293
  30
702
  0
VERTEX
  8
PNOA-H_AMS_1956-57_33k_ES_PAN_21mic_H50_0449_fot_51A-08825_E_tif
  70
32
  10
198979.000
  20
4560047.793
  30
698.2
  0
VERTEX
  8
PNOA-H_AMS_1956-57_33k_ES_PAN_21mic_H50_0449_fot_51A-08825_E_tif
  70
32
  10
198837.500
  20
4556525.293
  30
723.8
  0
VERTEX
  8
PNOA-H_AMS_1956-57_33k_ES_PAN_21mic_H50_0449_fot_51A-08825_E_tif
  70
32
  10
198125.500
  20
4556144.793
  30
727.1
  0
VERTEX
  8
PNOA-H_AMS_1956-57_33k_ES_PAN_21mic_H50_0449_fot_51A-08825_E_tif
  70
32
  10
198121.500
  20
4556142.793
  30
727
  0
VERTEX
  8
PNOA-H_AMS_1956-57_33k_ES_PAN_21mic_H50_0449_fot_51A-08825_E_tif
  70
32
  10
198118.500
  20
4556142.793
  30
727
  0
VERTEX
  8
PNOA-H_AMS_1956-57_33k_ES_PAN_21mic_H50_0449_fot_51A-08825_E_tif
  70
32
  10
195973.000
  20
4556773.293
  30
727
  0
VERTEX
  8
PNOA-H_AMS_1956-57_33k_ES_PAN_21mic_H50_0449_fot_51A-08825_E_tif
  70
32
  10
195970.500
  20
4556774.293
  30
727
  0
VERTEX
  8
PNOA-H_AMS_1956-57_33k_ES_PAN_21mic_H50_0449_fot_51A-08825_E_tif
  70
32
  10
195970.500
  20
4556778.793
  30
727
  0
VERTEX
  8
PNOA-H_AMS_1956-57_33k_ES_PAN_21mic_H50_0449_fot_51A-08825_E_tif
  70
32
  10
195994.000
  20
4557378.793
  30
722
  0
VERTEX
  8
PNOA-H_AMS_1956-57_33k_ES_PAN_21mic_H50_0449_fot_51A-08825_E_tif
  70
32
  10
195994.000
  20
4557391.793
  30
721.28
  0
SEQEND
  8
PNOA-H_AMS_1956-57_33k_ES_PAN_21mic_H50_0449_fot_51A-08825_E_tif
  0
TEXT
  8
PNOA-H_AMS_1956-57_33k_ES_PAN_21mic_H50_0449_fot_51A-08825_E_tif
 62
0
  1
PNOA-H_AMS_1956-57_33k_ES_PAN_21mic_H50_0449_fot_51A-08825_E.tif
 40
41.85758
  10
197471.022
  20
4558354.543
  0
POLYLINE
  8
PNOA-H_AMS_1956-57_33k_ES_PAN_21mic_H50_0449_fot_000-10292_R_tif
  70
9
  66
1
  0
VERTEX
  8
PNOA-H_AMS_1956-57_33k_ES_PAN_21mic_H50_0449_fot_000-10292_R_tif
  70
32
  10
195155.500
  20
4555091.793
  30
725
  0
VERTEX
  8
PNOA-H_AMS_1956-57_33k_ES_PAN_21mic_H50_0449_fot_000-10292_R_tif
  70
32
  10
195183.000
  20
4555070.293
  30
725
  0
VERTEX
  8
PNOA-H_AMS_1956-57_33k_ES_PAN_21mic_H50_0449_fot_000-10292_R_tif
  70
32
  10
197017.500
  20
4553568.293
  30
717
  0
VERTEX
  8
PNOA-H_AMS_1956-57_33k_ES_PAN_21mic_H50_0449_fot_000-10292_R_tif
  70
32
  10
196899.000
  20
4551874.793
  30
714.4
  0
VERTEX
  8
PNOA-H_AMS_1956-57_33k_ES_PAN_21mic_H50_0449_fot_000-10292_R_tif
  70
32
  10
195084.500
  20
4551496.293
  30
684.98
  0
VERTEX
  8
PNOA-H_AMS_1956-57_33k_ES_PAN_21mic_H50_0449_fot_000-10292_R_tif
  70
32
  10
194243.000
  20
4551891.293
  30
697.6
  0
VERTEX
  8
PNOA-H_AMS_1956-57_33k_ES_PAN_21mic_H50_0449_fot_000-10292_R_tif
  70
32
  10
194341.000
  20
4553861.793
  30
708
  0
VERTEX
  8
PNOA-H_AMS_1956-57_33k_ES_PAN_21mic_H50_0449_fot_000-10292_R_tif
  70
32
  10
195155.000
  20
4555090.293
  30
725
  0
VERTEX
  8
PNOA-H_AMS_1956-57_33k_ES_PAN_21mic_H50_0449_fot_000-10292_R_tif
  70
32
  10
195155.500
  20
4555091.793
  30
725
  0
SEQEND
  8
PNOA-H_AMS_1956-57_33k_ES_PAN_21mic_H50_0449_fot_000-10292_R_tif
  0
TEXT
  8
PNOA-H_AMS_1956-57_33k_ES_PAN_21mic_H50_0449_fot_000-10292_R_tif
 62
0
  1
PNOA-H_AMS_1956-57_33k_ES_PAN_21mic_H50_0449_fot_000-10292_R.tif
 40
41.85758
  10
195655.537
  20
4553294.043
  0
POLYLINE
  8
PNOA-H_AMS_1956-57_33k_ES_PAN_21mic_H50_0449_fot_000-10291_R_tif
  70
9
  66
1
  0
VERTEX
  8
PNOA-H_AMS_1956-57_33k_ES_PAN_21mic_H50_0449_fot_000-10291_R_tif
  70
32
  10
198000.500
  20
4555115.293
  30
740.06
  0
VERTEX
  8
PNOA-H_AMS_1956-57_33k_ES_PAN_21mic_H50_0449_fot_000-10291_R_tif
  70
32
  10
199712.000
  20
4553102.793
  30
736
  0
VERTEX
  8
PNOA-H_AMS_1956-57_33k_ES_PAN_21mic_H50_0449_fot_000-10291_R_tif
  70
32
  10
199654.000
  20
4551805.293
  30
746
  0
VERTEX
  8
PNOA-H_AMS_1956-57_33k_ES_PAN_21mic_H50_0449_fot_000-10291_R_tif
  70
32
  10
197996.000
  20
4551377.793
  30
712
  0
VERTEX
  8
PNOA-H_AMS_1956-57_33k_ES_PAN_21mic_H50_0449_fot_000-10291_R_tif
  70
32
  10
196899.000
  20
4551874.793
  30
714.4
  0
VERTEX
  8
PNOA-H_AMS_1956-57_33k_ES_PAN_21mic_H50_0449_fot_000-10291_R_tif
  70
32
  10
197017.500
  20
4553568.793
  30
717
  0
VERTEX
  8
PNOA-H_AMS_1956-57_33k_ES_PAN_21mic_H50_0449_fot_000-10291_R_tif
  70
32
  10
198000.500
  20
4555114.293
  30
740.04
  0
VERTEX
  8
PNOA-H_AMS_1956-57_33k_ES_PAN_21mic_H50_0449_fot_000-10291_R_tif
  70
32
  10
198000.500
  20
4555115.293
  30
740.06
  0
SEQEND
  8
PNOA-H_AMS_1956-57_33k_ES_PAN_21mic_H50_0449_fot_000-10291_R_tif
  0
TEXT
  8
PNOA-H_AMS_1956-57_33k_ES_PAN_21mic_H50_0449_fot_000-10291_R_tif
 62
0
  1
PNOA-H_AMS_1956-57_33k_ES_PAN_21mic_H50_0449_fot_000-10291_R.tif
 40
41.85758
  10
198292.354
  20
4553246.543
  0
POLYLINE
  8
PNOA-H_AMS_1956-57_33k_ES_PAN_21mic_H50_0449_fot_000-10293_R_tif
  70
9
  66
1
  0
VERTEX
  8
PNOA-H_AMS_1956-57_33k_ES_PAN_21mic_H50_0449_fot_000-10293_R_tif
  70
32
  10
193946.500
  20
4554135.793
  30
717
  0
VERTEX
  8
PNOA-H_AMS_1956-57_33k_ES_PAN_21mic_H50_0449_fot_000-10293_R_tif
  70
32
  10
194341.000
  20
4553861.293
  30
708
  0
VERTEX
  8
PNOA-H_AMS_1956-57_33k_ES_PAN_21mic_H50_0449_fot_000-10293_R_tif
  70
32
  10
194242.500
  20
4551891.293
  30
697.5
  0
VERTEX
  8
PNOA-H_AMS_1956-57_33k_ES_PAN_21mic_H50_0449_fot_000-10293_R_tif
  70
32
  10
192192.500
  20
4551586.793
  30
731
  0
VERTEX
  8
PNOA-H_AMS_1956-57_33k_ES_PAN_21mic_H50_0449_fot_000-10293_R_tif
  70
32
  10
191504.500
  20
4551928.293
  30
709.02
  0
VERTEX
  8
PNOA-H_AMS_1956-57_33k_ES_PAN_21mic_H50_0449_fot_000-10293_R_tif
  70
32
  10
191502.000
  20
4551929.793
  30
709.3
  0
VERTEX
  8
PNOA-H_AMS_1956-57_33k_ES_PAN_21mic_H50_0449_fot_000-10293_R_tif
  70
32
  10
191502.500
  20
4551940.793
  30
710
  0
VERTEX
  8
PNOA-H_AMS_1956-57_33k_ES_PAN_21mic_H50_0449_fot_000-10293_R_tif
  70
32
  10
191650.000
  20
4554082.793
  30
695
  0
VERTEX
  8
PNOA-H_AMS_1956-57_33k_ES_PAN_21mic_H50_0449_fot_000-10293_R_tif
  70
32
  10
192370.000
  20
4555233.793
  30
685
  0
VERTEX
  8
PNOA-H_AMS_1956-57_33k_ES_PAN_21mic_H50_0449_fot_000-10293_R_tif
  70
32
  10
193945.500
  20
4554136.293
  30
717
  0
VERTEX
  8
PNOA-H_AMS_1956-57_33k_ES_PAN_21mic_H50_0449_fot_000-10293_R_tif
  70
32
  10
193946.500
  20
4554135.793
  30
717
  0
SEQEND
  8
PNOA-H_AMS_1956-57_33k_ES_PAN_21mic_H50_0449_fot_000-10293_R_tif
  0
TEXT
  8
PNOA-H_AMS_1956-57_33k_ES_PAN_21mic_H50_0449_fot_000-10293_R_tif
 62
0
  1
PNOA-H_AMS_1956-57_33k_ES_PAN_21mic_H50_0449_fot_000-10293_R.tif
 40
41.85758
  10
192961.071
  20
4553410.293
  0
POLYLINE
  8
PNOA-H_AMS_1956-57_33k_ES_PAN_21mic_H50_0449_fot_52A-25909_E_tif
  70
9
  66
1
  0
VERTEX
  8
PNOA-H_AMS_1956-57_33k_ES_PAN_21mic_H50_0449_fot_52A-25909_E_tif
  70
32
  10
193189.500
  20
4556902.293
  30
745.9
  0
VERTEX
  8
PNOA-H_AMS_1956-57_33k_ES_PAN_21mic_H50_0449_fot_52A-25909_E_tif
  70
32
  10
193216.500
  20
4556896.293
  30
747
  0
VERTEX
  8
PNOA-H_AMS_1956-57_33k_ES_PAN_21mic_H50_0449_fot_52A-25909_E_tif
  70
32
  10
195268.500
  20
4556378.293
  30
724
  0
VERTEX
  8
PNOA-H_AMS_1956-57_33k_ES_PAN_21mic_H50_0449_fot_52A-25909_E_tif
  70
32
  10
195156.000
  20
4555091.793
  30
725
  0
VERTEX
  8
PNOA-H_AMS_1956-57_33k_ES_PAN_21mic_H50_0449_fot_52A-25909_E_tif
  70
32
  10
194341.000
  20
4553861.293
  30
708
  0
VERTEX
  8
PNOA-H_AMS_1956-57_33k_ES_PAN_21mic_H50_0449_fot_52A-25909_E_tif
  70
32
  10
192370.000
  20
4555233.793
  30
685
  0
VERTEX
  8
PNOA-H_AMS_1956-57_33k_ES_PAN_21mic_H50_0449_fot_52A-25909_E_tif
  70
32
  10
192444.500
  20
4556414.793
  30
729
  0
VERTEX
  8
PNOA-H_AMS_1956-57_33k_ES_PAN_21mic_H50_0449_fot_52A-25909_E_tif
  70
32
  10
193188.500
  20
4556901.793
  30
745.73
  0
VERTEX
  8
PNOA-H_AMS_1956-57_33k_ES_PAN_21mic_H50_0449_fot_52A-25909_E_tif
  70
32
  10
193189.500
  20
4556902.293
  30
745.9
  0
SEQEND
  8
PNOA-H_AMS_1956-57_33k_ES_PAN_21mic_H50_0449_fot_52A-25909_E_tif
  0
TEXT
  8
PNOA-H_AMS_1956-57_33k_ES_PAN_21mic_H50_0449_fot_52A-25909_E_tif
 62
0
  1
PNOA-H_AMS_1956-57_33k_ES_PAN_21mic_H50_0449_fot_52A-25909_E.tif
 40
41.85758
  10
193780.348
  20
4555381.793
  0
POLYLINE
  8
PNOA-H_AMS_1956-57_33k_ES_PAN_21mic_H50_0449_fot_52A-25910_E_tif
  70
9
  66
1
  0
VERTEX
  8
PNOA-H_AMS_1956-57_33k_ES_PAN_21mic_H50_0449_fot_52A-25910_E_tif
  70
32
  10
195970.000
  20
4556774.293
  30
727
  0
VERTEX
  8
PNOA-H_AMS_1956-57_33k_ES_PAN_21mic_H50_0449_fot_52A-25910_E_tif
  70
32
  10
198120.500
  20
4556142.793
  30
727
  0
VERTEX
  8
PNOA-H_AMS_1956-57_33k_ES_PAN_21mic_H50_0449_fot_52A-25910_E_tif
  70
32
  10
198001.000
  20
4555115.293
  30
740.12
  0
VERTEX
  8
PNOA-H_AMS_1956-57_33k_ES_PAN_21mic_H50_0449_fot_52A-25910_E_tif
  70
32
  10
197017.500
  20
4553568.293
  30
717
  0
VERTEX
  8
PNOA-H_AMS_1956-57_33k_ES_PAN_21mic_H50_0449_fot_52A-25910_E_tif
  70
32
  10
195156.000
  20
4555091.793
  30
725
  0
VERTEX
  8
PNOA-H_AMS_1956-57_33k_ES_PAN_21mic_H50_0449_fot_52A-25910_E_tif
  70
32
  10
195268.500
  20
4556378.293
  30
724
  0
VERTEX
  8
PNOA-H_AMS_1956-57_33k_ES_PAN_21mic_H50_0449_fot_52A-25910_E_tif
  70
32
  10
195969.000
  20
4556773.793
  30
727
  0
VERTEX
  8
PNOA-H_AMS_1956-57_33k_ES_PAN_21mic_H50_0449_fot_52A-25910_E_tif
  70
32
  10
195970.000
  20
4556774.293
  30
727
  0
SEQEND
  8
PNOA-H_AMS_1956-57_33k_ES_PAN_21mic_H50_0449_fot_52A-25910_E_tif
  0
TEXT
  8
PNOA-H_AMS_1956-57_33k_ES_PAN_21mic_H50_0449_fot_52A-25910_E_tif
 62
0
  1
PNOA-H_AMS_1956-57_33k_ES_PAN_21mic_H50_0449_fot_52A-25910_E.tif
 40
41.85758
  10
196585.232
  20
4555171.293
  0
POLYLINE
  8
PNOA-H_AMS_1956-57_33k_ES_PAN_21mic_H50_0449_fot_53A-25892_W_tif
  70
9
  66
1
  0
VERTEX
  8
PNOA-H_AMS_1956-57_33k_ES_PAN_21mic_H50_0449_fot_53A-25892_W_tif
  70
32
  10
196896.500
  20
4551874.793
  30
714.15
  0
VERTEX
  8
PNOA-H_AMS_1956-57_33k_ES_PAN_21mic_H50_0449_fot_53A-25892_W_tif
  70
32
  10
196900.000
  20
4551874.793
  30
714.5
  0
VERTEX
  8
PNOA-H_AMS_1956-57_33k_ES_PAN_21mic_H50_0449_fot_53A-25892_W_tif
  70
32
  10
196913.500
  20
4551868.793
  30
713.6
  0
VERTEX
  8
PNOA-H_AMS_1956-57_33k_ES_PAN_21mic_H50_0449_fot_53A-25892_W_tif
  70
32
  10
197997.000
  20
4551377.793
  30
712
  0
VERTEX
  8
PNOA-H_AMS_1956-57_33k_ES_PAN_21mic_H50_0449_fot_53A-25892_W_tif
  70
32
  10
197987.500
  20
4547647.293
  30
705
  0
VERTEX
  8
PNOA-H_AMS_1956-57_33k_ES_PAN_21mic_H50_0449_fot_53A-25892_W_tif
  70
32
  10
196774.000
  20
4547215.793
  30
722
  0
VERTEX
  8
PNOA-H_AMS_1956-57_33k_ES_PAN_21mic_H50_0449_fot_53A-25892_W_tif
  70
32
  10
195137.000
  20
4547756.793
  30
676
  0
VERTEX
  8
PNOA-H_AMS_1956-57_33k_ES_PAN_21mic_H50_0449_fot_53A-25892_W_tif
  70
32
  10
195084.500
  20
4551496.293
  30
684.98
  0
VERTEX
  8
PNOA-H_AMS_1956-57_33k_ES_PAN_21mic_H50_0449_fot_53A-25892_W_tif
  70
32
  10
196894.000
  20
4551874.293
  30
714
  0
VERTEX
  8
PNOA-H_AMS_1956-57_33k_ES_PAN_21mic_H50_0449_fot_53A-25892_W_tif
  70
32
  10
196896.500
  20
4551874.793
  30
714.15
  0
SEQEND
  8
PNOA-H_AMS_1956-57_33k_ES_PAN_21mic_H50_0449_fot_53A-25892_W_tif
  0
TEXT
  8
PNOA-H_AMS_1956-57_33k_ES_PAN_21mic_H50_0449_fot_53A-25892_W_tif
 62
0
  1
PNOA-H_AMS_1956-57_33k_ES_PAN_21mic_H50_0449_fot_53A-25892_W.tif
 40
41.85758
  10
196552.112
  20
4549545.293
  0
POLYLINE
  8
PNOA-H_AMS_1956-57_33k_ES_PAN_21mic_H50_0449_fot_53A-25893_W_tif
  70
9
  66
1
  0
VERTEX
  8
PNOA-H_AMS_1956-57_33k_ES_PAN_21mic_H50_0449_fot_53A-25893_W_tif
  70
32
  10
194242.500
  20
4551891.793
  30
697.5
  0
VERTEX
  8
PNOA-H_AMS_1956-57_33k_ES_PAN_21mic_H50_0449_fot_53A-25893_W_tif
  70
32
  10
195084.500
  20
4551496.793
  30
684.99
  0
VERTEX
  8
PNOA-H_AMS_1956-57_33k_ES_PAN_21mic_H50_0449_fot_53A-25893_W_tif
  70
32
  10
195137.000
  20
4547757.293
  30
676
  0
VERTEX
  8
PNOA-H_AMS_1956-57_33k_ES_PAN_21mic_H50_0449_fot_53A-25893_W_tif
  70
32
  10
193915.500
  20
4547308.793
  30
666
  0
VERTEX
  8
PNOA-H_AMS_1956-57_33k_ES_PAN_21mic_H50_0449_fot_53A-25893_W_tif
  70
32
  10
192266.500
  20
4547840.793
  30
668.51
  0
VERTEX
  8
PNOA-H_AMS_1956-57_33k_ES_PAN_21mic_H50_0449_fot_53A-25893_W_tif
  70
32
  10
192193.500
  20
4551586.793
  30
731
  0
VERTEX
  8
PNOA-H_AMS_1956-57_33k_ES_PAN_21mic_H50_0449_fot_53A-25893_W_tif
  70
32
  10
194239.000
  20
4551891.293
  30
697
  0
VERTEX
  8
PNOA-H_AMS_1956-57_33k_ES_PAN_21mic_H50_0449_fot_53A-25893_W_tif
  70
32
  10
194242.500
  20
4551891.793
  30
697.5
  0
SEQEND
  8
PNOA-H_AMS_1956-57_33k_ES_PAN_21mic_H50_0449_fot_53A-25893_W_tif
  0
TEXT
  8
PNOA-H_AMS_1956-57_33k_ES_PAN_21mic_H50_0449_fot_53A-25893_W_tif
 62
0
  1
PNOA-H_AMS_1956-57_33k_ES_PAN_21mic_H50_0449_fot_53A-25893_W.tif
 40
41.85758
  10
193671.669
  20
4549600.293
  0
POLYLINE
  8
PNOA-H_AMS_1956-57_33k_ES_PAN_21mic_H50_0449_fot_54A-29176_W_tif
  70
9
  66
1
  0
VERTEX
  8
PNOA-H_AMS_1956-57_33k_ES_PAN_21mic_H50_0449_fot_54A-29176_W_tif
  70
32
  10
199504.322
  20
4544907.945
  30
688.14
  0
VERTEX
  8
PNOA-H_AMS_1956-57_33k_ES_PAN_21mic_H50_0449_fot_54A-29176_W_tif
  70
32
  10
196855.911
  20
4545016.753
  30
692.739
  0
VERTEX
  8
PNOA-H_AMS_1956-57_33k_ES_PAN_21mic_H50_0449_fot_54A-29176_W_tif
  70
32
  10
196621.774
  20
4545026.485
  30
692.653
  0
VERTEX
  8
PNOA-H_AMS_1956-57_33k_ES_PAN_21mic_H50_0449_fot_54A-29176_W_tif
  70
32
  10
196773.500
  20
4547215.793
  30
722
  0
VERTEX
  8
PNOA-H_AMS_1956-57_33k_ES_PAN_21mic_H50_0449_fot_54A-29176_W_tif
  70
32
  10
197986.000
  20
4547647.293
  30
705
  0
VERTEX
  8
PNOA-H_AMS_1956-57_33k_ES_PAN_21mic_H50_0449_fot_54A-29176_W_tif
  70
32
  10
197987.500
  20
4547647.793
  30
705
  0
VERTEX
  8
PNOA-H_AMS_1956-57_33k_ES_PAN_21mic_H50_0449_fot_54A-29176_W_tif
  70
32
  10
199632.000
  20
4547148.293
  30
687
  0
SEQEND
  8
PNOA-H_AMS_1956-57_33k_ES_PAN_21mic_H50_0449_fot_54A-29176_W_tif
  0
TEXT
  8
PNOA-H_AMS_1956-57_33k_ES_PAN_21mic_H50_0449_fot_54A-29176_W_tif
 62
0
  1
PNOA-H_AMS_1956-57_33k_ES_PAN_21mic_H50_0449_fot_54A-29176_W.tif
 40
41.85758
  10
198080.575
  20
4545250.543
  0
POLYLINE
  8
PNOA-H_AMS_1956-57_33k_ES_PAN_21mic_H50_0449_fot_54A-29177_W_tif
  70
9
  66
1
  0
VERTEX
  8
PNOA-H_AMS_1956-57_33k_ES_PAN_21mic_H50_0449_fot_54A-29177_W_tif
  70
32
  10
193813.000
  20
4545654.793
  30
556.7
  0
VERTEX
  8
PNOA-H_AMS_1956-57_33k_ES_PAN_21mic_H50_0449_fot_54A-29177_W_tif
  70
32
  10
193816.000
  20
4545658.293
  30
559.12
  0
VERTEX
  8
PNOA-H_AMS_1956-57_33k_ES_PAN_21mic_H50_0449_fot_54A-29177_W_tif
  70
32
  10
193817.500
  20
4545659.293
  30
559.5
  0
VERTEX
  8
PNOA-H_AMS_1956-57_33k_ES_PAN_21mic_H50_0449_fot_54A-29177_W_tif
  70
32
  10
193827.500
  20
4545659.293
  30
583
  0
VERTEX
  8
PNOA-H_AMS_1956-57_33k_ES_PAN_21mic_H50_0449_fot_54A-29177_W_tif
  70
32
  10
193828.000
  20
4545658.293
  30
584.44
  0
VERTEX
  8
PNOA-H_AMS_1956-57_33k_ES_PAN_21mic_H50_0449_fot_54A-29177_W_tif
  70
32
  10
193832.000
  20
4545654.793
  30
589.1
  0
VERTEX
  8
PNOA-H_AMS_1956-57_33k_ES_PAN_21mic_H50_0449_fot_54A-29177_W_tif
  70
32
  10
193832.000
  20
4545644.793
  30
578.5
  0
VERTEX
  8
PNOA-H_AMS_1956-57_33k_ES_PAN_21mic_H50_0449_fot_54A-29177_W_tif
  70
32
  10
193829.000
  20
4545641.293
  30
564.88
  0
VERTEX
  8
PNOA-H_AMS_1956-57_33k_ES_PAN_21mic_H50_0449_fot_54A-29177_W_tif
  70
32
  10
193827.500
  20
4545640.293
  30
556.8
  0
VERTEX
  8
PNOA-H_AMS_1956-57_33k_ES_PAN_21mic_H50_0449_fot_54A-29177_W_tif
  70
32
  10
193817.500
  20
4545640.293
  30
533.4
  0
VERTEX
  8
PNOA-H_AMS_1956-57_33k_ES_PAN_21mic_H50_0449_fot_54A-29177_W_tif
  70
32
  10
193813.000
  20
4545644.793
  30
536.2
  0
SEQEND
  8
PNOA-H_AMS_1956-57_33k_ES_PAN_21mic_H50_0449_fot_54A-29177_W_tif
  0
TEXT
  8
PNOA-H_AMS_1956-57_33k_ES_PAN_21mic_H50_0449_fot_54A-29177_W_tif
 62
0
  1
PNOA-H_AMS_1956-57_33k_ES_PAN_21mic_H50_0449_fot_54A-29177_W.tif
 40
41.85758
  10
193822.500
  20
4545649.793
  0
POLYLINE
  8
PNOA-H_AMS_1956-57_33k_ES_PAN_21mic_H50_0449_fot_54A-29177_W_tif
  70
9
  66
1
  0
VERTEX
  8
PNOA-H_AMS_1956-57_33k_ES_PAN_21mic_H50_0449_fot_54A-29177_W_tif
  70
32
  10
196622.033
  20
4545026.474
  30
692.646
  0
VERTEX
  8
PNOA-H_AMS_1956-57_33k_ES_PAN_21mic_H50_0449_fot_54A-29177_W_tif
  70
32
  10
193762.802
  20
4545145.314
  30
674.444
  0
VERTEX
  8
PNOA-H_AMS_1956-57_33k_ES_PAN_21mic_H50_0449_fot_54A-29177_W_tif
  70
32
  10
193914.500
  20
4547308.293
  30
666
  0
VERTEX
  8
PNOA-H_AMS_1956-57_33k_ES_PAN_21mic_H50_0449_fot_54A-29177_W_tif
  70
32
  10
193944.000
  20
4547319.793
  30
667.8
  0
VERTEX
  8
PNOA-H_AMS_1956-57_33k_ES_PAN_21mic_H50_0449_fot_54A-29177_W_tif
  70
32
  10
193945.500
  20
4547320.293
  30
668
  0
VERTEX
  8
PNOA-H_AMS_1956-57_33k_ES_PAN_21mic_H50_0449_fot_54A-29177_W_tif
  70
32
  10
195137.000
  20
4547757.293
  30
676
  0
VERTEX
  8
PNOA-H_AMS_1956-57_33k_ES_PAN_21mic_H50_0449_fot_54A-29177_W_tif
  70
32
  10
196773.500
  20
4547216.293
  30
722
  0
SEQEND
  8
PNOA-H_AMS_1956-57_33k_ES_PAN_21mic_H50_0449_fot_54A-29177_W_tif
  0
TEXT
  8
PNOA-H_AMS_1956-57_33k_ES_PAN_21mic_H50_0449_fot_54A-29177_W_tif
 62
0
  1
PNOA-H_AMS_1956-57_33k_ES_PAN_21mic_H50_0449_fot_54A-29177_W.tif
 40
41.85758
  10
195216.289
  20
4545429.043
  0
POLYLINE
  8
PNOA-H_AMS_1956-57_33k_ES_PAN_21mic_H50_0449_fot_54A-29178_W_tif
  70
9
  66
1
  0
VERTEX
  8
PNOA-H_AMS_1956-57_33k_ES_PAN_21mic_H50_0449_fot_54A-29178_W_tif
  70
32
  10
193813.000
  20
4545654.793
  30
556.7
  0
VERTEX
  8
PNOA-H_AMS_1956-57_33k_ES_PAN_21mic_H50_0449_fot_54A-29178_W_tif
  70
32
  10
193817.000
  20
4545658.293
  30
558.04
  0
VERTEX
  8
PNOA-H_AMS_1956-57_33k_ES_PAN_21mic_H50_0449_fot_54A-29178_W_tif
  70
32
  10
193817.500
  20
4545659.293
  30
559.5
  0
VERTEX
  8
PNOA-H_AMS_1956-57_33k_ES_PAN_21mic_H50_0449_fot_54A-29178_W_tif
  70
32
  10
193827.500
  20
4545659.293
  30
583
  0
VERTEX
  8
PNOA-H_AMS_1956-57_33k_ES_PAN_21mic_H50_0449_fot_54A-29178_W_tif
  70
32
  10
193829.000
  20
4545658.293
  30
587.32
  0
VERTEX
  8
PNOA-H_AMS_1956-57_33k_ES_PAN_21mic_H50_0449_fot_54A-29178_W_tif
  70
32
  10
193832.000
  20
4545654.793
  30
589.1
  0
VERTEX
  8
PNOA-H_AMS_1956-57_33k_ES_PAN_21mic_H50_0449_fot_54A-29178_W_tif
  70
32
  10
193832.000
  20
4545644.793
  30
578.5
  0
VERTEX
  8
PNOA-H_AMS_1956-57_33k_ES_PAN_21mic_H50_0449_fot_54A-29178_W_tif
  70
32
  10
193827.500
  20
4545640.293
  30
556.8
  0
VERTEX
  8
PNOA-H_AMS_1956-57_33k_ES_PAN_21mic_H50_0449_fot_54A-29178_W_tif
  70
32
  10
193817.500
  20
4545640.293
  30
533.4
  0
VERTEX
  8
PNOA-H_AMS_1956-57_33k_ES_PAN_21mic_H50_0449_fot_54A-29178_W_tif
  70
32
  10
193816.000
  20
4545641.293
  30
533
  0
VERTEX
  8
PNOA-H_AMS_1956-57_33k_ES_PAN_21mic_H50_0449_fot_54A-29178_W_tif
  70
32
  10
193813.000
  20
4545644.793
  30
536.2
  0
SEQEND
  8
PNOA-H_AMS_1956-57_33k_ES_PAN_21mic_H50_0449_fot_54A-29178_W_tif
  0
TEXT
  8
PNOA-H_AMS_1956-57_33k_ES_PAN_21mic_H50_0449_fot_54A-29178_W_tif
 62
0
  1
PNOA-H_AMS_1956-57_33k_ES_PAN_21mic_H50_0449_fot_54A-29178_W.tif
 40
41.85758
  10
193822.500
  20
4545649.793
  0
POLYLINE
  8
PNOA-H_AMS_1956-57_33k_ES_PAN_21mic_H50_0449_fot_54A-29178_W_tif
  70
9
  66
1
  0
VERTEX
  8
PNOA-H_AMS_1956-57_33k_ES_PAN_21mic_H50_0449_fot_54A-29178_W_tif
  70
32
  10
193762.986
  20
4545145.306
  30
674.445
  0
VERTEX
  8
PNOA-H_AMS_1956-57_33k_ES_PAN_21mic_H50_0449_fot_54A-29178_W_tif
  70
32
  10
193350.696
  20
4545162.442
  30
674.491
  0
VERTEX
  8
PNOA-H_AMS_1956-57_33k_ES_PAN_21mic_H50_0449_fot_54A-29178_W_tif
  70
32
  10
190845.631
  20
4545267.762
  30
590.452
  0
VERTEX
  8
PNOA-H_AMS_1956-57_33k_ES_PAN_21mic_H50_0449_fot_54A-29178_W_tif
  70
32
  10
190931.500
  20
4547288.293
  30
609.3
  0
VERTEX
  8
PNOA-H_AMS_1956-57_33k_ES_PAN_21mic_H50_0449_fot_54A-29178_W_tif
  70
32
  10
191897.500
  20
4547688.293
  30
612.2
  0
VERTEX
  8
PNOA-H_AMS_1956-57_33k_ES_PAN_21mic_H50_0449_fot_54A-29178_W_tif
  70
32
  10
191898.500
  20
4547688.293
  30
612.2
  0
VERTEX
  8
PNOA-H_AMS_1956-57_33k_ES_PAN_21mic_H50_0449_fot_54A-29178_W_tif
  70
32
  10
192267.500
  20
4547840.793
  30
668.85
  0
VERTEX
  8
PNOA-H_AMS_1956-57_33k_ES_PAN_21mic_H50_0449_fot_54A-29178_W_tif
  70
32
  10
193915.000
  20
4547308.793
  30
666
  0
SEQEND
  8
PNOA-H_AMS_1956-57_33k_ES_PAN_21mic_H50_0449_fot_54A-29178_W_tif
  0
TEXT
  8
PNOA-H_AMS_1956-57_33k_ES_PAN_21mic_H50_0449_fot_54A-29178_W_tif
 62
0
  1
PNOA-H_AMS_1956-57_33k_ES_PAN_21mic_H50_0449_fot_54A-29178_W.tif
 40
41.85758
  10
192326.302
  20
4545581.543
  0
POLYLINE
  8
PNOA-H_AMS_1956-57_33k_ES_PAN_21mic_H50_0449_fot_51A-08826_E_tif
  70
9
  66
1
  0
VERTEX
  8
PNOA-H_AMS_1956-57_33k_ES_PAN_21mic_H50_0449_fot_51A-08826_E_tif
  70
32
  10
200122.000
  20
4560460.793
  30
704.12
  0
VERTEX
  8
PNOA-H_AMS_1956-57_33k_ES_PAN_21mic_H50_0449_fot_51A-08826_E_tif
  70
32
  10
201854.500
  20
4559918.293
  30
718
  0
VERTEX
  8
PNOA-H_AMS_1956-57_33k_ES_PAN_21mic_H50_0449_fot_51A-08826_E_tif
  70
32
  10
201750.000
  20
4556380.293
  30
727.6
  0
VERTEX
  8
PNOA-H_AMS_1956-57_33k_ES_PAN_21mic_H50_0449_fot_51A-08826_E_tif
  70
32
  10
200950.500
  20
4555961.793
  30
700
  0
VERTEX
  8
PNOA-H_AMS_1956-57_33k_ES_PAN_21mic_H50_0449_fot_51A-08826_E_tif
  70
32
  10
200943.500
  20
4555962.793
  30
701
  0
VERTEX
  8
PNOA-H_AMS_1956-57_33k_ES_PAN_21mic_H50_0449_fot_51A-08826_E_tif
  70
32
  10
198837.500
  20
4556525.793
  30
723.85
  0
VERTEX
  8
PNOA-H_AMS_1956-57_33k_ES_PAN_21mic_H50_0449_fot_51A-08826_E_tif
  70
32
  10
198979.000
  20
4560047.293
  30
698.2
  0
VERTEX
  8
PNOA-H_AMS_1956-57_33k_ES_PAN_21mic_H50_0449_fot_51A-08826_E_tif
  70
32
  10
200120.500
  20
4560460.293
  30
704.04
  0
VERTEX
  8
PNOA-H_AMS_1956-57_33k_ES_PAN_21mic_H50_0449_fot_51A-08826_E_tif
  70
32
  10
200122.000
  20
4560460.793
  30
704.12
  0
SEQEND
  8
PNOA-H_AMS_1956-57_33k_ES_PAN_21mic_H50_0449_fot_51A-08826_E_tif
  0
TEXT
  8
PNOA-H_AMS_1956-57_33k_ES_PAN_21mic_H50_0449_fot_51A-08826_E_tif
 62
0
  1
PNOA-H_AMS_1956-57_33k_ES_PAN_21mic_H50_0449_fot_51A-08826_E.tif
 40
41.85758
  10
200354.654
  20
4558211.293
  0
POLYLINE
  8
PNOA-H_AMS_1956-57_33k_ES_PAN_21mic_H50_0449_fot_51A-08827_E_tif
  70
9
  66
1
  0
VERTEX
  8
PNOA-H_AMS_1956-57_33k_ES_PAN_21mic_H50_0449_fot_51A-08827_E_tif
  70
32
  10
204479.117
  20
4559891.622
  30
740.232
  0
VERTEX
  8
PNOA-H_AMS_1956-57_33k_ES_PAN_21mic_H50_0449_fot_51A-08827_E_tif
  70
32
  10
204427.258
  20
4558610.376
  30
737.679
  0
VERTEX
  8
PNOA-H_AMS_1956-57_33k_ES_PAN_21mic_H50_0449_fot_51A-08827_E_tif
  70
32
  10
204333.663
  20
4556297.036
  30
726.306
  0
VERTEX
  8
PNOA-H_AMS_1956-57_33k_ES_PAN_21mic_H50_0449_fot_51A-08827_E_tif
  70
32
  10
204322.656
  20
4556024.869
  30
725.239
  0
VERTEX
  8
PNOA-H_AMS_1956-57_33k_ES_PAN_21mic_H50_0449_fot_51A-08827_E_tif
  70
32
  10
203858.500
  20
4555809.793
  30
720.85
  0
VERTEX
  8
PNOA-H_AMS_1956-57_33k_ES_PAN_21mic_H50_0449_fot_51A-08827_E_tif
  70
32
  10
201750.000
  20
4556380.293
  30
727.6
  0
VERTEX
  8
PNOA-H_AMS_1956-57_33k_ES_PAN_21mic_H50_0449_fot_51A-08827_E_tif
  70
32
  10
201854.500
  20
4559918.293
  30
718
  0
VERTEX
  8
PNOA-H_AMS_1956-57_33k_ES_PAN_21mic_H50_0449_fot_51A-08827_E_tif
  70
32
  10
202136.000
  20
4560017.293
  30
711
  0
VERTEX
  8
PNOA-H_AMS_1956-57_33k_ES_PAN_21mic_H50_0449_fot_51A-08827_E_tif
  70
32
  10
202137.500
  20
4560017.793
  30
711
  0
VERTEX
  8
PNOA-H_AMS_1956-57_33k_ES_PAN_21mic_H50_0449_fot_51A-08827_E_tif
  70
32
  10
203166.500
  20
4560379.293
  30
730
  0
VERTEX
  8
PNOA-H_AMS_1956-57_33k_ES_PAN_21mic_H50_0449_fot_51A-08827_E_tif
  70
32
  10
203170.500
  20
4560379.793
  30
730
  0
SEQEND
  8
PNOA-H_AMS_1956-57_33k_ES_PAN_21mic_H50_0449_fot_51A-08827_E_tif
  0
TEXT
  8
PNOA-H_AMS_1956-57_33k_ES_PAN_21mic_H50_0449_fot_51A-08827_E_tif
 62
0
  1
PNOA-H_AMS_1956-57_33k_ES_PAN_21mic_H50_0449_fot_51A-08827_E.tif
 40
41.85758
  10
203249.739
  20
4558094.793
  0
POLYLINE
  8
PNOA-H_AMS_1956-57_33k_ES_PAN_21mic_H50_0449_fot_52A-25912_E_tif
  70
9
  66
1
  0
VERTEX
  8
PNOA-H_AMS_1956-57_33k_ES_PAN_21mic_H50_0449_fot_52A-25912_E_tif
  70
32
  10
200949.500
  20
4555961.793
  30
700.1
  0
VERTEX
  8
PNOA-H_AMS_1956-57_33k_ES_PAN_21mic_H50_0449_fot_52A-25912_E_tif
  70
32
  10
201749.500
  20
4556380.293
  30
727.54
  0
VERTEX
  8
PNOA-H_AMS_1956-57_33k_ES_PAN_21mic_H50_0449_fot_52A-25912_E_tif
  70
32
  10
202137.500
  20
4556275.293
  30
738
  0
VERTEX
  8
PNOA-H_AMS_1956-57_33k_ES_PAN_21mic_H50_0449_fot_52A-25912_E_tif
  70
32
  10
202138.500
  20
4556275.293
  30
738
  0
VERTEX
  8
PNOA-H_AMS_1956-57_33k_ES_PAN_21mic_H50_0449_fot_52A-25912_E_tif
  70
32
  10
203857.500
  20
4555809.793
  30
720.75
  0
VERTEX
  8
PNOA-H_AMS_1956-57_33k_ES_PAN_21mic_H50_0449_fot_52A-25912_E_tif
  70
32
  10
203777.000
  20
4555063.293
  30
700
  0
VERTEX
  8
PNOA-H_AMS_1956-57_33k_ES_PAN_21mic_H50_0449_fot_52A-25912_E_tif
  70
32
  10
202388.000
  20
4552812.793
  30
734
  0
VERTEX
  8
PNOA-H_AMS_1956-57_33k_ES_PAN_21mic_H50_0449_fot_52A-25912_E_tif
  70
32
  10
200889.500
  20
4555119.793
  30
731
  0
SEQEND
  8
PNOA-H_AMS_1956-57_33k_ES_PAN_21mic_H50_0449_fot_52A-25912_E_tif
  0
TEXT
  8
PNOA-H_AMS_1956-57_33k_ES_PAN_21mic_H50_0449_fot_52A-25912_E_tif
 62
0
  1
PNOA-H_AMS_1956-57_33k_ES_PAN_21mic_H50_0449_fot_52A-25912_E.tif
 40
41.85758
  10
202359.149
  20
4554596.543
  0
POLYLINE
  8
PNOA-H_AMS_1956-57_33k_ES_PAN_21mic_H50_0450_fot_52A-25913_E_tif
  70
9
  66
1
  0
VERTEX
  8
PNOA-H_AMS_1956-57_33k_ES_PAN_21mic_H50_0450_fot_52A-25913_E_tif
  70
32
  10
204243.226
  20
4554060.815
  30
709.513
  0
VERTEX
  8
PNOA-H_AMS_1956-57_33k_ES_PAN_21mic_H50_0450_fot_52A-25913_E_tif
  70
32
  10
203777.000
  20
4555062.793
  30
700
  0
VERTEX
  8
PNOA-H_AMS_1956-57_33k_ES_PAN_21mic_H50_0450_fot_52A-25913_E_tif
  70
32
  10
203857.500
  20
4555809.793
  30
720.75
  0
VERTEX
  8
PNOA-H_AMS_1956-57_33k_ES_PAN_21mic_H50_0450_fot_52A-25913_E_tif
  70
32
  10
204322.678
  20
4556025.407
  30
724.967
  0
SEQEND
  8
PNOA-H_AMS_1956-57_33k_ES_PAN_21mic_H50_0450_fot_52A-25913_E_tif
  0
TEXT
  8
PNOA-H_AMS_1956-57_33k_ES_PAN_21mic_H50_0450_fot_52A-25913_E_tif
 62
0
  1
PNOA-H_AMS_1956-57_33k_ES_PAN_21mic_H50_0450_fot_52A-25913_E.tif
 40
41.85758
  10
204049.839
  20
4555043.111
  0
POLYLINE
  8
PNOA-H_AMS_1956-57_33k_ES_PAN_21mic_H50_0449_fot_52B-10289_W_tif
  70
9
  66
1
  0
VERTEX
  8
PNOA-H_AMS_1956-57_33k_ES_PAN_21mic_H50_0449_fot_52B-10289_W_tif
  70
32
  10
204243.269
  20
4554061.892
  30
709.501
  0
VERTEX
  8
PNOA-H_AMS_1956-57_33k_ES_PAN_21mic_H50_0449_fot_52B-10289_W_tif
  70
32
  10
204240.107
  20
4553983.702
  30
710.101
  0
VERTEX
  8
PNOA-H_AMS_1956-57_33k_ES_PAN_21mic_H50_0449_fot_52B-10289_W_tif
  70
32
  10
204146.590
  20
4551670.372
  30
721.544
  0
VERTEX
  8
PNOA-H_AMS_1956-57_33k_ES_PAN_21mic_H50_0449_fot_52B-10289_W_tif
  70
32
  10
204133.702
  20
4551351.425
  30
720.291
  0
VERTEX
  8
PNOA-H_AMS_1956-57_33k_ES_PAN_21mic_H50_0449_fot_52B-10289_W_tif
  70
32
  10
203683.000
  20
4551202.293
  30
715
  0
VERTEX
  8
PNOA-H_AMS_1956-57_33k_ES_PAN_21mic_H50_0449_fot_52B-10289_W_tif
  70
32
  10
202331.500
  20
4551728.293
  30
709
  0
VERTEX
  8
PNOA-H_AMS_1956-57_33k_ES_PAN_21mic_H50_0449_fot_52B-10289_W_tif
  70
32
  10
202388.000
  20
4552813.293
  30
734
  0
VERTEX
  8
PNOA-H_AMS_1956-57_33k_ES_PAN_21mic_H50_0449_fot_52B-10289_W_tif
  70
32
  10
203776.500
  20
4555062.293
  30
700
  0
VERTEX
  8
PNOA-H_AMS_1956-57_33k_ES_PAN_21mic_H50_0449_fot_52B-10289_W_tif
  70
32
  10
203776.500
  20
4555063.293
  30
700
  0
VERTEX
  8
PNOA-H_AMS_1956-57_33k_ES_PAN_21mic_H50_0449_fot_52B-10289_W_tif
  70
32
  10
203778.500
  20
4555060.793
  30
700
  0
SEQEND
  8
PNOA-H_AMS_1956-57_33k_ES_PAN_21mic_H50_0449_fot_52B-10289_W_tif
  0
TEXT
  8
PNOA-H_AMS_1956-57_33k_ES_PAN_21mic_H50_0449_fot_52B-10289_W_tif
 62
0
  1
PNOA-H_AMS_1956-57_33k_ES_PAN_21mic_H50_0449_fot_52B-10289_W.tif
 40
41.85758
  10
203630.408
  20
4553132.793
  0
POLYLINE
  8
PNOA-H_AMS_1956-57_33k_ES_PAN_21mic_H50_0449_fot_000-10290_R_tif
  70
9
  66
1
  0
VERTEX
  8
PNOA-H_AMS_1956-57_33k_ES_PAN_21mic_H50_0449_fot_000-10290_R_tif
  70
32
  10
200090.000
  20
4553750.293
  30
762
  0
VERTEX
  8
PNOA-H_AMS_1956-57_33k_ES_PAN_21mic_H50_0449_fot_000-10290_R_tif
  70
32
  10
200856.500
  20
4555064.293
  30
735.6
  0
VERTEX
  8
PNOA-H_AMS_1956-57_33k_ES_PAN_21mic_H50_0449_fot_000-10290_R_tif
  70
32
  10
200889.000
  20
4555119.793
  30
731
  0
VERTEX
  8
PNOA-H_AMS_1956-57_33k_ES_PAN_21mic_H50_0449_fot_000-10290_R_tif
  70
32
  10
200890.000
  20
4555119.793
  30
731
  0
VERTEX
  8
PNOA-H_AMS_1956-57_33k_ES_PAN_21mic_H50_0449_fot_000-10290_R_tif
  70
32
  10
202388.000
  20
4552812.793
  30
734
  0
VERTEX
  8
PNOA-H_AMS_1956-57_33k_ES_PAN_21mic_H50_0449_fot_000-10290_R_tif
  70
32
  10
202331.500
  20
4551728.293
  30
709
  0
VERTEX
  8
PNOA-H_AMS_1956-57_33k_ES_PAN_21mic_H50_0449_fot_000-10290_R_tif
  70
32
  10
200874.000
  20
4551292.293
  30
696
  0
VERTEX
  8
PNOA-H_AMS_1956-57_33k_ES_PAN_21mic_H50_0449_fot_000-10290_R_tif
  70
32
  10
199654.000
  20
4551805.293
  30
746
  0
VERTEX
  8
PNOA-H_AMS_1956-57_33k_ES_PAN_21mic_H50_0449_fot_000-10290_R_tif
  70
32
  10
199712.000
  20
4553102.793
  30
736
  0
VERTEX
  8
PNOA-H_AMS_1956-57_33k_ES_PAN_21mic_H50_0449_fot_000-10290_R_tif
  70
32
  10
200089.500
  20
4553748.793
  30
762
  0
VERTEX
  8
PNOA-H_AMS_1956-57_33k_ES_PAN_21mic_H50_0449_fot_000-10290_R_tif
  70
32
  10
200090.000
  20
4553750.293
  30
762
  0
SEQEND
  8
PNOA-H_AMS_1956-57_33k_ES_PAN_21mic_H50_0449_fot_000-10290_R_tif
  0
TEXT
  8
PNOA-H_AMS_1956-57_33k_ES_PAN_21mic_H50_0449_fot_000-10290_R_tif
 62
0
  1
PNOA-H_AMS_1956-57_33k_ES_PAN_21mic_H50_0449_fot_000-10290_R.tif
 40
41.85758
  10
200952.494
  20
4553206.043
  0
POLYLINE
  8
PNOA-H_AMS_1956-57_33k_ES_PAN_21mic_H50_0449_fot_52A-25911_E_tif
  70
9
  66
1
  0
VERTEX
  8
PNOA-H_AMS_1956-57_33k_ES_PAN_21mic_H50_0449_fot_52A-25911_E_tif
  70
32
  10
200090.500
  20
4556190.793
  30
705.7
  0
VERTEX
  8
PNOA-H_AMS_1956-57_33k_ES_PAN_21mic_H50_0449_fot_52A-25911_E_tif
  70
32
  10
200949.500
  20
4555961.793
  30
700.1
  0
VERTEX
  8
PNOA-H_AMS_1956-57_33k_ES_PAN_21mic_H50_0449_fot_52A-25911_E_tif
  70
32
  10
200889.500
  20
4555119.793
  30
731
  0
VERTEX
  8
PNOA-H_AMS_1956-57_33k_ES_PAN_21mic_H50_0449_fot_52A-25911_E_tif
  70
32
  10
199713.000
  20
4553103.293
  30
736
  0
VERTEX
  8
PNOA-H_AMS_1956-57_33k_ES_PAN_21mic_H50_0449_fot_52A-25911_E_tif
  70
32
  10
199711.500
  20
4553102.793
  30
736
  0
VERTEX
  8
PNOA-H_AMS_1956-57_33k_ES_PAN_21mic_H50_0449_fot_52A-25911_E_tif
  70
32
  10
198001.000
  20
4555114.793
  30
740.1
  0
VERTEX
  8
PNOA-H_AMS_1956-57_33k_ES_PAN_21mic_H50_0449_fot_52A-25911_E_tif
  70
32
  10
198119.500
  20
4556135.793
  30
727
  0
VERTEX
  8
PNOA-H_AMS_1956-57_33k_ES_PAN_21mic_H50_0449_fot_52A-25911_E_tif
  70
32
  10
198120.500
  20
4556142.793
  30
727
  0
VERTEX
  8
PNOA-H_AMS_1956-57_33k_ES_PAN_21mic_H50_0449_fot_52A-25911_E_tif
  70
32
  10
198126.000
  20
4556145.793
  30
727.2
  0
VERTEX
  8
PNOA-H_AMS_1956-57_33k_ES_PAN_21mic_H50_0449_fot_52A-25911_E_tif
  70
32
  10
198837.500
  20
4556525.793
  30
723.85
  0
VERTEX
  8
PNOA-H_AMS_1956-57_33k_ES_PAN_21mic_H50_0449_fot_52A-25911_E_tif
  70
32
  10
200088.500
  20
4556191.293
  30
705.86
  0
VERTEX
  8
PNOA-H_AMS_1956-57_33k_ES_PAN_21mic_H50_0449_fot_52A-25911_E_tif
  70
32
  10
200090.500
  20
4556190.793
  30
705.7
  0
SEQEND
  8
PNOA-H_AMS_1956-57_33k_ES_PAN_21mic_H50_0449_fot_52A-25911_E_tif
  0
TEXT
  8
PNOA-H_AMS_1956-57_33k_ES_PAN_21mic_H50_0449_fot_52A-25911_E_tif
 62
0
  1
PNOA-H_AMS_1956-57_33k_ES_PAN_21mic_H50_0449_fot_52A-25911_E.tif
 40
41.85758
  10
199483.865
  20
4554814.293
  0
POLYLINE
  8
PNOA-H_AMS_1956-57_33k_ES_PAN_21mic_H50_0449_fot_53A-25890_W_tif
  70
9
  66
1
  0
VERTEX
  8
PNOA-H_AMS_1956-57_33k_ES_PAN_21mic_H50_0449_fot_53A-25890_W_tif
  70
32
  10
200875.000
  20
4551292.293
  30
696
  0
VERTEX
  8
PNOA-H_AMS_1956-57_33k_ES_PAN_21mic_H50_0449_fot_53A-25890_W_tif
  70
32
  10
202330.000
  20
4551728.293
  30
709
  0
VERTEX
  8
PNOA-H_AMS_1956-57_33k_ES_PAN_21mic_H50_0449_fot_53A-25890_W_tif
  70
32
  10
202333.000
  20
4551728.293
  30
709
  0
VERTEX
  8
PNOA-H_AMS_1956-57_33k_ES_PAN_21mic_H50_0449_fot_53A-25890_W_tif
  70
32
  10
202339.500
  20
4551725.793
  30
709.93
  0
VERTEX
  8
PNOA-H_AMS_1956-57_33k_ES_PAN_21mic_H50_0449_fot_53A-25890_W_tif
  70
32
  10
203683.500
  20
4551202.293
  30
715
  0
VERTEX
  8
PNOA-H_AMS_1956-57_33k_ES_PAN_21mic_H50_0449_fot_53A-25890_W_tif
  70
32
  10
203623.000
  20
4547451.793
  30
706.64
  0
VERTEX
  8
PNOA-H_AMS_1956-57_33k_ES_PAN_21mic_H50_0449_fot_53A-25890_W_tif
  70
32
  10
202434.500
  20
4547061.793
  30
683
  0
VERTEX
  8
PNOA-H_AMS_1956-57_33k_ES_PAN_21mic_H50_0449_fot_53A-25890_W_tif
  70
32
  10
202433.000
  20
4547061.793
  30
683
  0
VERTEX
  8
PNOA-H_AMS_1956-57_33k_ES_PAN_21mic_H50_0449_fot_53A-25890_W_tif
  70
32
  10
202431.500
  20
4547060.793
  30
683
  0
VERTEX
  8
PNOA-H_AMS_1956-57_33k_ES_PAN_21mic_H50_0449_fot_53A-25890_W_tif
  70
32
  10
202426.000
  20
4547061.793
  30
683
  0
VERTEX
  8
PNOA-H_AMS_1956-57_33k_ES_PAN_21mic_H50_0449_fot_53A-25890_W_tif
  70
32
  10
200820.500
  20
4547542.793
  30
665
  0
SEQEND
  8
PNOA-H_AMS_1956-57_33k_ES_PAN_21mic_H50_0449_fot_53A-25890_W_tif
  0
TEXT
  8
PNOA-H_AMS_1956-57_33k_ES_PAN_21mic_H50_0449_fot_53A-25890_W_tif
 62
0
  1
PNOA-H_AMS_1956-57_33k_ES_PAN_21mic_H50_0449_fot_53A-25890_W.tif
 40
41.85758
  10
202250.877
  20
4549394.543
  0
POLYLINE
  8
PNOA-H_AMS_1956-57_33k_ES_PAN_21mic_H50_0449_fot_53A-25891_W_tif
  70
9
  66
1
  0
VERTEX
  8
PNOA-H_AMS_1956-57_33k_ES_PAN_21mic_H50_0449_fot_53A-25891_W_tif
  70
32
  10
198041.000
  20
4551389.293
  30
712
  0
VERTEX
  8
PNOA-H_AMS_1956-57_33k_ES_PAN_21mic_H50_0449_fot_53A-25891_W_tif
  70
32
  10
199655.000
  20
4551805.293
  30
746
  0
VERTEX
  8
PNOA-H_AMS_1956-57_33k_ES_PAN_21mic_H50_0449_fot_53A-25891_W_tif
  70
32
  10
200875.000
  20
4551292.293
  30
696
  0
VERTEX
  8
PNOA-H_AMS_1956-57_33k_ES_PAN_21mic_H50_0449_fot_53A-25891_W_tif
  70
32
  10
200820.500
  20
4547542.793
  30
665
  0
VERTEX
  8
PNOA-H_AMS_1956-57_33k_ES_PAN_21mic_H50_0449_fot_53A-25891_W_tif
  70
32
  10
199632.000
  20
4547148.293
  30
687
  0
VERTEX
  8
PNOA-H_AMS_1956-57_33k_ES_PAN_21mic_H50_0449_fot_53A-25891_W_tif
  70
32
  10
197987.500
  20
4547647.793
  30
705
  0
VERTEX
  8
PNOA-H_AMS_1956-57_33k_ES_PAN_21mic_H50_0449_fot_53A-25891_W_tif
  70
32
  10
197997.000
  20
4551377.793
  30
712
  0
VERTEX
  8
PNOA-H_AMS_1956-57_33k_ES_PAN_21mic_H50_0449_fot_53A-25891_W_tif
  70
32
  10
198039.000
  20
4551388.793
  30
712
  0
VERTEX
  8
PNOA-H_AMS_1956-57_33k_ES_PAN_21mic_H50_0449_fot_53A-25891_W_tif
  70
32
  10
198041.000
  20
4551389.293
  30
712
  0
SEQEND
  8
PNOA-H_AMS_1956-57_33k_ES_PAN_21mic_H50_0449_fot_53A-25891_W_tif
  0
TEXT
  8
PNOA-H_AMS_1956-57_33k_ES_PAN_21mic_H50_0449_fot_53A-25891_W_tif
 62
0
  1
PNOA-H_AMS_1956-57_33k_ES_PAN_21mic_H50_0449_fot_53A-25891_W.tif
 40
41.85758
  10
199420.385
  20
4549476.793
  0
POLYLINE
  8
PNOA-H_AMS_1956-57_33k_ES_PAN_21mic_H50_0450_fot_53A-25889_W_tif
  70
9
  66
1
  0
VERTEX
  8
PNOA-H_AMS_1956-57_33k_ES_PAN_21mic_H50_0450_fot_53A-25889_W_tif
  70
32
  10
203972.218
  20
4547354.270
  30
711.28
  0
VERTEX
  8
PNOA-H_AMS_1956-57_33k_ES_PAN_21mic_H50_0450_fot_53A-25889_W_tif
  70
32
  10
203623.000
  20
4547451.793
  30
706.64
  0
VERTEX
  8
PNOA-H_AMS_1956-57_33k_ES_PAN_21mic_H50_0450_fot_53A-25889_W_tif
  70
32
  10
203683.000
  20
4551201.293
  30
715
  0
VERTEX
  8
PNOA-H_AMS_1956-57_33k_ES_PAN_21mic_H50_0450_fot_53A-25889_W_tif
  70
32
  10
203684.000
  20
4551202.793
  30
715
  0
VERTEX
  8
PNOA-H_AMS_1956-57_33k_ES_PAN_21mic_H50_0450_fot_53A-25889_W_tif
  70
32
  10
204133.711
  20
4551351.648
  30
727.592
  0
VERTEX
  8
PNOA-H_AMS_1956-57_33k_ES_PAN_21mic_H50_0450_fot_53A-25889_W_tif
  70
32
  10
204053.113
  20
4549357.048
  30
710.902
  0
SEQEND
  8
PNOA-H_AMS_1956-57_33k_ES_PAN_21mic_H50_0450_fot_53A-25889_W_tif
  0
TEXT
  8
PNOA-H_AMS_1956-57_33k_ES_PAN_21mic_H50_0450_fot_53A-25889_W_tif
 62
0
  1
PNOA-H_AMS_1956-57_33k_ES_PAN_21mic_H50_0450_fot_53A-25889_W.tif
 40
41.85758
  10
203878.356
  20
4549352.959
  0
POLYLINE
  8
PNOA-H_AMS_1956-57_33k_ES_PAN_21mic_H50_0449_fot_54A-29174_W_tif
  70
9
  66
1
  0
VERTEX
  8
PNOA-H_AMS_1956-57_33k_ES_PAN_21mic_H50_0449_fot_54A-29174_W_tif
  70
32
  10
203972.235
  20
4547354.687
  30
711.377
  0
VERTEX
  8
PNOA-H_AMS_1956-57_33k_ES_PAN_21mic_H50_0449_fot_54A-29174_W_tif
  70
32
  10
203959.675
  20
4547043.729
  30
712.282
  0
VERTEX
  8
PNOA-H_AMS_1956-57_33k_ES_PAN_21mic_H50_0449_fot_54A-29174_W_tif
  70
32
  10
203866.276
  20
4544730.415
  30
723.622
  0
VERTEX
  8
PNOA-H_AMS_1956-57_33k_ES_PAN_21mic_H50_0449_fot_54A-29174_W_tif
  70
32
  10
202343.365
  20
4544792.254
  30
688.366
  0
VERTEX
  8
PNOA-H_AMS_1956-57_33k_ES_PAN_21mic_H50_0449_fot_54A-29174_W_tif
  70
32
  10
202430.500
  20
4547060.793
  30
683
  0
VERTEX
  8
PNOA-H_AMS_1956-57_33k_ES_PAN_21mic_H50_0449_fot_54A-29174_W_tif
  70
32
  10
203620.000
  20
4547451.293
  30
706.2
  0
VERTEX
  8
PNOA-H_AMS_1956-57_33k_ES_PAN_21mic_H50_0449_fot_54A-29174_W_tif
  70
32
  10
203621.500
  20
4547451.793
  30
706.37
  0
VERTEX
  8
PNOA-H_AMS_1956-57_33k_ES_PAN_21mic_H50_0449_fot_54A-29174_W_tif
  70
32
  10
203639.000
  20
4547447.793
  30
707
  0
SEQEND
  8
PNOA-H_AMS_1956-57_33k_ES_PAN_21mic_H50_0449_fot_54A-29174_W_tif
  0
TEXT
  8
PNOA-H_AMS_1956-57_33k_ES_PAN_21mic_H50_0449_fot_54A-29174_W_tif
 62
0
  1
PNOA-H_AMS_1956-57_33k_ES_PAN_21mic_H50_0449_fot_54A-29174_W.tif
 40
41.85758
  10
203786.115
  20
4544919.293
  0
POLYLINE
  8
PNOA-H_AMS_1956-57_33k_ES_PAN_21mic_H50_0449_fot_54A-29175_W_tif
  70
9
  66
1
  0
VERTEX
  8
PNOA-H_AMS_1956-57_33k_ES_PAN_21mic_H50_0449_fot_54A-29175_W_tif
  70
32
  10
202343.089
  20
4544792.265
  30
688.062
  0
VERTEX
  8
PNOA-H_AMS_1956-57_33k_ES_PAN_21mic_H50_0449_fot_54A-29175_W_tif
  70
32
  10
200361.105
  20
4544872.744
  30
688.133
  0
VERTEX
  8
PNOA-H_AMS_1956-57_33k_ES_PAN_21mic_H50_0449_fot_54A-29175_W_tif
  70
32
  10
199504.310
  20
4544907.945
  30
688.14
  0
VERTEX
  8
PNOA-H_AMS_1956-57_33k_ES_PAN_21mic_H50_0449_fot_54A-29175_W_tif
  70
32
  10
199632.000
  20
4547148.793
  30
687
  0
VERTEX
  8
PNOA-H_AMS_1956-57_33k_ES_PAN_21mic_H50_0449_fot_54A-29175_W_tif
  70
32
  10
200766.500
  20
4547525.293
  30
664.12
  0
VERTEX
  8
PNOA-H_AMS_1956-57_33k_ES_PAN_21mic_H50_0449_fot_54A-29175_W_tif
  70
32
  10
200819.500
  20
4547542.793
  30
664.99
  0
VERTEX
  8
PNOA-H_AMS_1956-57_33k_ES_PAN_21mic_H50_0449_fot_54A-29175_W_tif
  70
32
  10
200822.000
  20
4547542.793
  30
665
  0
VERTEX
  8
PNOA-H_AMS_1956-57_33k_ES_PAN_21mic_H50_0449_fot_54A-29175_W_tif
  70
32
  10
202430.500
  20
4547060.793
  30
683
  0
SEQEND
  8
PNOA-H_AMS_1956-57_33k_ES_PAN_21mic_H50_0449_fot_54A-29175_W_tif
  0
TEXT
  8
PNOA-H_AMS_1956-57_33k_ES_PAN_21mic_H50_0449_fot_54A-29175_W_tif
 62
0
  1
PNOA-H_AMS_1956-57_33k_ES_PAN_21mic_H50_0449_fot_54A-29175_W.tif
 40
41.85758
  10
200933.729
  20
4545071.293
  0
POLYLINE
  8
PNOA-H_AMS_1956-57_33k_ES_PAN_21mic_H50_0449_fot_53A-25899_W_tif
  70
9
  66
1
  0
VERTEX
  8
PNOA-H_AMS_1956-57_33k_ES_PAN_21mic_H50_0449_fot_53A-25899_W_tif
  70
32
  10
176005.059
  20
4550004.793
  30
-17858.627
  0
VERTEX
  8
PNOA-H_AMS_1956-57_33k_ES_PAN_21mic_H50_0449_fot_53A-25899_W_tif
  70
32
  10
176020.500
  20
4550004.793
  30
-17858.051
  0
VERTEX
  8
PNOA-H_AMS_1956-57_33k_ES_PAN_21mic_H50_0449_fot_53A-25899_W_tif
  70
32
  10
176024.500
  20
4549999.793
  30
-14544.5
  0
VERTEX
  8
PNOA-H_AMS_1956-57_33k_ES_PAN_21mic_H50_0449_fot_53A-25899_W_tif
  70
32
  10
176030.500
  20
4549999.793
  30
-14543.05
  0
VERTEX
  8
PNOA-H_AMS_1956-57_33k_ES_PAN_21mic_H50_0449_fot_53A-25899_W_tif
  70
32
  10
176034.500
  20
4550004.793
  30
-17855.35
  0
VERTEX
  8
PNOA-H_AMS_1956-57_33k_ES_PAN_21mic_H50_0449_fot_53A-25899_W_tif
  70
32
  10
177562.500
  20
4550004.793
  30
-16165.25
  0
VERTEX
  8
PNOA-H_AMS_1956-57_33k_ES_PAN_21mic_H50_0449_fot_53A-25899_W_tif
  70
32
  10
177635.500
  20
4550004.793
  30
-17832.85
  0
VERTEX
  8
PNOA-H_AMS_1956-57_33k_ES_PAN_21mic_H50_0449_fot_53A-25899_W_tif
  70
32
  10
177639.500
  20
4549999.793
  30
-14514.15
  0
VERTEX
  8
PNOA-H_AMS_1956-57_33k_ES_PAN_21mic_H50_0449_fot_53A-25899_W_tif
  70
32
  10
177645.500
  20
4549999.793
  30
-14513.4
  0
VERTEX
  8
PNOA-H_AMS_1956-57_33k_ES_PAN_21mic_H50_0449_fot_53A-25899_W_tif
  70
32
  10
177649.500
  20
4550004.793
  30
-17831.051
  0
VERTEX
  8
PNOA-H_AMS_1956-57_33k_ES_PAN_21mic_H50_0449_fot_53A-25899_W_tif
  70
32
  10
177675.000
  20
4550004.793
  30
-16172.5
  0
VERTEX
  8
PNOA-H_AMS_1956-57_33k_ES_PAN_21mic_H50_0449_fot_53A-25899_W_tif
  70
32
  10
177641.500
  20
4548198.793
  30
498.7
  0
VERTEX
  8
PNOA-H_AMS_1956-57_33k_ES_PAN_21mic_H50_0449_fot_53A-25899_W_tif
  70
32
  10
176498.000
  20
4547649.793
  30
228.3
  0
VERTEX
  8
PNOA-H_AMS_1956-57_33k_ES_PAN_21mic_H50_0449_fot_53A-25899_W_tif
  70
32
  10
176471.000
  20
4547659.793
  30
213.6
  0
VERTEX
  8
PNOA-H_AMS_1956-57_33k_ES_PAN_21mic_H50_0449_fot_53A-25899_W_tif
  70
32
  10
175911.295
  20
4547884.568
  30
239.534
  0
VERTEX
  8
PNOA-H_AMS_1956-57_33k_ES_PAN_21mic_H50_0449_fot_53A-25899_W_tif
  70
32
  10
175926.545
  20
4548229.528
  30
244.453
  0
SEQEND
  8
PNOA-H_AMS_1956-57_33k_ES_PAN_21mic_H50_0449_fot_53A-25899_W_tif
  0
TEXT
  8
PNOA-H_AMS_1956-57_33k_ES_PAN_21mic_H50_0449_fot_53A-25899_W_tif
 62
0
  1
PNOA-H_AMS_1956-57_33k_ES_PAN_21mic_H50_0449_fot_53A-25899_W.tif
 40
41.85758
  10
176216.738
  20
4548827.293
  0
POLYLINE
  8
PNOA-H_AMS_1956-57_33k_ES_PAN_21mic_H50_0449_fot_54A-29184_W_tif
  70
9
  66
1
  0
VERTEX
  8
PNOA-H_AMS_1956-57_33k_ES_PAN_21mic_H50_0449_fot_54A-29184_W_tif
  70
32
  10
176389.209
  20
4545891.259
  30
443.515
  0
VERTEX
  8
PNOA-H_AMS_1956-57_33k_ES_PAN_21mic_H50_0449_fot_54A-29184_W_tif
  70
32
  10
175824.273
  20
4545916.093
  30
444.712
  0
VERTEX
  8
PNOA-H_AMS_1956-57_33k_ES_PAN_21mic_H50_0449_fot_54A-29184_W_tif
  70
32
  10
175911.308
  20
4547884.854
  30
249.621
  0
VERTEX
  8
PNOA-H_AMS_1956-57_33k_ES_PAN_21mic_H50_0449_fot_54A-29184_W_tif
  70
32
  10
176497.000
  20
4547649.793
  30
227.7
  0
SEQEND
  8
PNOA-H_AMS_1956-57_33k_ES_PAN_21mic_H50_0449_fot_54A-29184_W_tif
  0
TEXT
  8
PNOA-H_AMS_1956-57_33k_ES_PAN_21mic_H50_0449_fot_54A-29184_W_tif
 62
0
  1
PNOA-H_AMS_1956-57_33k_ES_PAN_21mic_H50_0449_fot_54A-29184_W.tif
 40
41.85758
  10
176160.636
  20
4546888.057
  0
POLYLINE
  8
PNOA-H_AMS_1956-57_33k_ES_PAN_21mic_H50_0449_fot_53A-25898_W_tif
  70
9
  66
1
  0
VERTEX
  8
PNOA-H_AMS_1956-57_33k_ES_PAN_21mic_H50_0449_fot_53A-25898_W_tif
  70
32
  10
179997.500
  20
4552427.793
  30
-16202
  0
VERTEX
  8
PNOA-H_AMS_1956-57_33k_ES_PAN_21mic_H50_0449_fot_53A-25898_W_tif
  70
32
  10
180575.500
  20
4552084.793
  30
327.9
  0
VERTEX
  8
PNOA-H_AMS_1956-57_33k_ES_PAN_21mic_H50_0449_fot_53A-25898_W_tif
  70
32
  10
180510.500
  20
4548133.793
  30
419.9
  0
VERTEX
  8
PNOA-H_AMS_1956-57_33k_ES_PAN_21mic_H50_0449_fot_53A-25898_W_tif
  70
32
  10
179292.500
  20
4547554.793
  30
318
  0
VERTEX
  8
PNOA-H_AMS_1956-57_33k_ES_PAN_21mic_H50_0449_fot_53A-25898_W_tif
  70
32
  10
179278.000
  20
4547548.793
  30
324.22
  0
VERTEX
  8
PNOA-H_AMS_1956-57_33k_ES_PAN_21mic_H50_0449_fot_53A-25898_W_tif
  70
32
  10
177641.500
  20
4548198.793
  30
498.7
  0
VERTEX
  8
PNOA-H_AMS_1956-57_33k_ES_PAN_21mic_H50_0449_fot_53A-25898_W_tif
  70
32
  10
177675.000
  20
4550004.793
  30
-16172.5
  0
VERTEX
  8
PNOA-H_AMS_1956-57_33k_ES_PAN_21mic_H50_0449_fot_53A-25898_W_tif
  70
32
  10
177955.500
  20
4550004.793
  30
-17831.051
  0
VERTEX
  8
PNOA-H_AMS_1956-57_33k_ES_PAN_21mic_H50_0449_fot_53A-25898_W_tif
  70
32
  10
177959.500
  20
4549999.793
  30
-14512.85
  0
VERTEX
  8
PNOA-H_AMS_1956-57_33k_ES_PAN_21mic_H50_0449_fot_53A-25898_W_tif
  70
32
  10
177965.500
  20
4549999.793
  30
-14515
  0
VERTEX
  8
PNOA-H_AMS_1956-57_33k_ES_PAN_21mic_H50_0449_fot_53A-25898_W_tif
  70
32
  10
177969.500
  20
4550004.793
  30
-17835.1
  0
VERTEX
  8
PNOA-H_AMS_1956-57_33k_ES_PAN_21mic_H50_0449_fot_53A-25898_W_tif
  70
32
  10
177995.500
  20
4550004.793
  30
-14517.95
  0
VERTEX
  8
PNOA-H_AMS_1956-57_33k_ES_PAN_21mic_H50_0449_fot_53A-25898_W_tif
  70
32
  10
177997.500
  20
4550006.793
  30
-14517.15
  0
VERTEX
  8
PNOA-H_AMS_1956-57_33k_ES_PAN_21mic_H50_0449_fot_53A-25898_W_tif
  70
32
  10
177997.500
  20
4551102.793
  30
-17732.051
  0
VERTEX
  8
PNOA-H_AMS_1956-57_33k_ES_PAN_21mic_H50_0449_fot_53A-25898_W_tif
  70
32
  10
178004.500
  20
4551109.793
  30
-17732.051
  0
VERTEX
  8
PNOA-H_AMS_1956-57_33k_ES_PAN_21mic_H50_0449_fot_53A-25898_W_tif
  70
32
  10
178010.500
  20
4551109.793
  30
-14390.95
  0
VERTEX
  8
PNOA-H_AMS_1956-57_33k_ES_PAN_21mic_H50_0449_fot_53A-25898_W_tif
  70
32
  10
178019.500
  20
4551119.793
  30
-17732.051
  0
VERTEX
  8
PNOA-H_AMS_1956-57_33k_ES_PAN_21mic_H50_0449_fot_53A-25898_W_tif
  70
32
  10
178025.500
  20
4551119.793
  30
-14391
  0
VERTEX
  8
PNOA-H_AMS_1956-57_33k_ES_PAN_21mic_H50_0449_fot_53A-25898_W_tif
  70
32
  10
178044.500
  20
4551139.793
  30
-17733.4
  0
VERTEX
  8
PNOA-H_AMS_1956-57_33k_ES_PAN_21mic_H50_0449_fot_53A-25898_W_tif
  70
32
  10
178050.500
  20
4551139.793
  30
-14392.7
  0
VERTEX
  8
PNOA-H_AMS_1956-57_33k_ES_PAN_21mic_H50_0449_fot_53A-25898_W_tif
  70
32
  10
178069.500
  20
4551159.793
  30
-17733.4
  0
VERTEX
  8
PNOA-H_AMS_1956-57_33k_ES_PAN_21mic_H50_0449_fot_53A-25898_W_tif
  70
32
  10
178075.500
  20
4551159.793
  30
-14392.45
  0
VERTEX
  8
PNOA-H_AMS_1956-57_33k_ES_PAN_21mic_H50_0449_fot_53A-25898_W_tif
  70
32
  10
178079.500
  20
4551164.793
  30
-17732.5
  0
VERTEX
  8
PNOA-H_AMS_1956-57_33k_ES_PAN_21mic_H50_0449_fot_53A-25898_W_tif
  70
32
  10
178085.500
  20
4551164.793
  30
-14391.35
  0
VERTEX
  8
PNOA-H_AMS_1956-57_33k_ES_PAN_21mic_H50_0449_fot_53A-25898_W_tif
  70
32
  10
178089.500
  20
4551169.793
  30
-17731.6
  0
VERTEX
  8
PNOA-H_AMS_1956-57_33k_ES_PAN_21mic_H50_0449_fot_53A-25898_W_tif
  70
32
  10
178095.500
  20
4551169.793
  30
-14390.2
  0
VERTEX
  8
PNOA-H_AMS_1956-57_33k_ES_PAN_21mic_H50_0449_fot_53A-25898_W_tif
  70
32
  10
178104.500
  20
4551179.793
  30
-17729.801
  0
VERTEX
  8
PNOA-H_AMS_1956-57_33k_ES_PAN_21mic_H50_0449_fot_53A-25898_W_tif
  70
32
  10
178110.500
  20
4551179.793
  30
-14388
  0
VERTEX
  8
PNOA-H_AMS_1956-57_33k_ES_PAN_21mic_H50_0449_fot_53A-25898_W_tif
  70
32
  10
178114.500
  20
4551184.793
  30
-17728.449
  0
VERTEX
  8
PNOA-H_AMS_1956-57_33k_ES_PAN_21mic_H50_0449_fot_53A-25898_W_tif
  70
32
  10
178120.500
  20
4551184.793
  30
-14386.4
  0
VERTEX
  8
PNOA-H_AMS_1956-57_33k_ES_PAN_21mic_H50_0449_fot_53A-25898_W_tif
  70
32
  10
178124.500
  20
4551189.793
  30
-17727.551
  0
VERTEX
  8
PNOA-H_AMS_1956-57_33k_ES_PAN_21mic_H50_0449_fot_53A-25898_W_tif
  70
32
  10
178130.500
  20
4551189.793
  30
-14384.75
  0
VERTEX
  8
PNOA-H_AMS_1956-57_33k_ES_PAN_21mic_H50_0449_fot_53A-25898_W_tif
  70
32
  10
178139.500
  20
4551199.793
  30
-17725.301
  0
VERTEX
  8
PNOA-H_AMS_1956-57_33k_ES_PAN_21mic_H50_0449_fot_53A-25898_W_tif
  70
32
  10
178145.500
  20
4551199.793
  30
-14382.55
  0
VERTEX
  8
PNOA-H_AMS_1956-57_33k_ES_PAN_21mic_H50_0449_fot_53A-25898_W_tif
  70
32
  10
178149.500
  20
4551204.793
  30
-17724.4
  0
VERTEX
  8
PNOA-H_AMS_1956-57_33k_ES_PAN_21mic_H50_0449_fot_53A-25898_W_tif
  70
32
  10
178155.500
  20
4551204.793
  30
-14381.35
  0
VERTEX
  8
PNOA-H_AMS_1956-57_33k_ES_PAN_21mic_H50_0449_fot_53A-25898_W_tif
  70
32
  10
178159.500
  20
4551209.793
  30
-17723.051
  0
VERTEX
  8
PNOA-H_AMS_1956-57_33k_ES_PAN_21mic_H50_0449_fot_53A-25898_W_tif
  70
32
  10
178165.500
  20
4551209.793
  30
-14379.8
  0
VERTEX
  8
PNOA-H_AMS_1956-57_33k_ES_PAN_21mic_H50_0449_fot_53A-25898_W_tif
  70
32
  10
178174.500
  20
4551219.793
  30
-17721.25
  0
VERTEX
  8
PNOA-H_AMS_1956-57_33k_ES_PAN_21mic_H50_0449_fot_53A-25898_W_tif
  70
32
  10
178180.500
  20
4551219.793
  30
-14377.55
  0
VERTEX
  8
PNOA-H_AMS_1956-57_33k_ES_PAN_21mic_H50_0449_fot_53A-25898_W_tif
  70
32
  10
178184.500
  20
4551224.793
  30
-17719.9
  0
VERTEX
  8
PNOA-H_AMS_1956-57_33k_ES_PAN_21mic_H50_0449_fot_53A-25898_W_tif
  70
32
  10
178190.500
  20
4551224.793
  30
-14375.95
  0
VERTEX
  8
PNOA-H_AMS_1956-57_33k_ES_PAN_21mic_H50_0449_fot_53A-25898_W_tif
  70
32
  10
178194.500
  20
4551229.793
  30
-17719
  0
VERTEX
  8
PNOA-H_AMS_1956-57_33k_ES_PAN_21mic_H50_0449_fot_53A-25898_W_tif
  70
32
  10
178200.500
  20
4551229.793
  30
-14374.75
  0
VERTEX
  8
PNOA-H_AMS_1956-57_33k_ES_PAN_21mic_H50_0449_fot_53A-25898_W_tif
  70
32
  10
178204.500
  20
4551234.793
  30
-17717.65
  0
VERTEX
  8
PNOA-H_AMS_1956-57_33k_ES_PAN_21mic_H50_0449_fot_53A-25898_W_tif
  70
32
  10
178210.500
  20
4551234.793
  30
-14373.2
  0
VERTEX
  8
PNOA-H_AMS_1956-57_33k_ES_PAN_21mic_H50_0449_fot_53A-25898_W_tif
  70
32
  10
178219.500
  20
4551244.793
  30
-17716.301
  0
VERTEX
  8
PNOA-H_AMS_1956-57_33k_ES_PAN_21mic_H50_0449_fot_53A-25898_W_tif
  70
32
  10
178225.500
  20
4551244.793
  30
-14371.05
  0
VERTEX
  8
PNOA-H_AMS_1956-57_33k_ES_PAN_21mic_H50_0449_fot_53A-25898_W_tif
  70
32
  10
178229.500
  20
4551249.793
  30
-17714.949
  0
VERTEX
  8
PNOA-H_AMS_1956-57_33k_ES_PAN_21mic_H50_0449_fot_53A-25898_W_tif
  70
32
  10
178235.500
  20
4551249.793
  30
-14369.95
  0
VERTEX
  8
PNOA-H_AMS_1956-57_33k_ES_PAN_21mic_H50_0449_fot_53A-25898_W_tif
  70
32
  10
178244.500
  20
4551259.793
  30
-17714.051
  0
VERTEX
  8
PNOA-H_AMS_1956-57_33k_ES_PAN_21mic_H50_0449_fot_53A-25898_W_tif
  70
32
  10
178250.500
  20
4551259.793
  30
-14368.35
  0
VERTEX
  8
PNOA-H_AMS_1956-57_33k_ES_PAN_21mic_H50_0449_fot_53A-25898_W_tif
  70
32
  10
178259.500
  20
4551269.793
  30
-17712.699
  0
VERTEX
  8
PNOA-H_AMS_1956-57_33k_ES_PAN_21mic_H50_0449_fot_53A-25898_W_tif
  70
32
  10
178265.500
  20
4551269.793
  30
-14366.65
  0
VERTEX
  8
PNOA-H_AMS_1956-57_33k_ES_PAN_21mic_H50_0449_fot_53A-25898_W_tif
  70
32
  10
178274.500
  20
4551279.793
  30
-17711.35
  0
VERTEX
  8
PNOA-H_AMS_1956-57_33k_ES_PAN_21mic_H50_0449_fot_53A-25898_W_tif
  70
32
  10
178280.500
  20
4551279.793
  30
-14365.5
  0
VERTEX
  8
PNOA-H_AMS_1956-57_33k_ES_PAN_21mic_H50_0449_fot_53A-25898_W_tif
  70
32
  10
178289.500
  20
4551289.793
  30
-17710.449
  0
VERTEX
  8
PNOA-H_AMS_1956-57_33k_ES_PAN_21mic_H50_0449_fot_53A-25898_W_tif
  70
32
  10
178295.500
  20
4551289.793
  30
-14364.45
  0
VERTEX
  8
PNOA-H_AMS_1956-57_33k_ES_PAN_21mic_H50_0449_fot_53A-25898_W_tif
  70
32
  10
178304.500
  20
4551299.793
  30
-17709.551
  0
VERTEX
  8
PNOA-H_AMS_1956-57_33k_ES_PAN_21mic_H50_0449_fot_53A-25898_W_tif
  70
32
  10
178310.500
  20
4551299.793
  30
-14363.55
  0
VERTEX
  8
PNOA-H_AMS_1956-57_33k_ES_PAN_21mic_H50_0449_fot_53A-25898_W_tif
  70
32
  10
178324.500
  20
4551314.793
  30
-17710
  0
VERTEX
  8
PNOA-H_AMS_1956-57_33k_ES_PAN_21mic_H50_0449_fot_53A-25898_W_tif
  70
32
  10
178330.500
  20
4551314.793
  30
-14364
  0
VERTEX
  8
PNOA-H_AMS_1956-57_33k_ES_PAN_21mic_H50_0449_fot_53A-25898_W_tif
  70
32
  10
178339.500
  20
4551324.793
  30
-17710
  0
VERTEX
  8
PNOA-H_AMS_1956-57_33k_ES_PAN_21mic_H50_0449_fot_53A-25898_W_tif
  70
32
  10
178345.500
  20
4551324.793
  30
-14364
  0
VERTEX
  8
PNOA-H_AMS_1956-57_33k_ES_PAN_21mic_H50_0449_fot_53A-25898_W_tif
  70
32
  10
178359.500
  20
4551339.793
  30
-17710.9
  0
VERTEX
  8
PNOA-H_AMS_1956-57_33k_ES_PAN_21mic_H50_0449_fot_53A-25898_W_tif
  70
32
  10
178365.500
  20
4551339.793
  30
-14365.1
  0
VERTEX
  8
PNOA-H_AMS_1956-57_33k_ES_PAN_21mic_H50_0449_fot_53A-25898_W_tif
  70
32
  10
178374.500
  20
4551349.793
  30
-17710.9
  0
VERTEX
  8
PNOA-H_AMS_1956-57_33k_ES_PAN_21mic_H50_0449_fot_53A-25898_W_tif
  70
32
  10
178380.500
  20
4551349.793
  30
-14365.7
  0
VERTEX
  8
PNOA-H_AMS_1956-57_33k_ES_PAN_21mic_H50_0449_fot_53A-25898_W_tif
  70
32
  10
178394.500
  20
4551364.793
  30
-17712.25
  0
VERTEX
  8
PNOA-H_AMS_1956-57_33k_ES_PAN_21mic_H50_0449_fot_53A-25898_W_tif
  70
32
  10
178400.500
  20
4551364.793
  30
-14366.85
  0
VERTEX
  8
PNOA-H_AMS_1956-57_33k_ES_PAN_21mic_H50_0449_fot_53A-25898_W_tif
  70
32
  10
178424.500
  20
4551389.793
  30
-17714.5
  0
VERTEX
  8
PNOA-H_AMS_1956-57_33k_ES_PAN_21mic_H50_0449_fot_53A-25898_W_tif
  70
32
  10
178430.500
  20
4551389.793
  30
-14369.65
  0
VERTEX
  8
PNOA-H_AMS_1956-57_33k_ES_PAN_21mic_H50_0449_fot_53A-25898_W_tif
  70
32
  10
178449.500
  20
4551409.793
  30
-17716.75
  0
VERTEX
  8
PNOA-H_AMS_1956-57_33k_ES_PAN_21mic_H50_0449_fot_53A-25898_W_tif
  70
32
  10
178455.500
  20
4551409.793
  30
-14372.25
  0
VERTEX
  8
PNOA-H_AMS_1956-57_33k_ES_PAN_21mic_H50_0449_fot_53A-25898_W_tif
  70
32
  10
178464.500
  20
4551419.793
  30
-17717.199
  0
VERTEX
  8
PNOA-H_AMS_1956-57_33k_ES_PAN_21mic_H50_0449_fot_53A-25898_W_tif
  70
32
  10
178470.500
  20
4551419.793
  30
-14372.95
  0
VERTEX
  8
PNOA-H_AMS_1956-57_33k_ES_PAN_21mic_H50_0449_fot_53A-25898_W_tif
  70
32
  10
178494.500
  20
4551444.793
  30
-17719.449
  0
VERTEX
  8
PNOA-H_AMS_1956-57_33k_ES_PAN_21mic_H50_0449_fot_53A-25898_W_tif
  70
32
  10
178500.500
  20
4551444.793
  30
-14375.7
  0
VERTEX
  8
PNOA-H_AMS_1956-57_33k_ES_PAN_21mic_H50_0449_fot_53A-25898_W_tif
  70
32
  10
178519.500
  20
4551464.793
  30
-17721.699
  0
VERTEX
  8
PNOA-H_AMS_1956-57_33k_ES_PAN_21mic_H50_0449_fot_53A-25898_W_tif
  70
32
  10
178525.500
  20
4551464.793
  30
-14378.9
  0
VERTEX
  8
PNOA-H_AMS_1956-57_33k_ES_PAN_21mic_H50_0449_fot_53A-25898_W_tif
  70
32
  10
178559.500
  20
4551499.793
  30
-17727.1
  0
VERTEX
  8
PNOA-H_AMS_1956-57_33k_ES_PAN_21mic_H50_0449_fot_53A-25898_W_tif
  70
32
  10
178565.500
  20
4551499.793
  30
-14385.05
  0
VERTEX
  8
PNOA-H_AMS_1956-57_33k_ES_PAN_21mic_H50_0449_fot_53A-25898_W_tif
  70
32
  10
178589.500
  20
4551524.793
  30
-17730.699
  0
VERTEX
  8
PNOA-H_AMS_1956-57_33k_ES_PAN_21mic_H50_0449_fot_53A-25898_W_tif
  70
32
  10
178595.500
  20
4551524.793
  30
-14389.35
  0
VERTEX
  8
PNOA-H_AMS_1956-57_33k_ES_PAN_21mic_H50_0449_fot_53A-25898_W_tif
  70
32
  10
178604.500
  20
4551534.793
  30
-17730.699
  0
VERTEX
  8
PNOA-H_AMS_1956-57_33k_ES_PAN_21mic_H50_0449_fot_53A-25898_W_tif
  70
32
  10
178610.500
  20
4551534.793
  30
-14389.25
  0
VERTEX
  8
PNOA-H_AMS_1956-57_33k_ES_PAN_21mic_H50_0449_fot_53A-25898_W_tif
  70
32
  10
178614.500
  20
4551539.793
  30
-17730.25
  0
VERTEX
  8
PNOA-H_AMS_1956-57_33k_ES_PAN_21mic_H50_0449_fot_53A-25898_W_tif
  70
32
  10
178620.500
  20
4551539.793
  30
-14388.7
  0
VERTEX
  8
PNOA-H_AMS_1956-57_33k_ES_PAN_21mic_H50_0449_fot_53A-25898_W_tif
  70
32
  10
178634.500
  20
4551554.793
  30
-17729.801
  0
VERTEX
  8
PNOA-H_AMS_1956-57_33k_ES_PAN_21mic_H50_0449_fot_53A-25898_W_tif
  70
32
  10
178640.500
  20
4551554.793
  30
-14388.15
  0
VERTEX
  8
PNOA-H_AMS_1956-57_33k_ES_PAN_21mic_H50_0449_fot_53A-25898_W_tif
  70
32
  10
178649.500
  20
4551564.793
  30
-17729.35
  0
VERTEX
  8
PNOA-H_AMS_1956-57_33k_ES_PAN_21mic_H50_0449_fot_53A-25898_W_tif
  70
32
  10
178655.500
  20
4551564.793
  30
-14387.55
  0
VERTEX
  8
PNOA-H_AMS_1956-57_33k_ES_PAN_21mic_H50_0449_fot_53A-25898_W_tif
  70
32
  10
178664.500
  20
4551574.793
  30
-17728.9
  0
VERTEX
  8
PNOA-H_AMS_1956-57_33k_ES_PAN_21mic_H50_0449_fot_53A-25898_W_tif
  70
32
  10
178670.500
  20
4551574.793
  30
-14387
  0
VERTEX
  8
PNOA-H_AMS_1956-57_33k_ES_PAN_21mic_H50_0449_fot_53A-25898_W_tif
  70
32
  10
178674.500
  20
4551579.793
  30
-17728.449
  0
VERTEX
  8
PNOA-H_AMS_1956-57_33k_ES_PAN_21mic_H50_0449_fot_53A-25898_W_tif
  70
32
  10
178680.500
  20
4551579.793
  30
-14386.55
  0
VERTEX
  8
PNOA-H_AMS_1956-57_33k_ES_PAN_21mic_H50_0449_fot_53A-25898_W_tif
  70
32
  10
178689.500
  20
4551589.793
  30
-17728
  0
VERTEX
  8
PNOA-H_AMS_1956-57_33k_ES_PAN_21mic_H50_0449_fot_53A-25898_W_tif
  70
32
  10
178695.500
  20
4551589.793
  30
-14386
  0
VERTEX
  8
PNOA-H_AMS_1956-57_33k_ES_PAN_21mic_H50_0449_fot_53A-25898_W_tif
  70
32
  10
178704.500
  20
4551599.793
  30
-17728
  0
VERTEX
  8
PNOA-H_AMS_1956-57_33k_ES_PAN_21mic_H50_0449_fot_53A-25898_W_tif
  70
32
  10
178710.500
  20
4551599.793
  30
-14386
  0
VERTEX
  8
PNOA-H_AMS_1956-57_33k_ES_PAN_21mic_H50_0449_fot_53A-25898_W_tif
  70
32
  10
178719.500
  20
4551609.793
  30
-17728
  0
VERTEX
  8
PNOA-H_AMS_1956-57_33k_ES_PAN_21mic_H50_0449_fot_53A-25898_W_tif
  70
32
  10
178725.500
  20
4551609.793
  30
-14386
  0
VERTEX
  8
PNOA-H_AMS_1956-57_33k_ES_PAN_21mic_H50_0449_fot_53A-25898_W_tif
  70
32
  10
178744.500
  20
4551629.793
  30
-17728.9
  0
VERTEX
  8
PNOA-H_AMS_1956-57_33k_ES_PAN_21mic_H50_0449_fot_53A-25898_W_tif
  70
32
  10
178750.500
  20
4551629.793
  30
-14387.15
  0
VERTEX
  8
PNOA-H_AMS_1956-57_33k_ES_PAN_21mic_H50_0449_fot_53A-25898_W_tif
  70
32
  10
178764.500
  20
4551644.793
  30
-17730.25
  0
VERTEX
  8
PNOA-H_AMS_1956-57_33k_ES_PAN_21mic_H50_0449_fot_53A-25898_W_tif
  70
32
  10
178770.500
  20
4551644.793
  30
-14388.75
  0
VERTEX
  8
PNOA-H_AMS_1956-57_33k_ES_PAN_21mic_H50_0449_fot_53A-25898_W_tif
  70
32
  10
178789.500
  20
4551664.793
  30
-17730.699
  0
VERTEX
  8
PNOA-H_AMS_1956-57_33k_ES_PAN_21mic_H50_0449_fot_53A-25898_W_tif
  70
32
  10
178795.500
  20
4551664.793
  30
-14389.2
  0
VERTEX
  8
PNOA-H_AMS_1956-57_33k_ES_PAN_21mic_H50_0449_fot_53A-25898_W_tif
  70
32
  10
178799.500
  20
4551669.793
  30
-17730.25
  0
VERTEX
  8
PNOA-H_AMS_1956-57_33k_ES_PAN_21mic_H50_0449_fot_53A-25898_W_tif
  70
32
  10
178805.500
  20
4551669.793
  30
-14388.65
  0
VERTEX
  8
PNOA-H_AMS_1956-57_33k_ES_PAN_21mic_H50_0449_fot_53A-25898_W_tif
  70
32
  10
178819.500
  20
4551684.793
  30
-17729.35
  0
VERTEX
  8
PNOA-H_AMS_1956-57_33k_ES_PAN_21mic_H50_0449_fot_53A-25898_W_tif
  70
32
  10
178825.500
  20
4551684.793
  30
-14387.5
  0
VERTEX
  8
PNOA-H_AMS_1956-57_33k_ES_PAN_21mic_H50_0449_fot_53A-25898_W_tif
  70
32
  10
178829.500
  20
4551689.793
  30
-17728.449
  0
VERTEX
  8
PNOA-H_AMS_1956-57_33k_ES_PAN_21mic_H50_0449_fot_53A-25898_W_tif
  70
32
  10
178835.500
  20
4551689.793
  30
-14386.45
  0
VERTEX
  8
PNOA-H_AMS_1956-57_33k_ES_PAN_21mic_H50_0449_fot_53A-25898_W_tif
  70
32
  10
178844.500
  20
4551699.793
  30
-17727.1
  0
VERTEX
  8
PNOA-H_AMS_1956-57_33k_ES_PAN_21mic_H50_0449_fot_53A-25898_W_tif
  70
32
  10
178850.500
  20
4551699.793
  30
-14384.9
  0
VERTEX
  8
PNOA-H_AMS_1956-57_33k_ES_PAN_21mic_H50_0449_fot_53A-25898_W_tif
  70
32
  10
178854.500
  20
4551704.793
  30
-17727.1
  0
VERTEX
  8
PNOA-H_AMS_1956-57_33k_ES_PAN_21mic_H50_0449_fot_53A-25898_W_tif
  70
32
  10
178860.500
  20
4551704.793
  30
-14384.7
  0
VERTEX
  8
PNOA-H_AMS_1956-57_33k_ES_PAN_21mic_H50_0449_fot_53A-25898_W_tif
  70
32
  10
178864.500
  20
4551709.793
  30
-17725.75
  0
VERTEX
  8
PNOA-H_AMS_1956-57_33k_ES_PAN_21mic_H50_0449_fot_53A-25898_W_tif
  70
32
  10
178870.500
  20
4551709.793
  30
-14383.1
  0
VERTEX
  8
PNOA-H_AMS_1956-57_33k_ES_PAN_21mic_H50_0449_fot_53A-25898_W_tif
  70
32
  10
178874.500
  20
4551714.793
  30
-17724.85
  0
VERTEX
  8
PNOA-H_AMS_1956-57_33k_ES_PAN_21mic_H50_0449_fot_53A-25898_W_tif
  70
32
  10
178880.500
  20
4551714.793
  30
-14382
  0
VERTEX
  8
PNOA-H_AMS_1956-57_33k_ES_PAN_21mic_H50_0449_fot_53A-25898_W_tif
  70
32
  10
178889.500
  20
4551724.793
  30
-17723.5
  0
VERTEX
  8
PNOA-H_AMS_1956-57_33k_ES_PAN_21mic_H50_0449_fot_53A-25898_W_tif
  70
32
  10
178895.500
  20
4551724.793
  30
-14380.35
  0
VERTEX
  8
PNOA-H_AMS_1956-57_33k_ES_PAN_21mic_H50_0449_fot_53A-25898_W_tif
  70
32
  10
178899.500
  20
4551729.793
  30
-17722.6
  0
VERTEX
  8
PNOA-H_AMS_1956-57_33k_ES_PAN_21mic_H50_0449_fot_53A-25898_W_tif
  70
32
  10
178905.500
  20
4551729.793
  30
-14379.25
  0
VERTEX
  8
PNOA-H_AMS_1956-57_33k_ES_PAN_21mic_H50_0449_fot_53A-25898_W_tif
  70
32
  10
178909.500
  20
4551734.793
  30
-17721.699
  0
VERTEX
  8
PNOA-H_AMS_1956-57_33k_ES_PAN_21mic_H50_0449_fot_53A-25898_W_tif
  70
32
  10
178915.500
  20
4551734.793
  30
-14378.15
  0
VERTEX
  8
PNOA-H_AMS_1956-57_33k_ES_PAN_21mic_H50_0449_fot_53A-25898_W_tif
  70
32
  10
178924.500
  20
4551744.793
  30
-17720.35
  0
VERTEX
  8
PNOA-H_AMS_1956-57_33k_ES_PAN_21mic_H50_0449_fot_53A-25898_W_tif
  70
32
  10
178930.500
  20
4551744.793
  30
-14376.6
  0
VERTEX
  8
PNOA-H_AMS_1956-57_33k_ES_PAN_21mic_H50_0449_fot_53A-25898_W_tif
  70
32
  10
178934.500
  20
4551749.793
  30
-17719.9
  0
VERTEX
  8
PNOA-H_AMS_1956-57_33k_ES_PAN_21mic_H50_0449_fot_53A-25898_W_tif
  70
32
  10
178940.500
  20
4551749.793
  30
-14375.95
  0
VERTEX
  8
PNOA-H_AMS_1956-57_33k_ES_PAN_21mic_H50_0449_fot_53A-25898_W_tif
  70
32
  10
178949.500
  20
4551759.793
  30
-17718.1
  0
VERTEX
  8
PNOA-H_AMS_1956-57_33k_ES_PAN_21mic_H50_0449_fot_53A-25898_W_tif
  70
32
  10
178955.500
  20
4551759.793
  30
-14373.75
  0
VERTEX
  8
PNOA-H_AMS_1956-57_33k_ES_PAN_21mic_H50_0449_fot_53A-25898_W_tif
  70
32
  10
178974.500
  20
4551779.793
  30
-17715.85
  0
VERTEX
  8
PNOA-H_AMS_1956-57_33k_ES_PAN_21mic_H50_0449_fot_53A-25898_W_tif
  70
32
  10
178980.500
  20
4551779.793
  30
-14370.55
  0
VERTEX
  8
PNOA-H_AMS_1956-57_33k_ES_PAN_21mic_H50_0449_fot_53A-25898_W_tif
  70
32
  10
178989.500
  20
4551789.793
  30
-17714.5
  0
VERTEX
  8
PNOA-H_AMS_1956-57_33k_ES_PAN_21mic_H50_0449_fot_53A-25898_W_tif
  70
32
  10
178995.500
  20
4551789.793
  30
-14369.45
  0
VERTEX
  8
PNOA-H_AMS_1956-57_33k_ES_PAN_21mic_H50_0449_fot_53A-25898_W_tif
  70
32
  10
179019.500
  20
4551814.793
  30
-17712.699
  0
VERTEX
  8
PNOA-H_AMS_1956-57_33k_ES_PAN_21mic_H50_0449_fot_53A-25898_W_tif
  70
32
  10
179025.500
  20
4551814.793
  30
-14367.25
  0
VERTEX
  8
PNOA-H_AMS_1956-57_33k_ES_PAN_21mic_H50_0449_fot_53A-25898_W_tif
  70
32
  10
179029.500
  20
4551819.793
  30
-17712.25
  0
VERTEX
  8
PNOA-H_AMS_1956-57_33k_ES_PAN_21mic_H50_0449_fot_53A-25898_W_tif
  70
32
  10
179035.500
  20
4551819.793
  30
-14366.7
  0
VERTEX
  8
PNOA-H_AMS_1956-57_33k_ES_PAN_21mic_H50_0449_fot_53A-25898_W_tif
  70
32
  10
179044.500
  20
4551829.793
  30
-17711.801
  0
VERTEX
  8
PNOA-H_AMS_1956-57_33k_ES_PAN_21mic_H50_0449_fot_53A-25898_W_tif
  70
32
  10
179050.500
  20
4551829.793
  30
-14366.1
  0
VERTEX
  8
PNOA-H_AMS_1956-57_33k_ES_PAN_21mic_H50_0449_fot_53A-25898_W_tif
  70
32
  10
179059.500
  20
4551839.793
  30
-17711.35
  0
VERTEX
  8
PNOA-H_AMS_1956-57_33k_ES_PAN_21mic_H50_0449_fot_53A-25898_W_tif
  70
32
  10
179065.500
  20
4551839.793
  30
-14365.6
  0
VERTEX
  8
PNOA-H_AMS_1956-57_33k_ES_PAN_21mic_H50_0449_fot_53A-25898_W_tif
  70
32
  10
179069.500
  20
4551844.793
  30
-17710.9
  0
VERTEX
  8
PNOA-H_AMS_1956-57_33k_ES_PAN_21mic_H50_0449_fot_53A-25898_W_tif
  70
32
  10
179075.500
  20
4551844.793
  30
-14365.15
  0
VERTEX
  8
PNOA-H_AMS_1956-57_33k_ES_PAN_21mic_H50_0449_fot_53A-25898_W_tif
  70
32
  10
179089.500
  20
4551859.793
  30
-17711.35
  0
VERTEX
  8
PNOA-H_AMS_1956-57_33k_ES_PAN_21mic_H50_0449_fot_53A-25898_W_tif
  70
32
  10
179095.500
  20
4551859.793
  30
-14365.65
  0
VERTEX
  8
PNOA-H_AMS_1956-57_33k_ES_PAN_21mic_H50_0449_fot_53A-25898_W_tif
  70
32
  10
179104.500
  20
4551869.793
  30
-17711.801
  0
VERTEX
  8
PNOA-H_AMS_1956-57_33k_ES_PAN_21mic_H50_0449_fot_53A-25898_W_tif
  70
32
  10
179110.500
  20
4551869.793
  30
-14366.25
  0
VERTEX
  8
PNOA-H_AMS_1956-57_33k_ES_PAN_21mic_H50_0449_fot_53A-25898_W_tif
  70
32
  10
179119.500
  20
4551879.793
  30
-17712.699
  0
VERTEX
  8
PNOA-H_AMS_1956-57_33k_ES_PAN_21mic_H50_0449_fot_53A-25898_W_tif
  70
32
  10
179125.500
  20
4551879.793
  30
-14367.45
  0
VERTEX
  8
PNOA-H_AMS_1956-57_33k_ES_PAN_21mic_H50_0449_fot_53A-25898_W_tif
  70
32
  10
179134.500
  20
4551889.793
  30
-17714.051
  0
VERTEX
  8
PNOA-H_AMS_1956-57_33k_ES_PAN_21mic_H50_0449_fot_53A-25898_W_tif
  70
32
  10
179140.500
  20
4551889.793
  30
-14369.15
  0
VERTEX
  8
PNOA-H_AMS_1956-57_33k_ES_PAN_21mic_H50_0449_fot_53A-25898_W_tif
  70
32
  10
179142.500
  20
4551891.793
  30
-14370.35
  0
VERTEX
  8
PNOA-H_AMS_1956-57_33k_ES_PAN_21mic_H50_0449_fot_53A-25898_W_tif
  70
32
  10
179142.500
  20
4551897.793
  30
-17715.4
  0
VERTEX
  8
PNOA-H_AMS_1956-57_33k_ES_PAN_21mic_H50_0449_fot_53A-25898_W_tif
  70
32
  10
179149.500
  20
4551904.793
  30
-17716.301
  0
VERTEX
  8
PNOA-H_AMS_1956-57_33k_ES_PAN_21mic_H50_0449_fot_53A-25898_W_tif
  70
32
  10
179155.500
  20
4551904.793
  30
-14372.45
  0
VERTEX
  8
PNOA-H_AMS_1956-57_33k_ES_PAN_21mic_H50_0449_fot_53A-25898_W_tif
  70
32
  10
179162.500
  20
4551912.793
  30
-16048.6
  0
VERTEX
  8
PNOA-H_AMS_1956-57_33k_ES_PAN_21mic_H50_0449_fot_53A-25898_W_tif
  70
32
  10
179167.500
  20
4551911.293
  30
670.8
  0
VERTEX
  8
PNOA-H_AMS_1956-57_33k_ES_PAN_21mic_H50_0449_fot_53A-25898_W_tif
  70
32
  10
179171.000
  20
4551914.793
  30
668.7
  0
VERTEX
  8
PNOA-H_AMS_1956-57_33k_ES_PAN_21mic_H50_0449_fot_53A-25898_W_tif
  70
32
  10
179169.500
  20
4551919.793
  30
-16049.5
  0
VERTEX
  8
PNOA-H_AMS_1956-57_33k_ES_PAN_21mic_H50_0449_fot_53A-25898_W_tif
  70
32
  10
179174.500
  20
4551924.793
  30
-17723.051
  0
VERTEX
  8
PNOA-H_AMS_1956-57_33k_ES_PAN_21mic_H50_0449_fot_53A-25898_W_tif
  70
32
  10
179180.500
  20
4551924.793
  30
-14380.25
  0
VERTEX
  8
PNOA-H_AMS_1956-57_33k_ES_PAN_21mic_H50_0449_fot_53A-25898_W_tif
  70
32
  10
179182.500
  20
4551926.793
  30
-14381.85
  0
VERTEX
  8
PNOA-H_AMS_1956-57_33k_ES_PAN_21mic_H50_0449_fot_53A-25898_W_tif
  70
32
  10
179182.500
  20
4551932.793
  30
-17724.85
  0
VERTEX
  8
PNOA-H_AMS_1956-57_33k_ES_PAN_21mic_H50_0449_fot_53A-25898_W_tif
  70
32
  10
179189.500
  20
4551939.793
  30
-17725.75
  0
VERTEX
  8
PNOA-H_AMS_1956-57_33k_ES_PAN_21mic_H50_0449_fot_53A-25898_W_tif
  70
32
  10
179195.500
  20
4551939.793
  30
-14383.4
  0
VERTEX
  8
PNOA-H_AMS_1956-57_33k_ES_PAN_21mic_H50_0449_fot_53A-25898_W_tif
  70
32
  10
179207.500
  20
4551952.793
  30
-16060.05
  0
VERTEX
  8
PNOA-H_AMS_1956-57_33k_ES_PAN_21mic_H50_0449_fot_53A-25898_W_tif
  70
32
  10
179211.500
  20
4551951.293
  30
647.58
  0
VERTEX
  8
PNOA-H_AMS_1956-57_33k_ES_PAN_21mic_H50_0449_fot_53A-25898_W_tif
  70
32
  10
179213.500
  20
4551951.793
  30
646.66
  0
VERTEX
  8
PNOA-H_AMS_1956-57_33k_ES_PAN_21mic_H50_0449_fot_53A-25898_W_tif
  70
32
  10
179216.000
  20
4551954.793
  30
645.8
  0
VERTEX
  8
PNOA-H_AMS_1956-57_33k_ES_PAN_21mic_H50_0449_fot_53A-25898_W_tif
  70
32
  10
179214.500
  20
4551959.793
  30
-16060.5
  0
VERTEX
  8
PNOA-H_AMS_1956-57_33k_ES_PAN_21mic_H50_0449_fot_53A-25898_W_tif
  70
32
  10
179222.500
  20
4551967.793
  30
-16064.6
  0
VERTEX
  8
PNOA-H_AMS_1956-57_33k_ES_PAN_21mic_H50_0449_fot_53A-25898_W_tif
  70
32
  10
179227.500
  20
4551966.293
  30
638.2
  0
VERTEX
  8
PNOA-H_AMS_1956-57_33k_ES_PAN_21mic_H50_0449_fot_53A-25898_W_tif
  70
32
  10
179230.500
  20
4551968.793
  30
636.46
  0
VERTEX
  8
PNOA-H_AMS_1956-57_33k_ES_PAN_21mic_H50_0449_fot_53A-25898_W_tif
  70
32
  10
179231.000
  20
4551970.793
  30
635.98
  0
VERTEX
  8
PNOA-H_AMS_1956-57_33k_ES_PAN_21mic_H50_0449_fot_53A-25898_W_tif
  70
32
  10
179229.500
  20
4551974.793
  30
-16065.5
  0
VERTEX
  8
PNOA-H_AMS_1956-57_33k_ES_PAN_21mic_H50_0449_fot_53A-25898_W_tif
  70
32
  10
179232.500
  20
4551976.793
  30
-14397.2
  0
VERTEX
  8
PNOA-H_AMS_1956-57_33k_ES_PAN_21mic_H50_0449_fot_53A-25898_W_tif
  70
32
  10
179232.500
  20
4551982.793
  30
-17738.35
  0
VERTEX
  8
PNOA-H_AMS_1956-57_33k_ES_PAN_21mic_H50_0449_fot_53A-25898_W_tif
  70
32
  10
179254.500
  20
4552004.793
  30
-17747.35
  0
VERTEX
  8
PNOA-H_AMS_1956-57_33k_ES_PAN_21mic_H50_0449_fot_53A-25898_W_tif
  70
32
  10
179255.500
  20
4552003.793
  30
-9403.17
  0
VERTEX
  8
PNOA-H_AMS_1956-57_33k_ES_PAN_21mic_H50_0449_fot_53A-25898_W_tif
  70
32
  10
179259.500
  20
4552003.793
  30
-9403.73
  0
VERTEX
  8
PNOA-H_AMS_1956-57_33k_ES_PAN_21mic_H50_0449_fot_53A-25898_W_tif
  70
32
  10
179260.000
  20
4552004.793
  30
-16079
  0
VERTEX
  8
PNOA-H_AMS_1956-57_33k_ES_PAN_21mic_H50_0449_fot_53A-25898_W_tif
  70
32
  10
179300.000
  20
4552004.793
  30
-16090.5
  0
VERTEX
  8
PNOA-H_AMS_1956-57_33k_ES_PAN_21mic_H50_0449_fot_53A-25898_W_tif
  70
32
  10
179300.500
  20
4552003.793
  30
-9420.04
  0
VERTEX
  8
PNOA-H_AMS_1956-57_33k_ES_PAN_21mic_H50_0449_fot_53A-25898_W_tif
  70
32
  10
179309.500
  20
4552003.793
  30
-9422.56
  0
VERTEX
  8
PNOA-H_AMS_1956-57_33k_ES_PAN_21mic_H50_0449_fot_53A-25898_W_tif
  70
32
  10
179310.500
  20
4552004.793
  30
-17759.949
  0
VERTEX
  8
PNOA-H_AMS_1956-57_33k_ES_PAN_21mic_H50_0449_fot_53A-25898_W_tif
  70
32
  10
179314.500
  20
4551999.793
  30
-14425.95
  0
VERTEX
  8
PNOA-H_AMS_1956-57_33k_ES_PAN_21mic_H50_0449_fot_53A-25898_W_tif
  70
32
  10
179325.500
  20
4551999.793
  30
-14428.75
  0
VERTEX
  8
PNOA-H_AMS_1956-57_33k_ES_PAN_21mic_H50_0449_fot_53A-25898_W_tif
  70
32
  10
179329.500
  20
4552004.793
  30
-17764.9
  0
VERTEX
  8
PNOA-H_AMS_1956-57_33k_ES_PAN_21mic_H50_0449_fot_53A-25898_W_tif
  70
32
  10
179725.500
  20
4552004.793
  30
-17856.25
  0
VERTEX
  8
PNOA-H_AMS_1956-57_33k_ES_PAN_21mic_H50_0449_fot_53A-25898_W_tif
  70
32
  10
179729.500
  20
4551999.793
  30
-14543.2
  0
VERTEX
  8
PNOA-H_AMS_1956-57_33k_ES_PAN_21mic_H50_0449_fot_53A-25898_W_tif
  70
32
  10
179735.500
  20
4551999.793
  30
-14544.6
  0
VERTEX
  8
PNOA-H_AMS_1956-57_33k_ES_PAN_21mic_H50_0449_fot_53A-25898_W_tif
  70
32
  10
179739.500
  20
4552004.793
  30
-17858.5
  0
VERTEX
  8
PNOA-H_AMS_1956-57_33k_ES_PAN_21mic_H50_0449_fot_53A-25898_W_tif
  70
32
  10
179995.500
  20
4552004.793
  30
-14548.45
  0
VERTEX
  8
PNOA-H_AMS_1956-57_33k_ES_PAN_21mic_H50_0449_fot_53A-25898_W_tif
  70
32
  10
179997.500
  20
4552006.793
  30
-14546.85
  0
VERTEX
  8
PNOA-H_AMS_1956-57_33k_ES_PAN_21mic_H50_0449_fot_53A-25898_W_tif
  70
32
  10
179997.500
  20
4552427.793
  30
-16202
  0
SEQEND
  8
PNOA-H_AMS_1956-57_33k_ES_PAN_21mic_H50_0449_fot_53A-25898_W_tif
  0
TEXT
  8
PNOA-H_AMS_1956-57_33k_ES_PAN_21mic_H50_0449_fot_53A-25898_W_tif
 62
0
  1
PNOA-H_AMS_1956-57_33k_ES_PAN_21mic_H50_0449_fot_53A-25898_W.tif
 40
41.85758
  10
179107.852
  20
4549988.293
  0
POLYLINE
  8
PNOA-H_AMS_1956-57_33k_ES_PAN_21mic_H50_0448_fot_53A-25900_W_tif
  70
9
  66
1
  0
VERTEX
  8
PNOA-H_AMS_1956-57_33k_ES_PAN_21mic_H50_0448_fot_53A-25900_W_tif
  70
32
  10
179255.000
  20
4552004.793
  30
-16078.5
  0
VERTEX
  8
PNOA-H_AMS_1956-57_33k_ES_PAN_21mic_H50_0448_fot_53A-25900_W_tif
  70
32
  10
179260.000
  20
4552004.793
  30
-16079
  0
VERTEX
  8
PNOA-H_AMS_1956-57_33k_ES_PAN_21mic_H50_0448_fot_53A-25900_W_tif
  70
32
  10
179259.500
  20
4552003.793
  30
-9403.73
  0
VERTEX
  8
PNOA-H_AMS_1956-57_33k_ES_PAN_21mic_H50_0448_fot_53A-25900_W_tif
  70
32
  10
179255.500
  20
4552003.793
  30
-9403.17
  0
VERTEX
  8
PNOA-H_AMS_1956-57_33k_ES_PAN_21mic_H50_0448_fot_53A-25900_W_tif
  70
32
  10
179255.000
  20
4552004.793
  30
-16078.5
  0
SEQEND
  8
PNOA-H_AMS_1956-57_33k_ES_PAN_21mic_H50_0448_fot_53A-25900_W_tif
  0
TEXT
  8
PNOA-H_AMS_1956-57_33k_ES_PAN_21mic_H50_0448_fot_53A-25900_W_tif
 62
0
  1
PNOA-H_AMS_1956-57_33k_ES_PAN_21mic_H50_0448_fot_53A-25900_W.tif
 40
41.85758
  10
179257.500
  20
4552004.293
  0
POLYLINE
  8
PNOA-H_AMS_1956-57_33k_ES_PAN_21mic_H50_0448_fot_53A-25900_W_tif
  70
9
  66
1
  0
VERTEX
  8
PNOA-H_AMS_1956-57_33k_ES_PAN_21mic_H50_0448_fot_53A-25900_W_tif
  70
32
  10
179300.000
  20
4552004.793
  30
-16090.5
  0
VERTEX
  8
PNOA-H_AMS_1956-57_33k_ES_PAN_21mic_H50_0448_fot_53A-25900_W_tif
  70
32
  10
179310.000
  20
4552004.793
  30
-16092.5
  0
VERTEX
  8
PNOA-H_AMS_1956-57_33k_ES_PAN_21mic_H50_0448_fot_53A-25900_W_tif
  70
32
  10
179309.500
  20
4552003.793
  30
-9422.56
  0
VERTEX
  8
PNOA-H_AMS_1956-57_33k_ES_PAN_21mic_H50_0448_fot_53A-25900_W_tif
  70
32
  10
179300.500
  20
4552003.793
  30
-9420.04
  0
VERTEX
  8
PNOA-H_AMS_1956-57_33k_ES_PAN_21mic_H50_0448_fot_53A-25900_W_tif
  70
32
  10
179300.000
  20
4552004.793
  30
-16090.5
  0
SEQEND
  8
PNOA-H_AMS_1956-57_33k_ES_PAN_21mic_H50_0448_fot_53A-25900_W_tif
  0
TEXT
  8
PNOA-H_AMS_1956-57_33k_ES_PAN_21mic_H50_0448_fot_53A-25900_W_tif
 62
0
  1
PNOA-H_AMS_1956-57_33k_ES_PAN_21mic_H50_0448_fot_53A-25900_W.tif
 40
41.85758
  10
179305.000
  20
4552004.293
  0
POLYLINE
  8
PNOA-H_AMS_1956-57_33k_ES_PAN_21mic_H50_0449_fot_52A-25905_E_tif
  70
9
  66
1
  0
VERTEX
  8
PNOA-H_AMS_1956-57_33k_ES_PAN_21mic_H50_0449_fot_52A-25905_E_tif
  70
32
  10
179224.500
  20
4551974.793
  30
-17735.65
  0
VERTEX
  8
PNOA-H_AMS_1956-57_33k_ES_PAN_21mic_H50_0449_fot_52A-25905_E_tif
  70
32
  10
179229.500
  20
4551974.793
  30
-16065.5
  0
VERTEX
  8
PNOA-H_AMS_1956-57_33k_ES_PAN_21mic_H50_0449_fot_52A-25905_E_tif
  70
32
  10
179231.000
  20
4551969.793
  30
636.1
  0
VERTEX
  8
PNOA-H_AMS_1956-57_33k_ES_PAN_21mic_H50_0449_fot_52A-25905_E_tif
  70
32
  10
179227.500
  20
4551966.293
  30
638.2
  0
VERTEX
  8
PNOA-H_AMS_1956-57_33k_ES_PAN_21mic_H50_0449_fot_52A-25905_E_tif
  70
32
  10
179223.000
  20
4551967.293
  30
-12724
  0
VERTEX
  8
PNOA-H_AMS_1956-57_33k_ES_PAN_21mic_H50_0449_fot_52A-25905_E_tif
  70
32
  10
179222.500
  20
4551972.793
  30
-17735.65
  0
VERTEX
  8
PNOA-H_AMS_1956-57_33k_ES_PAN_21mic_H50_0449_fot_52A-25905_E_tif
  70
32
  10
179224.000
  20
4551973.793
  30
-14061.32
  0
VERTEX
  8
PNOA-H_AMS_1956-57_33k_ES_PAN_21mic_H50_0449_fot_52A-25905_E_tif
  70
32
  10
179224.500
  20
4551974.793
  30
-17735.65
  0
SEQEND
  8
PNOA-H_AMS_1956-57_33k_ES_PAN_21mic_H50_0449_fot_52A-25905_E_tif
  0
TEXT
  8
PNOA-H_AMS_1956-57_33k_ES_PAN_21mic_H50_0449_fot_52A-25905_E_tif
 62
0
  1
PNOA-H_AMS_1956-57_33k_ES_PAN_21mic_H50_0449_fot_52A-25905_E.tif
 40
41.85758
  10
179226.740
  20
4551970.543
  0
POLYLINE
  8
PNOA-H_AMS_1956-57_33k_ES_PAN_21mic_H50_0449_fot_52A-25905_E_tif
  70
9
  66
1
  0
VERTEX
  8
PNOA-H_AMS_1956-57_33k_ES_PAN_21mic_H50_0449_fot_52A-25905_E_tif
  70
32
  10
179209.500
  20
4551959.793
  30
-17731.15
  0
VERTEX
  8
PNOA-H_AMS_1956-57_33k_ES_PAN_21mic_H50_0449_fot_52A-25905_E_tif
  70
32
  10
179214.500
  20
4551959.793
  30
-16060.5
  0
VERTEX
  8
PNOA-H_AMS_1956-57_33k_ES_PAN_21mic_H50_0449_fot_52A-25905_E_tif
  70
32
  10
179216.000
  20
4551954.793
  30
645.8
  0
VERTEX
  8
PNOA-H_AMS_1956-57_33k_ES_PAN_21mic_H50_0449_fot_52A-25905_E_tif
  70
32
  10
179212.500
  20
4551951.293
  30
647.3
  0
VERTEX
  8
PNOA-H_AMS_1956-57_33k_ES_PAN_21mic_H50_0449_fot_52A-25905_E_tif
  70
32
  10
179208.000
  20
4551952.293
  30
-12718.6
  0
VERTEX
  8
PNOA-H_AMS_1956-57_33k_ES_PAN_21mic_H50_0449_fot_52A-25905_E_tif
  70
32
  10
179207.500
  20
4551957.793
  30
-17731.15
  0
VERTEX
  8
PNOA-H_AMS_1956-57_33k_ES_PAN_21mic_H50_0449_fot_52A-25905_E_tif
  70
32
  10
179209.000
  20
4551958.793
  30
-14055.72
  0
VERTEX
  8
PNOA-H_AMS_1956-57_33k_ES_PAN_21mic_H50_0449_fot_52A-25905_E_tif
  70
32
  10
179209.500
  20
4551959.793
  30
-17731.15
  0
SEQEND
  8
PNOA-H_AMS_1956-57_33k_ES_PAN_21mic_H50_0449_fot_52A-25905_E_tif
  0
TEXT
  8
PNOA-H_AMS_1956-57_33k_ES_PAN_21mic_H50_0449_fot_52A-25905_E_tif
 62
0
  1
PNOA-H_AMS_1956-57_33k_ES_PAN_21mic_H50_0449_fot_52A-25905_E.tif
 40
41.85758
  10
179211.740
  20
4551955.543
  0
POLYLINE
  8
PNOA-H_AMS_1956-57_33k_ES_PAN_21mic_H50_0449_fot_52A-25905_E_tif
  70
9
  66
1
  0
VERTEX
  8
PNOA-H_AMS_1956-57_33k_ES_PAN_21mic_H50_0449_fot_52A-25905_E_tif
  70
32
  10
179164.500
  20
4551919.793
  30
-17721.25
  0
VERTEX
  8
PNOA-H_AMS_1956-57_33k_ES_PAN_21mic_H50_0449_fot_52A-25905_E_tif
  70
32
  10
179169.500
  20
4551919.793
  30
-16049.5
  0
VERTEX
  8
PNOA-H_AMS_1956-57_33k_ES_PAN_21mic_H50_0449_fot_52A-25905_E_tif
  70
32
  10
179171.000
  20
4551914.793
  30
668.7
  0
VERTEX
  8
PNOA-H_AMS_1956-57_33k_ES_PAN_21mic_H50_0449_fot_52A-25905_E_tif
  70
32
  10
179167.500
  20
4551911.293
  30
670.8
  0
VERTEX
  8
PNOA-H_AMS_1956-57_33k_ES_PAN_21mic_H50_0449_fot_52A-25905_E_tif
  70
32
  10
179163.000
  20
4551912.293
  30
-12704.8
  0
VERTEX
  8
PNOA-H_AMS_1956-57_33k_ES_PAN_21mic_H50_0449_fot_52A-25905_E_tif
  70
32
  10
179162.500
  20
4551917.793
  30
-17721.25
  0
VERTEX
  8
PNOA-H_AMS_1956-57_33k_ES_PAN_21mic_H50_0449_fot_52A-25905_E_tif
  70
32
  10
179164.000
  20
4551918.793
  30
-14043.4
  0
VERTEX
  8
PNOA-H_AMS_1956-57_33k_ES_PAN_21mic_H50_0449_fot_52A-25905_E_tif
  70
32
  10
179164.500
  20
4551919.793
  30
-17721.25
  0
SEQEND
  8
PNOA-H_AMS_1956-57_33k_ES_PAN_21mic_H50_0449_fot_52A-25905_E_tif
  0
TEXT
  8
PNOA-H_AMS_1956-57_33k_ES_PAN_21mic_H50_0449_fot_52A-25905_E_tif
 62
0
  1
PNOA-H_AMS_1956-57_33k_ES_PAN_21mic_H50_0449_fot_52A-25905_E.tif
 40
41.85758
  10
179166.740
  20
4551915.543
  0
POLYLINE
  8
PNOA-H_AMS_1956-57_33k_ES_PAN_21mic_H50_0449_fot_52A-25905_E_tif
  70
9
  66
1
  0
VERTEX
  8
PNOA-H_AMS_1956-57_33k_ES_PAN_21mic_H50_0449_fot_52A-25905_E_tif
  70
32
  10
181214.500
  20
4554004.793
  30
-17809
  0
VERTEX
  8
PNOA-H_AMS_1956-57_33k_ES_PAN_21mic_H50_0449_fot_52A-25905_E_tif
  70
32
  10
181219.500
  20
4554004.793
  30
-16147
  0
VERTEX
  8
PNOA-H_AMS_1956-57_33k_ES_PAN_21mic_H50_0449_fot_52A-25905_E_tif
  70
32
  10
181221.500
  20
4553999.293
  30
472.7
  0
VERTEX
  8
PNOA-H_AMS_1956-57_33k_ES_PAN_21mic_H50_0449_fot_52A-25905_E_tif
  70
32
  10
181218.000
  20
4553995.793
  30
473
  0
VERTEX
  8
PNOA-H_AMS_1956-57_33k_ES_PAN_21mic_H50_0449_fot_52A-25905_E_tif
  70
32
  10
181213.500
  20
4553996.793
  30
-9499
  0
VERTEX
  8
PNOA-H_AMS_1956-57_33k_ES_PAN_21mic_H50_0449_fot_52A-25905_E_tif
  70
32
  10
181212.500
  20
4553997.793
  30
-16147
  0
VERTEX
  8
PNOA-H_AMS_1956-57_33k_ES_PAN_21mic_H50_0449_fot_52A-25905_E_tif
  70
32
  10
181212.500
  20
4554002.793
  30
-17809
  0
VERTEX
  8
PNOA-H_AMS_1956-57_33k_ES_PAN_21mic_H50_0449_fot_52A-25905_E_tif
  70
32
  10
181214.000
  20
4554003.793
  30
-14152.6
  0
VERTEX
  8
PNOA-H_AMS_1956-57_33k_ES_PAN_21mic_H50_0449_fot_52A-25905_E_tif
  70
32
  10
181214.500
  20
4554004.793
  30
-17809
  0
SEQEND
  8
PNOA-H_AMS_1956-57_33k_ES_PAN_21mic_H50_0449_fot_52A-25905_E_tif
  0
TEXT
  8
PNOA-H_AMS_1956-57_33k_ES_PAN_21mic_H50_0449_fot_52A-25905_E_tif
 62
0
  1
PNOA-H_AMS_1956-57_33k_ES_PAN_21mic_H50_0449_fot_52A-25905_E.tif
 40
41.85758
  10
181216.818
  20
4554000.293
  0
POLYLINE
  8
PNOA-H_AMS_1956-57_33k_ES_PAN_21mic_H50_0449_fot_52A-25905_E_tif
  70
9
  66
1
  0
VERTEX
  8
PNOA-H_AMS_1956-57_33k_ES_PAN_21mic_H50_0449_fot_52A-25905_E_tif
  70
32
  10
179999.500
  20
4552679.793
  30
-17858.051
  0
VERTEX
  8
PNOA-H_AMS_1956-57_33k_ES_PAN_21mic_H50_0449_fot_52A-25905_E_tif
  70
32
  10
180004.500
  20
4552679.793
  30
-16201.5
  0
VERTEX
  8
PNOA-H_AMS_1956-57_33k_ES_PAN_21mic_H50_0449_fot_52A-25905_E_tif
  70
32
  10
180006.500
  20
4552674.293
  30
363.7
  0
VERTEX
  8
PNOA-H_AMS_1956-57_33k_ES_PAN_21mic_H50_0449_fot_52A-25905_E_tif
  70
32
  10
180003.000
  20
4552670.793
  30
362.7
  0
VERTEX
  8
PNOA-H_AMS_1956-57_33k_ES_PAN_21mic_H50_0449_fot_52A-25905_E_tif
  70
32
  10
179998.500
  20
4552671.793
  30
-9576.07
  0
VERTEX
  8
PNOA-H_AMS_1956-57_33k_ES_PAN_21mic_H50_0449_fot_52A-25905_E_tif
  70
32
  10
179997.500
  20
4552672.793
  30
-16201.95
  0
VERTEX
  8
PNOA-H_AMS_1956-57_33k_ES_PAN_21mic_H50_0449_fot_52A-25905_E_tif
  70
32
  10
179997.500
  20
4552677.793
  30
-17858.051
  0
VERTEX
  8
PNOA-H_AMS_1956-57_33k_ES_PAN_21mic_H50_0449_fot_52A-25905_E_tif
  70
32
  10
179999.000
  20
4552678.793
  30
-14213.64
  0
VERTEX
  8
PNOA-H_AMS_1956-57_33k_ES_PAN_21mic_H50_0449_fot_52A-25905_E_tif
  70
32
  10
179999.500
  20
4552679.793
  30
-17858.051
  0
SEQEND
  8
PNOA-H_AMS_1956-57_33k_ES_PAN_21mic_H50_0449_fot_52A-25905_E_tif
  0
TEXT
  8
PNOA-H_AMS_1956-57_33k_ES_PAN_21mic_H50_0449_fot_52A-25905_E_tif
 62
0
  1
PNOA-H_AMS_1956-57_33k_ES_PAN_21mic_H50_0449_fot_52A-25905_E.tif
 40
41.85758
  10
180001.818
  20
4552675.293
  0
POLYLINE
  8
PNOA-H_AMS_1956-57_33k_ES_PAN_21mic_H50_0449_fot_52A-25905_E_tif
  70
9
  66
1
  0
VERTEX
  8
PNOA-H_AMS_1956-57_33k_ES_PAN_21mic_H50_0449_fot_52A-25905_E_tif
  70
32
  10
182139.500
  20
4556004.793
  30
-17806.301
  0
VERTEX
  8
PNOA-H_AMS_1956-57_33k_ES_PAN_21mic_H50_0449_fot_52A-25905_E_tif
  70
32
  10
182925.500
  20
4556004.793
  30
-17874.25
  0
VERTEX
  8
PNOA-H_AMS_1956-57_33k_ES_PAN_21mic_H50_0449_fot_52A-25905_E_tif
  70
32
  10
182929.500
  20
4555999.793
  30
-14564.75
  0
VERTEX
  8
PNOA-H_AMS_1956-57_33k_ES_PAN_21mic_H50_0449_fot_52A-25905_E_tif
  70
32
  10
182935.500
  20
4555999.793
  30
-14565.05
  0
VERTEX
  8
PNOA-H_AMS_1956-57_33k_ES_PAN_21mic_H50_0449_fot_52A-25905_E_tif
  70
32
  10
182939.500
  20
4556004.793
  30
-17873.35
  0
VERTEX
  8
PNOA-H_AMS_1956-57_33k_ES_PAN_21mic_H50_0449_fot_52A-25905_E_tif
  70
32
  10
183106.500
  20
4556004.793
  30
-16250.5
  0
VERTEX
  8
PNOA-H_AMS_1956-57_33k_ES_PAN_21mic_H50_0449_fot_52A-25905_E_tif
  70
32
  10
183107.000
  20
4555976.793
  30
257.8
  0
VERTEX
  8
PNOA-H_AMS_1956-57_33k_ES_PAN_21mic_H50_0449_fot_52A-25905_E_tif
  70
32
  10
181997.500
  20
4555209.293
  30
-16260.3
  0
VERTEX
  8
PNOA-H_AMS_1956-57_33k_ES_PAN_21mic_H50_0449_fot_52A-25905_E_tif
  70
32
  10
181997.500
  20
4555837.793
  30
-17813.051
  0
VERTEX
  8
PNOA-H_AMS_1956-57_33k_ES_PAN_21mic_H50_0449_fot_52A-25905_E_tif
  70
32
  10
181999.500
  20
4555839.793
  30
-17813.051
  0
VERTEX
  8
PNOA-H_AMS_1956-57_33k_ES_PAN_21mic_H50_0449_fot_52A-25905_E_tif
  70
32
  10
182005.500
  20
4555839.793
  30
-14489.8
  0
VERTEX
  8
PNOA-H_AMS_1956-57_33k_ES_PAN_21mic_H50_0449_fot_52A-25905_E_tif
  70
32
  10
182009.500
  20
4555844.793
  30
-17812.15
  0
VERTEX
  8
PNOA-H_AMS_1956-57_33k_ES_PAN_21mic_H50_0449_fot_52A-25905_E_tif
  70
32
  10
182015.500
  20
4555844.793
  30
-14488.8
  0
VERTEX
  8
PNOA-H_AMS_1956-57_33k_ES_PAN_21mic_H50_0449_fot_52A-25905_E_tif
  70
32
  10
182029.500
  20
4555859.793
  30
-17811.699
  0
VERTEX
  8
PNOA-H_AMS_1956-57_33k_ES_PAN_21mic_H50_0449_fot_52A-25905_E_tif
  70
32
  10
182035.500
  20
4555859.793
  30
-14488.3
  0
VERTEX
  8
PNOA-H_AMS_1956-57_33k_ES_PAN_21mic_H50_0449_fot_52A-25905_E_tif
  70
32
  10
182049.500
  20
4555874.793
  30
-17812.15
  0
VERTEX
  8
PNOA-H_AMS_1956-57_33k_ES_PAN_21mic_H50_0449_fot_52A-25905_E_tif
  70
32
  10
182055.500
  20
4555874.793
  30
-14489
  0
VERTEX
  8
PNOA-H_AMS_1956-57_33k_ES_PAN_21mic_H50_0449_fot_52A-25905_E_tif
  70
32
  10
182069.500
  20
4555889.793
  30
-17813.5
  0
VERTEX
  8
PNOA-H_AMS_1956-57_33k_ES_PAN_21mic_H50_0449_fot_52A-25905_E_tif
  70
32
  10
182075.500
  20
4555889.793
  30
-14490.5
  0
VERTEX
  8
PNOA-H_AMS_1956-57_33k_ES_PAN_21mic_H50_0449_fot_52A-25905_E_tif
  70
32
  10
182079.500
  20
4555894.793
  30
-17813.5
  0
VERTEX
  8
PNOA-H_AMS_1956-57_33k_ES_PAN_21mic_H50_0449_fot_52A-25905_E_tif
  70
32
  10
182085.500
  20
4555894.793
  30
-14490.5
  0
VERTEX
  8
PNOA-H_AMS_1956-57_33k_ES_PAN_21mic_H50_0449_fot_52A-25905_E_tif
  70
32
  10
182094.500
  20
4555904.793
  30
-17813.5
  0
VERTEX
  8
PNOA-H_AMS_1956-57_33k_ES_PAN_21mic_H50_0449_fot_52A-25905_E_tif
  70
32
  10
182100.500
  20
4555904.793
  30
-14490.4
  0
VERTEX
  8
PNOA-H_AMS_1956-57_33k_ES_PAN_21mic_H50_0449_fot_52A-25905_E_tif
  70
32
  10
182104.500
  20
4555909.793
  30
-17813.051
  0
VERTEX
  8
PNOA-H_AMS_1956-57_33k_ES_PAN_21mic_H50_0449_fot_52A-25905_E_tif
  70
32
  10
182110.500
  20
4555909.793
  30
-14489.85
  0
VERTEX
  8
PNOA-H_AMS_1956-57_33k_ES_PAN_21mic_H50_0449_fot_52A-25905_E_tif
  70
32
  10
182114.500
  20
4555914.793
  30
-17812.6
  0
VERTEX
  8
PNOA-H_AMS_1956-57_33k_ES_PAN_21mic_H50_0449_fot_52A-25905_E_tif
  70
32
  10
182120.500
  20
4555914.793
  30
-14489.3
  0
VERTEX
  8
PNOA-H_AMS_1956-57_33k_ES_PAN_21mic_H50_0449_fot_52A-25905_E_tif
  70
32
  10
182124.500
  20
4555919.793
  30
-17812.15
  0
VERTEX
  8
PNOA-H_AMS_1956-57_33k_ES_PAN_21mic_H50_0449_fot_52A-25905_E_tif
  70
32
  10
182130.500
  20
4555919.793
  30
-14488.3
  0
VERTEX
  8
PNOA-H_AMS_1956-57_33k_ES_PAN_21mic_H50_0449_fot_52A-25905_E_tif
  70
32
  10
182139.500
  20
4555929.793
  30
-17811.25
  0
VERTEX
  8
PNOA-H_AMS_1956-57_33k_ES_PAN_21mic_H50_0449_fot_52A-25905_E_tif
  70
32
  10
182145.500
  20
4555929.793
  30
-14487.75
  0
VERTEX
  8
PNOA-H_AMS_1956-57_33k_ES_PAN_21mic_H50_0449_fot_52A-25905_E_tif
  70
32
  10
182149.500
  20
4555934.793
  30
-17811.25
  0
VERTEX
  8
PNOA-H_AMS_1956-57_33k_ES_PAN_21mic_H50_0449_fot_52A-25905_E_tif
  70
32
  10
182155.500
  20
4555934.793
  30
-14487.6
  0
VERTEX
  8
PNOA-H_AMS_1956-57_33k_ES_PAN_21mic_H50_0449_fot_52A-25905_E_tif
  70
32
  10
182159.500
  20
4555939.793
  30
-17810.35
  0
VERTEX
  8
PNOA-H_AMS_1956-57_33k_ES_PAN_21mic_H50_0449_fot_52A-25905_E_tif
  70
32
  10
182165.500
  20
4555939.793
  30
-14486.55
  0
VERTEX
  8
PNOA-H_AMS_1956-57_33k_ES_PAN_21mic_H50_0449_fot_52A-25905_E_tif
  70
32
  10
182172.500
  20
4555946.793
  30
-14484.2
  0
VERTEX
  8
PNOA-H_AMS_1956-57_33k_ES_PAN_21mic_H50_0449_fot_52A-25905_E_tif
  70
32
  10
182172.500
  20
4555952.793
  30
-14483.9
  0
VERTEX
  8
PNOA-H_AMS_1956-57_33k_ES_PAN_21mic_H50_0449_fot_52A-25905_E_tif
  70
32
  10
182142.500
  20
4555981.793
  30
-17806.301
  0
VERTEX
  8
PNOA-H_AMS_1956-57_33k_ES_PAN_21mic_H50_0449_fot_52A-25905_E_tif
  70
32
  10
182142.500
  20
4555987.793
  30
-14481.75
  0
VERTEX
  8
PNOA-H_AMS_1956-57_33k_ES_PAN_21mic_H50_0449_fot_52A-25905_E_tif
  70
32
  10
182132.500
  20
4555996.793
  30
-17806.75
  0
VERTEX
  8
PNOA-H_AMS_1956-57_33k_ES_PAN_21mic_H50_0449_fot_52A-25905_E_tif
  70
32
  10
182139.000
  20
4556003.793
  30
-14149.24
  0
VERTEX
  8
PNOA-H_AMS_1956-57_33k_ES_PAN_21mic_H50_0449_fot_52A-25905_E_tif
  70
32
  10
182139.500
  20
4556004.793
  30
-17806.301
  0
SEQEND
  8
PNOA-H_AMS_1956-57_33k_ES_PAN_21mic_H50_0449_fot_52A-25905_E_tif
  0
TEXT
  8
PNOA-H_AMS_1956-57_33k_ES_PAN_21mic_H50_0449_fot_52A-25905_E_tif
 62
0
  1
PNOA-H_AMS_1956-57_33k_ES_PAN_21mic_H50_0449_fot_52A-25905_E.tif
 40
41.85758
  10
182284.994
  20
4555607.043
  0
POLYLINE
  8
PNOA-H_AMS_1956-57_33k_ES_PAN_21mic_H50_0449_fot_000-10295_R_tif
  70
9
  66
1
  0
VERTEX
  8
PNOA-H_AMS_1956-57_33k_ES_PAN_21mic_H50_0449_fot_000-10295_R_tif
  70
32
  10
181137.000
  20
4553459.793
  30
-16195.2
  0
VERTEX
  8
PNOA-H_AMS_1956-57_33k_ES_PAN_21mic_H50_0449_fot_000-10295_R_tif
  70
32
  10
181139.500
  20
4553459.793
  30
-16195.45
  0
VERTEX
  8
PNOA-H_AMS_1956-57_33k_ES_PAN_21mic_H50_0449_fot_000-10295_R_tif
  70
32
  10
181139.000
  20
4553458.293
  30
-6252.44
  0
VERTEX
  8
PNOA-H_AMS_1956-57_33k_ES_PAN_21mic_H50_0449_fot_000-10295_R_tif
  70
32
  10
181137.000
  20
4553457.793
  30
-2937.76
  0
VERTEX
  8
PNOA-H_AMS_1956-57_33k_ES_PAN_21mic_H50_0449_fot_000-10295_R_tif
  70
32
  10
181137.000
  20
4553459.793
  30
-16195.2
  0
SEQEND
  8
PNOA-H_AMS_1956-57_33k_ES_PAN_21mic_H50_0449_fot_000-10295_R_tif
  0
TEXT
  8
PNOA-H_AMS_1956-57_33k_ES_PAN_21mic_H50_0449_fot_000-10295_R_tif
 62
0
  1
PNOA-H_AMS_1956-57_33k_ES_PAN_21mic_H50_0449_fot_000-10295_R.tif
 40
41.85758
  10
181138.083
  20
4553458.793
  0
POLYLINE
  8
PNOA-H_AMS_1956-57_33k_ES_PAN_21mic_H50_0449_fot_54A-29183_W_tif
  70
9
  66
1
  0
VERTEX
  8
PNOA-H_AMS_1956-57_33k_ES_PAN_21mic_H50_0449_fot_54A-29183_W_tif
  70
32
  10
179206.849
  20
4545767.398
  30
466.418
  0
VERTEX
  8
PNOA-H_AMS_1956-57_33k_ES_PAN_21mic_H50_0449_fot_54A-29183_W_tif
  70
32
  10
176388.889
  20
4545891.273
  30
443.512
  0
VERTEX
  8
PNOA-H_AMS_1956-57_33k_ES_PAN_21mic_H50_0449_fot_54A-29183_W_tif
  70
32
  10
176497.000
  20
4547649.793
  30
227.7
  0
VERTEX
  8
PNOA-H_AMS_1956-57_33k_ES_PAN_21mic_H50_0449_fot_54A-29183_W_tif
  70
32
  10
177640.000
  20
4548198.293
  30
498.8
  0
VERTEX
  8
PNOA-H_AMS_1956-57_33k_ES_PAN_21mic_H50_0449_fot_54A-29183_W_tif
  70
32
  10
177641.000
  20
4548198.793
  30
498.7
  0
VERTEX
  8
PNOA-H_AMS_1956-57_33k_ES_PAN_21mic_H50_0449_fot_54A-29183_W_tif
  70
32
  10
179279.000
  20
4547548.793
  30
323.96
  0
SEQEND
  8
PNOA-H_AMS_1956-57_33k_ES_PAN_21mic_H50_0449_fot_54A-29183_W_tif
  0
TEXT
  8
PNOA-H_AMS_1956-57_33k_ES_PAN_21mic_H50_0449_fot_54A-29183_W_tif
 62
0
  1
PNOA-H_AMS_1956-57_33k_ES_PAN_21mic_H50_0449_fot_54A-29183_W.tif
 40
41.85758
  10
177819.538
  20
4546267.043
  0
POLYLINE
  8
PNOA-H_AMS_1956-57_33k_ES_PAN_21mic_H50_0449_fot_54A-29182_W_tif
  70
9
  66
1
  0
VERTEX
  8
PNOA-H_AMS_1956-57_33k_ES_PAN_21mic_H50_0449_fot_54A-29182_W_tif
  70
32
  10
182076.087
  20
4545642.585
  30
562.505
  0
VERTEX
  8
PNOA-H_AMS_1956-57_33k_ES_PAN_21mic_H50_0449_fot_54A-29182_W_tif
  70
32
  10
179329.604
  20
4545762.002
  30
466.615
  0
VERTEX
  8
PNOA-H_AMS_1956-57_33k_ES_PAN_21mic_H50_0449_fot_54A-29182_W_tif
  70
32
  10
179207.169
  20
4545767.384
  30
466.58
  0
VERTEX
  8
PNOA-H_AMS_1956-57_33k_ES_PAN_21mic_H50_0449_fot_54A-29182_W_tif
  70
32
  10
179279.000
  20
4547548.793
  30
323.96
  0
VERTEX
  8
PNOA-H_AMS_1956-57_33k_ES_PAN_21mic_H50_0449_fot_54A-29182_W_tif
  70
32
  10
179609.000
  20
4547705.793
  30
251.24
  0
VERTEX
  8
PNOA-H_AMS_1956-57_33k_ES_PAN_21mic_H50_0449_fot_54A-29182_W_tif
  70
32
  10
179610.000
  20
4547706.293
  30
251.2
  0
VERTEX
  8
PNOA-H_AMS_1956-57_33k_ES_PAN_21mic_H50_0449_fot_54A-29182_W_tif
  70
32
  10
180511.000
  20
4548134.293
  30
420
  0
VERTEX
  8
PNOA-H_AMS_1956-57_33k_ES_PAN_21mic_H50_0449_fot_54A-29182_W_tif
  70
32
  10
182156.000
  20
4547451.293
  30
486.8
  0
SEQEND
  8
PNOA-H_AMS_1956-57_33k_ES_PAN_21mic_H50_0449_fot_54A-29182_W_tif
  0
TEXT
  8
PNOA-H_AMS_1956-57_33k_ES_PAN_21mic_H50_0449_fot_54A-29182_W_tif
 62
0
  1
PNOA-H_AMS_1956-57_33k_ES_PAN_21mic_H50_0449_fot_54A-29182_W.tif
 40
41.85758
  10
180660.965
  20
4546159.793
  0
POLYLINE
  8
PNOA-H_AMS_1956-57_33k_ES_PAN_21mic_H50_0449_fot_50A-08770_E_tif
  70
9
  66
1
  0
VERTEX
  8
PNOA-H_AMS_1956-57_33k_ES_PAN_21mic_H50_0449_fot_50A-08770_E_tif
  70
32
  10
182007.500
  20
4559897.293
  30
-16113
  0
VERTEX
  8
PNOA-H_AMS_1956-57_33k_ES_PAN_21mic_H50_0449_fot_50A-08770_E_tif
  70
32
  10
182012.000
  20
4559894.793
  30
540.3
  0
VERTEX
  8
PNOA-H_AMS_1956-57_33k_ES_PAN_21mic_H50_0449_fot_50A-08770_E_tif
  70
32
  10
182011.000
  20
4558652.293
  30
470
  0
VERTEX
  8
PNOA-H_AMS_1956-57_33k_ES_PAN_21mic_H50_0449_fot_50A-08770_E_tif
  70
32
  10
182008.500
  20
4558648.793
  30
-9500.61
  0
VERTEX
  8
PNOA-H_AMS_1956-57_33k_ES_PAN_21mic_H50_0449_fot_50A-08770_E_tif
  70
32
  10
182008.500
  20
4558002.793
  30
-9483.53
  0
VERTEX
  8
PNOA-H_AMS_1956-57_33k_ES_PAN_21mic_H50_0449_fot_50A-08770_E_tif
  70
32
  10
182007.500
  20
4558002.293
  30
-16136
  0
VERTEX
  8
PNOA-H_AMS_1956-57_33k_ES_PAN_21mic_H50_0449_fot_50A-08770_E_tif
  70
32
  10
182007.500
  20
4559897.293
  30
-16113
  0
SEQEND
  8
PNOA-H_AMS_1956-57_33k_ES_PAN_21mic_H50_0449_fot_50A-08770_E_tif
  0
TEXT
  8
PNOA-H_AMS_1956-57_33k_ES_PAN_21mic_H50_0449_fot_50A-08770_E_tif
 62
0
  1
PNOA-H_AMS_1956-57_33k_ES_PAN_21mic_H50_0449_fot_50A-08770_E.tif
 40
41.85758
  10
182009.370
  20
4558949.793
  0
POLYLINE
  8
PNOA-H_AMS_1956-57_33k_ES_PAN_21mic_H50_0449_fot_52A-25905_E_tif
  70
9
  66
1
  0
VERTEX
  8
PNOA-H_AMS_1956-57_33k_ES_PAN_21mic_H50_0449_fot_52A-25905_E_tif
  70
32
  10
182011.500
  20
4558003.293
  30
495.14
  0
VERTEX
  8
PNOA-H_AMS_1956-57_33k_ES_PAN_21mic_H50_0449_fot_52A-25905_E_tif
  70
32
  10
182013.000
  20
4558003.293
  30
495.08
  0
VERTEX
  8
PNOA-H_AMS_1956-57_33k_ES_PAN_21mic_H50_0449_fot_52A-25905_E_tif
  70
32
  10
182016.000
  20
4558000.293
  30
494.6
  0
VERTEX
  8
PNOA-H_AMS_1956-57_33k_ES_PAN_21mic_H50_0449_fot_52A-25905_E_tif
  70
32
  10
182014.500
  20
4557994.793
  30
-16136.5
  0
VERTEX
  8
PNOA-H_AMS_1956-57_33k_ES_PAN_21mic_H50_0449_fot_52A-25905_E_tif
  70
32
  10
182009.500
  20
4557994.793
  30
-17799.551
  0
VERTEX
  8
PNOA-H_AMS_1956-57_33k_ES_PAN_21mic_H50_0449_fot_52A-25905_E_tif
  70
32
  10
182007.500
  20
4557996.793
  30
-17799.551
  0
VERTEX
  8
PNOA-H_AMS_1956-57_33k_ES_PAN_21mic_H50_0449_fot_52A-25905_E_tif
  70
32
  10
182007.500
  20
4558001.793
  30
-16136.05
  0
VERTEX
  8
PNOA-H_AMS_1956-57_33k_ES_PAN_21mic_H50_0449_fot_52A-25905_E_tif
  70
32
  10
182009.500
  20
4558002.793
  30
-2831.11
  0
VERTEX
  8
PNOA-H_AMS_1956-57_33k_ES_PAN_21mic_H50_0449_fot_52A-25905_E_tif
  70
32
  10
182011.500
  20
4558003.293
  30
495.14
  0
SEQEND
  8
PNOA-H_AMS_1956-57_33k_ES_PAN_21mic_H50_0449_fot_52A-25905_E_tif
  0
TEXT
  8
PNOA-H_AMS_1956-57_33k_ES_PAN_21mic_H50_0449_fot_52A-25905_E_tif
 62
0
  1
PNOA-H_AMS_1956-57_33k_ES_PAN_21mic_H50_0449_fot_52A-25905_E.tif
 40
41.85758
  10
182011.580
  20
4557999.043
  0
ENDSEC
  0
EOF
