  0
SECTION
  2
HEADER
  9
$ACADVER
  1
AC1009
  9
$LUNITS
  70
2
  9
$LIMMIN
  10
232584.138
  20
4561186.464
  9
$LIMMAX
  10
261160.814
  20
4580664.190
  9
$EXTMIN
  10
232584.138
  20
4561186.464
  9
$EXTMAX
  10
261160.814
  20
4580664.190
  999
Created by Global Mapper
  999
Projection: UTM
  999
Datum: ETRS89
  999
Ground Units: meters
  999
ZONE: 30
  0
ENDSEC
  0
SECTION
  2
TABLES
  0
ENDSEC
  0
SECTION
  2
BLOCKS
  0
ENDSEC
  0
SECTION
  2
ENTITIES
  0
POLYLINE
  8
PNOA-H_AMS_1956-57_33k_ES_PAN_21mic_H50_0424_fot_47A-06509_E_tif
  70
9
  66
1
  0
VERTEX
  8
PNOA-H_AMS_1956-57_33k_ES_PAN_21mic_H50_0424_fot_47A-06509_E_tif
  70
32
  10
233130.164
  20
4577033.084
  30
749.198
  0
VERTEX
  8
PNOA-H_AMS_1956-57_33k_ES_PAN_21mic_H50_0424_fot_47A-06509_E_tif
  70
32
  10
234332.500
  20
4576695.793
  30
773
  0
VERTEX
  8
PNOA-H_AMS_1956-57_33k_ES_PAN_21mic_H50_0424_fot_47A-06509_E_tif
  70
32
  10
234228.500
  20
4572251.293
  30
772
  0
VERTEX
  8
PNOA-H_AMS_1956-57_33k_ES_PAN_21mic_H50_0424_fot_47A-06509_E_tif
  70
32
  10
232941.537
  20
4571898.911
  30
767.404
  0
VERTEX
  8
PNOA-H_AMS_1956-57_33k_ES_PAN_21mic_H50_0424_fot_47A-06509_E_tif
  70
32
  10
233008.579
  20
4573724.334
  30
772.325
  0
VERTEX
  8
PNOA-H_AMS_1956-57_33k_ES_PAN_21mic_H50_0424_fot_47A-06509_E_tif
  70
32
  10
233093.573
  20
4576037.613
  30
753.651
  0
SEQEND
  8
PNOA-H_AMS_1956-57_33k_ES_PAN_21mic_H50_0424_fot_47A-06509_E_tif
  0
TEXT
  8
PNOA-H_AMS_1956-57_33k_ES_PAN_21mic_H50_0424_fot_47A-06509_E_tif
 62
0
  1
PNOA-H_AMS_1956-57_33k_ES_PAN_21mic_H50_0424_fot_47A-06509_E.tif
 40
41.50002
  10
233637.018
  20
4574465.997
  0
POLYLINE
  8
PNOA-H_AMS_1956-57_33k_ES_PAN_21mic_H50_0424_fot_46A-10309_E_tif
  70
9
  66
1
  0
VERTEX
  8
PNOA-H_AMS_1956-57_33k_ES_PAN_21mic_H50_0424_fot_46A-10309_E_tif
  70
32
  10
235803.899
  20
4580571.372
  30
781.074
  0
VERTEX
  8
PNOA-H_AMS_1956-57_33k_ES_PAN_21mic_H50_0424_fot_46A-10309_E_tif
  70
32
  10
235668.500
  20
4577789.293
  30
782
  0
VERTEX
  8
PNOA-H_AMS_1956-57_33k_ES_PAN_21mic_H50_0424_fot_46A-10309_E_tif
  70
32
  10
235668.500
  20
4577781.793
  30
781.97
  0
VERTEX
  8
PNOA-H_AMS_1956-57_33k_ES_PAN_21mic_H50_0424_fot_46A-10309_E_tif
  70
32
  10
235634.000
  20
4577071.293
  30
784.8
  0
VERTEX
  8
PNOA-H_AMS_1956-57_33k_ES_PAN_21mic_H50_0424_fot_46A-10309_E_tif
  70
32
  10
234334.000
  20
4576695.793
  30
773
  0
VERTEX
  8
PNOA-H_AMS_1956-57_33k_ES_PAN_21mic_H50_0424_fot_46A-10309_E_tif
  70
32
  10
234307.500
  20
4576702.293
  30
772
  0
VERTEX
  8
PNOA-H_AMS_1956-57_33k_ES_PAN_21mic_H50_0424_fot_46A-10309_E_tif
  70
32
  10
233130.153
  20
4577032.801
  30
745.829
  0
VERTEX
  8
PNOA-H_AMS_1956-57_33k_ES_PAN_21mic_H50_0424_fot_46A-10309_E_tif
  70
32
  10
233178.603
  20
4578350.899
  30
749.49
  0
VERTEX
  8
PNOA-H_AMS_1956-57_33k_ES_PAN_21mic_H50_0424_fot_46A-10309_E_tif
  70
32
  10
233263.668
  20
4580664.190
  30
782.774
  0
SEQEND
  8
PNOA-H_AMS_1956-57_33k_ES_PAN_21mic_H50_0424_fot_46A-10309_E_tif
  0
TEXT
  8
PNOA-H_AMS_1956-57_33k_ES_PAN_21mic_H50_0424_fot_46A-10309_E_tif
 62
0
  1
PNOA-H_AMS_1956-57_33k_ES_PAN_21mic_H50_0424_fot_46A-10309_E.tif
 40
41.50002
  10
234251.083
  20
4578862.897
  0
POLYLINE
  8
PNOA-H_AMS_1956-57_33k_ES_PAN_21mic_H50_0424_fot_48A-10196_E_tif
  70
9
  66
1
  0
VERTEX
  8
PNOA-H_AMS_1956-57_33k_ES_PAN_21mic_H50_0424_fot_48A-10196_E_tif
  70
32
  10
232941.546
  20
4571899.163
  30
767.407
  0
VERTEX
  8
PNOA-H_AMS_1956-57_33k_ES_PAN_21mic_H50_0424_fot_48A-10196_E_tif
  70
32
  10
234229.500
  20
4572251.293
  30
772
  0
VERTEX
  8
PNOA-H_AMS_1956-57_33k_ES_PAN_21mic_H50_0424_fot_48A-10196_E_tif
  70
32
  10
235469.000
  20
4571853.293
  30
780
  0
VERTEX
  8
PNOA-H_AMS_1956-57_33k_ES_PAN_21mic_H50_0424_fot_48A-10196_E_tif
  70
32
  10
235398.000
  20
4569597.293
  30
761.6
  0
VERTEX
  8
PNOA-H_AMS_1956-57_33k_ES_PAN_21mic_H50_0424_fot_48A-10196_E_tif
  70
32
  10
235398.000
  20
4569589.793
  30
761
  0
VERTEX
  8
PNOA-H_AMS_1956-57_33k_ES_PAN_21mic_H50_0424_fot_48A-10196_E_tif
  70
32
  10
235332.500
  20
4567495.793
  30
761.7
  0
VERTEX
  8
PNOA-H_AMS_1956-57_33k_ES_PAN_21mic_H50_0424_fot_48A-10196_E_tif
  70
32
  10
234981.000
  20
4567330.793
  30
765.14
  0
VERTEX
  8
PNOA-H_AMS_1956-57_33k_ES_PAN_21mic_H50_0424_fot_48A-10196_E_tif
  70
32
  10
234974.500
  20
4567327.793
  30
766
  0
VERTEX
  8
PNOA-H_AMS_1956-57_33k_ES_PAN_21mic_H50_0424_fot_48A-10196_E_tif
  70
32
  10
234971.000
  20
4567327.793
  30
766.7
  0
VERTEX
  8
PNOA-H_AMS_1956-57_33k_ES_PAN_21mic_H50_0424_fot_48A-10196_E_tif
  70
32
  10
232784.477
  20
4567620.270
  30
734.067
  0
VERTEX
  8
PNOA-H_AMS_1956-57_33k_ES_PAN_21mic_H50_0424_fot_48A-10196_E_tif
  70
32
  10
232838.696
  20
4569097.792
  30
744.151
  0
VERTEX
  8
PNOA-H_AMS_1956-57_33k_ES_PAN_21mic_H50_0424_fot_48A-10196_E_tif
  70
32
  10
232923.620
  20
4571411.060
  30
763.315
  0
SEQEND
  8
PNOA-H_AMS_1956-57_33k_ES_PAN_21mic_H50_0424_fot_48A-10196_E_tif
  0
TEXT
  8
PNOA-H_AMS_1956-57_33k_ES_PAN_21mic_H50_0424_fot_48A-10196_E_tif
 62
0
  1
PNOA-H_AMS_1956-57_33k_ES_PAN_21mic_H50_0424_fot_48A-10196_E.tif
 40
41.50002
  10
234085.198
  20
4569789.543
  0
POLYLINE
  8
PNOA-H_AMS_1956-57_33k_ES_PAN_21mic_H50_0424_fot_49A-10161_W_tif
  70
9
  66
1
  0
VERTEX
  8
PNOA-H_AMS_1956-57_33k_ES_PAN_21mic_H50_0424_fot_49A-10161_W_tif
  70
32
  10
232784.477
  20
4567620.290
  30
734.035
  0
VERTEX
  8
PNOA-H_AMS_1956-57_33k_ES_PAN_21mic_H50_0424_fot_49A-10161_W_tif
  70
32
  10
234973.500
  20
4567327.793
  30
766.2
  0
VERTEX
  8
PNOA-H_AMS_1956-57_33k_ES_PAN_21mic_H50_0424_fot_49A-10161_W_tif
  70
32
  10
234881.000
  20
4563267.293
  30
765.8
  0
VERTEX
  8
PNOA-H_AMS_1956-57_33k_ES_PAN_21mic_H50_0424_fot_49A-10161_W_tif
  70
32
  10
233388.500
  20
4562827.793
  30
758.37
  0
VERTEX
  8
PNOA-H_AMS_1956-57_33k_ES_PAN_21mic_H50_0424_fot_49A-10161_W_tif
  70
32
  10
232620.365
  20
4563146.057
  30
756.238
  0
VERTEX
  8
PNOA-H_AMS_1956-57_33k_ES_PAN_21mic_H50_0424_fot_49A-10161_W_tif
  70
32
  10
232668.956
  20
4564471.274
  30
726.286
  0
VERTEX
  8
PNOA-H_AMS_1956-57_33k_ES_PAN_21mic_H50_0424_fot_49A-10161_W_tif
  70
32
  10
232753.808
  20
4566784.530
  30
668.91
  0
SEQEND
  8
PNOA-H_AMS_1956-57_33k_ES_PAN_21mic_H50_0424_fot_49A-10161_W_tif
  0
TEXT
  8
PNOA-H_AMS_1956-57_33k_ES_PAN_21mic_H50_0424_fot_49A-10161_W_tif
 62
0
  1
PNOA-H_AMS_1956-57_33k_ES_PAN_21mic_H50_0424_fot_49A-10161_W.tif
 40
41.50002
  10
233586.338
  20
4565233.293
  0
POLYLINE
  8
PNOA-H_AMS_1956-57_33k_ES_PAN_21mic_H50_0450_fot_50A-08786_E_tif
  70
9
  66
1
  0
VERTEX
  8
PNOA-H_AMS_1956-57_33k_ES_PAN_21mic_H50_0450_fot_50A-08786_E_tif
  70
32
  10
233372.038
  20
4562129.330
  30
763.885
  0
VERTEX
  8
PNOA-H_AMS_1956-57_33k_ES_PAN_21mic_H50_0450_fot_50A-08786_E_tif
  70
32
  10
232584.138
  20
4562158.024
  30
763.808
  0
VERTEX
  8
PNOA-H_AMS_1956-57_33k_ES_PAN_21mic_H50_0450_fot_50A-08786_E_tif
  70
32
  10
232620.380
  20
4563146.443
  30
756.204
  0
VERTEX
  8
PNOA-H_AMS_1956-57_33k_ES_PAN_21mic_H50_0450_fot_50A-08786_E_tif
  70
32
  10
233389.000
  20
4562827.793
  30
758.28
  0
SEQEND
  8
PNOA-H_AMS_1956-57_33k_ES_PAN_21mic_H50_0450_fot_50A-08786_E_tif
  0
TEXT
  8
PNOA-H_AMS_1956-57_33k_ES_PAN_21mic_H50_0450_fot_50A-08786_E_tif
 62
0
  1
PNOA-H_AMS_1956-57_33k_ES_PAN_21mic_H50_0450_fot_50A-08786_E.tif
 40
41.50002
  10
232986.569
  20
4562637.887
  0
POLYLINE
  8
PNOA-H_AMS_1956-57_33k_ES_PAN_21mic_H50_0424_fot_47A-06511_E_tif
  70
9
  66
1
  0
VERTEX
  8
PNOA-H_AMS_1956-57_33k_ES_PAN_21mic_H50_0424_fot_47A-06511_E_tif
  70
32
  10
239002.500
  20
4576804.793
  30
810
  0
VERTEX
  8
PNOA-H_AMS_1956-57_33k_ES_PAN_21mic_H50_0424_fot_47A-06511_E_tif
  70
32
  10
239850.500
  20
4576513.793
  30
806
  0
VERTEX
  8
PNOA-H_AMS_1956-57_33k_ES_PAN_21mic_H50_0424_fot_47A-06511_E_tif
  70
32
  10
239826.500
  20
4572126.793
  30
792
  0
VERTEX
  8
PNOA-H_AMS_1956-57_33k_ES_PAN_21mic_H50_0424_fot_47A-06511_E_tif
  70
32
  10
237987.000
  20
4571799.793
  30
771.7
  0
VERTEX
  8
PNOA-H_AMS_1956-57_33k_ES_PAN_21mic_H50_0424_fot_47A-06511_E_tif
  70
32
  10
237049.000
  20
4572159.793
  30
782.6
  0
VERTEX
  8
PNOA-H_AMS_1956-57_33k_ES_PAN_21mic_H50_0424_fot_47A-06511_E_tif
  70
32
  10
237095.500
  20
4576605.793
  30
797.3
  0
VERTEX
  8
PNOA-H_AMS_1956-57_33k_ES_PAN_21mic_H50_0424_fot_47A-06511_E_tif
  70
32
  10
238534.000
  20
4576965.293
  30
801
  0
VERTEX
  8
PNOA-H_AMS_1956-57_33k_ES_PAN_21mic_H50_0424_fot_47A-06511_E_tif
  70
32
  10
239001.500
  20
4576804.793
  30
810
  0
VERTEX
  8
PNOA-H_AMS_1956-57_33k_ES_PAN_21mic_H50_0424_fot_47A-06511_E_tif
  70
32
  10
239002.500
  20
4576804.793
  30
810
  0
SEQEND
  8
PNOA-H_AMS_1956-57_33k_ES_PAN_21mic_H50_0424_fot_47A-06511_E_tif
  0
TEXT
  8
PNOA-H_AMS_1956-57_33k_ES_PAN_21mic_H50_0424_fot_47A-06511_E_tif
 62
0
  1
PNOA-H_AMS_1956-57_33k_ES_PAN_21mic_H50_0424_fot_47A-06511_E.tif
 40
41.50002
  10
238455.544
  20
4574382.543
  0
POLYLINE
  8
PNOA-H_AMS_1956-57_33k_ES_PAN_21mic_H50_0424_fot_47A-06512_E_tif
  70
9
  66
1
  0
VERTEX
  8
PNOA-H_AMS_1956-57_33k_ES_PAN_21mic_H50_0424_fot_47A-06512_E_tif
  70
32
  10
241384.500
  20
4576886.793
  30
810
  0
VERTEX
  8
PNOA-H_AMS_1956-57_33k_ES_PAN_21mic_H50_0424_fot_47A-06512_E_tif
  70
32
  10
241398.500
  20
4576882.293
  30
810
  0
VERTEX
  8
PNOA-H_AMS_1956-57_33k_ES_PAN_21mic_H50_0424_fot_47A-06512_E_tif
  70
32
  10
242624.500
  20
4576403.793
  30
807
  0
VERTEX
  8
PNOA-H_AMS_1956-57_33k_ES_PAN_21mic_H50_0424_fot_47A-06512_E_tif
  70
32
  10
242497.500
  20
4572084.793
  30
817
  0
VERTEX
  8
PNOA-H_AMS_1956-57_33k_ES_PAN_21mic_H50_0424_fot_47A-06512_E_tif
  70
32
  10
242497.000
  20
4572071.293
  30
817
  0
VERTEX
  8
PNOA-H_AMS_1956-57_33k_ES_PAN_21mic_H50_0424_fot_47A-06512_E_tif
  70
32
  10
242495.500
  20
4572070.793
  30
817
  0
VERTEX
  8
PNOA-H_AMS_1956-57_33k_ES_PAN_21mic_H50_0424_fot_47A-06512_E_tif
  70
32
  10
240782.000
  20
4571755.293
  30
775.24
  0
VERTEX
  8
PNOA-H_AMS_1956-57_33k_ES_PAN_21mic_H50_0424_fot_47A-06512_E_tif
  70
32
  10
240758.500
  20
4571751.793
  30
778.2
  0
VERTEX
  8
PNOA-H_AMS_1956-57_33k_ES_PAN_21mic_H50_0424_fot_47A-06512_E_tif
  70
32
  10
239826.500
  20
4572126.293
  30
792
  0
VERTEX
  8
PNOA-H_AMS_1956-57_33k_ES_PAN_21mic_H50_0424_fot_47A-06512_E_tif
  70
32
  10
239850.500
  20
4576513.793
  30
806
  0
VERTEX
  8
PNOA-H_AMS_1956-57_33k_ES_PAN_21mic_H50_0424_fot_47A-06512_E_tif
  70
32
  10
241382.500
  20
4576886.293
  30
810
  0
VERTEX
  8
PNOA-H_AMS_1956-57_33k_ES_PAN_21mic_H50_0424_fot_47A-06512_E_tif
  70
32
  10
241384.500
  20
4576886.793
  30
810
  0
SEQEND
  8
PNOA-H_AMS_1956-57_33k_ES_PAN_21mic_H50_0424_fot_47A-06512_E_tif
  0
TEXT
  8
PNOA-H_AMS_1956-57_33k_ES_PAN_21mic_H50_0424_fot_47A-06512_E_tif
 62
0
  1
PNOA-H_AMS_1956-57_33k_ES_PAN_21mic_H50_0424_fot_47A-06512_E.tif
 40
41.50002
  10
241200.851
  20
4574319.293
  0
POLYLINE
  8
PNOA-H_AMS_1956-57_33k_ES_PAN_21mic_H50_0424_fot_47A-06510_E_tif
  70
9
  66
1
  0
VERTEX
  8
PNOA-H_AMS_1956-57_33k_ES_PAN_21mic_H50_0424_fot_47A-06510_E_tif
  70
32
  10
234905.500
  20
4576861.293
  30
780
  0
VERTEX
  8
PNOA-H_AMS_1956-57_33k_ES_PAN_21mic_H50_0424_fot_47A-06510_E_tif
  70
32
  10
235635.000
  20
4577071.293
  30
784.8
  0
VERTEX
  8
PNOA-H_AMS_1956-57_33k_ES_PAN_21mic_H50_0424_fot_47A-06510_E_tif
  70
32
  10
237095.500
  20
4576605.793
  30
797.3
  0
VERTEX
  8
PNOA-H_AMS_1956-57_33k_ES_PAN_21mic_H50_0424_fot_47A-06510_E_tif
  70
32
  10
237049.000
  20
4572159.793
  30
782.6
  0
VERTEX
  8
PNOA-H_AMS_1956-57_33k_ES_PAN_21mic_H50_0424_fot_47A-06510_E_tif
  70
32
  10
235468.000
  20
4571853.293
  30
780
  0
VERTEX
  8
PNOA-H_AMS_1956-57_33k_ES_PAN_21mic_H50_0424_fot_47A-06510_E_tif
  70
32
  10
234228.500
  20
4572251.293
  30
772
  0
VERTEX
  8
PNOA-H_AMS_1956-57_33k_ES_PAN_21mic_H50_0424_fot_47A-06510_E_tif
  70
32
  10
234332.500
  20
4576695.793
  30
773
  0
VERTEX
  8
PNOA-H_AMS_1956-57_33k_ES_PAN_21mic_H50_0424_fot_47A-06510_E_tif
  70
32
  10
234904.000
  20
4576860.793
  30
780.2
  0
VERTEX
  8
PNOA-H_AMS_1956-57_33k_ES_PAN_21mic_H50_0424_fot_47A-06510_E_tif
  70
32
  10
234905.500
  20
4576861.293
  30
780
  0
SEQEND
  8
PNOA-H_AMS_1956-57_33k_ES_PAN_21mic_H50_0424_fot_47A-06510_E_tif
  0
TEXT
  8
PNOA-H_AMS_1956-57_33k_ES_PAN_21mic_H50_0424_fot_47A-06510_E_tif
 62
0
  1
PNOA-H_AMS_1956-57_33k_ES_PAN_21mic_H50_0424_fot_47A-06510_E.tif
 40
41.50002
  10
235676.659
  20
4574462.293
  0
POLYLINE
  8
PNOA-H_AMS_1956-57_33k_ES_PAN_21mic_H50_0424_fot_46A-10310_E_tif
  70
9
  66
1
  0
VERTEX
  8
PNOA-H_AMS_1956-57_33k_ES_PAN_21mic_H50_0424_fot_46A-10310_E_tif
  70
32
  10
238725.546
  20
4580465.569
  30
784.109
  0
VERTEX
  8
PNOA-H_AMS_1956-57_33k_ES_PAN_21mic_H50_0424_fot_46A-10310_E_tif
  70
32
  10
238534.500
  20
4576965.293
  30
801
  0
VERTEX
  8
PNOA-H_AMS_1956-57_33k_ES_PAN_21mic_H50_0424_fot_46A-10310_E_tif
  70
32
  10
237096.500
  20
4576605.793
  30
797.3
  0
VERTEX
  8
PNOA-H_AMS_1956-57_33k_ES_PAN_21mic_H50_0424_fot_46A-10310_E_tif
  70
32
  10
235634.000
  20
4577071.293
  30
784.8
  0
VERTEX
  8
PNOA-H_AMS_1956-57_33k_ES_PAN_21mic_H50_0424_fot_46A-10310_E_tif
  70
32
  10
235803.991
  20
4580571.368
  30
781.323
  0
VERTEX
  8
PNOA-H_AMS_1956-57_33k_ES_PAN_21mic_H50_0424_fot_46A-10310_E_tif
  70
32
  10
236750.872
  20
4580536.770
  30
781.61
  0
SEQEND
  8
PNOA-H_AMS_1956-57_33k_ES_PAN_21mic_H50_0424_fot_46A-10310_E_tif
  0
TEXT
  8
PNOA-H_AMS_1956-57_33k_ES_PAN_21mic_H50_0424_fot_46A-10310_E_tif
 62
0
  1
PNOA-H_AMS_1956-57_33k_ES_PAN_21mic_H50_0424_fot_46A-10310_E.tif
 40
41.50002
  10
237170.518
  20
4578687.897
  0
POLYLINE
  8
PNOA-H_AMS_1956-57_33k_ES_PAN_21mic_H50_0424_fot_46A-10311_E_tif
  70
9
  66
1
  0
VERTEX
  8
PNOA-H_AMS_1956-57_33k_ES_PAN_21mic_H50_0424_fot_46A-10311_E_tif
  70
32
  10
241630.371
  20
4580361.499
  30
796.387
  0
VERTEX
  8
PNOA-H_AMS_1956-57_33k_ES_PAN_21mic_H50_0424_fot_46A-10311_E_tif
  70
32
  10
241386.000
  20
4576886.793
  30
810
  0
VERTEX
  8
PNOA-H_AMS_1956-57_33k_ES_PAN_21mic_H50_0424_fot_46A-10311_E_tif
  70
32
  10
239859.000
  20
4576515.293
  30
806
  0
VERTEX
  8
PNOA-H_AMS_1956-57_33k_ES_PAN_21mic_H50_0424_fot_46A-10311_E_tif
  70
32
  10
239849.500
  20
4576513.793
  30
806
  0
VERTEX
  8
PNOA-H_AMS_1956-57_33k_ES_PAN_21mic_H50_0424_fot_46A-10311_E_tif
  70
32
  10
238534.500
  20
4576965.293
  30
801
  0
VERTEX
  8
PNOA-H_AMS_1956-57_33k_ES_PAN_21mic_H50_0424_fot_46A-10311_E_tif
  70
32
  10
238725.546
  20
4580465.569
  30
784.109
  0
VERTEX
  8
PNOA-H_AMS_1956-57_33k_ES_PAN_21mic_H50_0424_fot_46A-10311_E_tif
  70
32
  10
240238.059
  20
4580411.032
  30
792.014
  0
SEQEND
  8
PNOA-H_AMS_1956-57_33k_ES_PAN_21mic_H50_0424_fot_46A-10311_E_tif
  0
TEXT
  8
PNOA-H_AMS_1956-57_33k_ES_PAN_21mic_H50_0424_fot_46A-10311_E_tif
 62
0
  1
PNOA-H_AMS_1956-57_33k_ES_PAN_21mic_H50_0424_fot_46A-10311_E.tif
 40
41.50002
  10
240067.722
  20
4578641.897
  0
POLYLINE
  8
PNOA-H_AMS_1956-57_33k_ES_PAN_21mic_H50_0424_fot_48A-10197_E_tif
  70
9
  66
1
  0
VERTEX
  8
PNOA-H_AMS_1956-57_33k_ES_PAN_21mic_H50_0424_fot_48A-10197_E_tif
  70
32
  10
236954.000
  20
4572141.793
  30
783
  0
VERTEX
  8
PNOA-H_AMS_1956-57_33k_ES_PAN_21mic_H50_0424_fot_48A-10197_E_tif
  70
32
  10
237050.000
  20
4572159.793
  30
782.5
  0
VERTEX
  8
PNOA-H_AMS_1956-57_33k_ES_PAN_21mic_H50_0424_fot_48A-10197_E_tif
  70
32
  10
237986.000
  20
4571799.793
  30
771.6
  0
VERTEX
  8
PNOA-H_AMS_1956-57_33k_ES_PAN_21mic_H50_0424_fot_48A-10197_E_tif
  70
32
  10
237941.000
  20
4567431.293
  30
721
  0
VERTEX
  8
PNOA-H_AMS_1956-57_33k_ES_PAN_21mic_H50_0424_fot_48A-10197_E_tif
  70
32
  10
237940.000
  20
4567423.793
  30
721
  0
VERTEX
  8
PNOA-H_AMS_1956-57_33k_ES_PAN_21mic_H50_0424_fot_48A-10197_E_tif
  70
32
  10
237709.000
  20
4567300.293
  30
725.6
  0
VERTEX
  8
PNOA-H_AMS_1956-57_33k_ES_PAN_21mic_H50_0424_fot_48A-10197_E_tif
  70
32
  10
235332.500
  20
4567495.793
  30
761.7
  0
VERTEX
  8
PNOA-H_AMS_1956-57_33k_ES_PAN_21mic_H50_0424_fot_48A-10197_E_tif
  70
32
  10
235469.000
  20
4571853.293
  30
780
  0
VERTEX
  8
PNOA-H_AMS_1956-57_33k_ES_PAN_21mic_H50_0424_fot_48A-10197_E_tif
  70
32
  10
236951.500
  20
4572141.293
  30
783
  0
VERTEX
  8
PNOA-H_AMS_1956-57_33k_ES_PAN_21mic_H50_0424_fot_48A-10197_E_tif
  70
32
  10
236954.000
  20
4572141.793
  30
783
  0
SEQEND
  8
PNOA-H_AMS_1956-57_33k_ES_PAN_21mic_H50_0424_fot_48A-10197_E_tif
  0
TEXT
  8
PNOA-H_AMS_1956-57_33k_ES_PAN_21mic_H50_0424_fot_48A-10197_E_tif
 62
0
  1
PNOA-H_AMS_1956-57_33k_ES_PAN_21mic_H50_0424_fot_48A-10197_E.tif
 40
41.50002
  10
236683.584
  20
4569730.043
  0
POLYLINE
  8
PNOA-H_AMS_1956-57_33k_ES_PAN_21mic_H50_0424_fot_48A-10198_E_tif
  70
9
  66
1
  0
VERTEX
  8
PNOA-H_AMS_1956-57_33k_ES_PAN_21mic_H50_0424_fot_48A-10198_E_tif
  70
32
  10
239001.000
  20
4571980.293
  30
794.4
  0
VERTEX
  8
PNOA-H_AMS_1956-57_33k_ES_PAN_21mic_H50_0424_fot_48A-10198_E_tif
  70
32
  10
239826.500
  20
4572126.793
  30
792
  0
VERTEX
  8
PNOA-H_AMS_1956-57_33k_ES_PAN_21mic_H50_0424_fot_48A-10198_E_tif
  70
32
  10
240760.000
  20
4571751.793
  30
777.9
  0
VERTEX
  8
PNOA-H_AMS_1956-57_33k_ES_PAN_21mic_H50_0424_fot_48A-10198_E_tif
  70
32
  10
240662.000
  20
4567391.793
  30
803
  0
VERTEX
  8
PNOA-H_AMS_1956-57_33k_ES_PAN_21mic_H50_0424_fot_48A-10198_E_tif
  70
32
  10
240421.000
  20
4567260.293
  30
799
  0
VERTEX
  8
PNOA-H_AMS_1956-57_33k_ES_PAN_21mic_H50_0424_fot_48A-10198_E_tif
  70
32
  10
237940.500
  20
4567424.293
  30
721
  0
VERTEX
  8
PNOA-H_AMS_1956-57_33k_ES_PAN_21mic_H50_0424_fot_48A-10198_E_tif
  70
32
  10
237986.000
  20
4571799.793
  30
771.6
  0
VERTEX
  8
PNOA-H_AMS_1956-57_33k_ES_PAN_21mic_H50_0424_fot_48A-10198_E_tif
  70
32
  10
238998.000
  20
4571979.793
  30
794.3
  0
VERTEX
  8
PNOA-H_AMS_1956-57_33k_ES_PAN_21mic_H50_0424_fot_48A-10198_E_tif
  70
32
  10
239001.000
  20
4571980.293
  30
794.4
  0
SEQEND
  8
PNOA-H_AMS_1956-57_33k_ES_PAN_21mic_H50_0424_fot_48A-10198_E_tif
  0
TEXT
  8
PNOA-H_AMS_1956-57_33k_ES_PAN_21mic_H50_0424_fot_48A-10198_E_tif
 62
0
  1
PNOA-H_AMS_1956-57_33k_ES_PAN_21mic_H50_0424_fot_48A-10198_E.tif
 40
41.50002
  10
239338.917
  20
4569693.543
  0
POLYLINE
  8
PNOA-H_AMS_1956-57_33k_ES_PAN_21mic_H50_0424_fot_49A-10159_W_tif
  70
9
  66
1
  0
VERTEX
  8
PNOA-H_AMS_1956-57_33k_ES_PAN_21mic_H50_0424_fot_49A-10159_W_tif
  70
32
  10
239002.500
  20
4567354.293
  30
792.5
  0
VERTEX
  8
PNOA-H_AMS_1956-57_33k_ES_PAN_21mic_H50_0424_fot_49A-10159_W_tif
  70
32
  10
240420.500
  20
4567260.293
  30
799
  0
VERTEX
  8
PNOA-H_AMS_1956-57_33k_ES_PAN_21mic_H50_0424_fot_49A-10159_W_tif
  70
32
  10
240344.000
  20
4563118.793
  30
711.14
  0
VERTEX
  8
PNOA-H_AMS_1956-57_33k_ES_PAN_21mic_H50_0424_fot_49A-10159_W_tif
  70
32
  10
239381.500
  20
4562720.793
  30
737
  0
VERTEX
  8
PNOA-H_AMS_1956-57_33k_ES_PAN_21mic_H50_0424_fot_49A-10159_W_tif
  70
32
  10
237569.000
  20
4563204.793
  30
736.9
  0
VERTEX
  8
PNOA-H_AMS_1956-57_33k_ES_PAN_21mic_H50_0424_fot_49A-10159_W_tif
  70
32
  10
237708.000
  20
4567300.293
  30
725.8
  0
VERTEX
  8
PNOA-H_AMS_1956-57_33k_ES_PAN_21mic_H50_0424_fot_49A-10159_W_tif
  70
32
  10
237940.000
  20
4567424.293
  30
721
  0
VERTEX
  8
PNOA-H_AMS_1956-57_33k_ES_PAN_21mic_H50_0424_fot_49A-10159_W_tif
  70
32
  10
238997.500
  20
4567354.293
  30
792
  0
VERTEX
  8
PNOA-H_AMS_1956-57_33k_ES_PAN_21mic_H50_0424_fot_49A-10159_W_tif
  70
32
  10
239002.500
  20
4567354.293
  30
792.5
  0
SEQEND
  8
PNOA-H_AMS_1956-57_33k_ES_PAN_21mic_H50_0424_fot_49A-10159_W_tif
  0
TEXT
  8
PNOA-H_AMS_1956-57_33k_ES_PAN_21mic_H50_0424_fot_49A-10159_W_tif
 62
0
  1
PNOA-H_AMS_1956-57_33k_ES_PAN_21mic_H50_0424_fot_49A-10159_W.tif
 40
41.50002
  10
239006.240
  20
4565072.543
  0
POLYLINE
  8
PNOA-H_AMS_1956-57_33k_ES_PAN_21mic_H50_0424_fot_49A-10160_W_tif
  70
9
  66
1
  0
VERTEX
  8
PNOA-H_AMS_1956-57_33k_ES_PAN_21mic_H50_0424_fot_49A-10160_W_tif
  70
32
  10
234906.000
  20
4564378.793
  30
769
  0
VERTEX
  8
PNOA-H_AMS_1956-57_33k_ES_PAN_21mic_H50_0424_fot_49A-10160_W_tif
  70
32
  10
234973.500
  20
4567327.793
  30
766.2
  0
VERTEX
  8
PNOA-H_AMS_1956-57_33k_ES_PAN_21mic_H50_0424_fot_49A-10160_W_tif
  70
32
  10
235331.500
  20
4567495.793
  30
761.7
  0
VERTEX
  8
PNOA-H_AMS_1956-57_33k_ES_PAN_21mic_H50_0424_fot_49A-10160_W_tif
  70
32
  10
235338.000
  20
4567495.793
  30
761.28
  0
VERTEX
  8
PNOA-H_AMS_1956-57_33k_ES_PAN_21mic_H50_0424_fot_49A-10160_W_tif
  70
32
  10
237708.000
  20
4567300.293
  30
725.8
  0
VERTEX
  8
PNOA-H_AMS_1956-57_33k_ES_PAN_21mic_H50_0424_fot_49A-10160_W_tif
  70
32
  10
237569.000
  20
4563204.793
  30
736.9
  0
VERTEX
  8
PNOA-H_AMS_1956-57_33k_ES_PAN_21mic_H50_0424_fot_49A-10160_W_tif
  70
32
  10
236409.500
  20
4562783.793
  30
759
  0
VERTEX
  8
PNOA-H_AMS_1956-57_33k_ES_PAN_21mic_H50_0424_fot_49A-10160_W_tif
  70
32
  10
234881.500
  20
4563266.793
  30
765.7
  0
VERTEX
  8
PNOA-H_AMS_1956-57_33k_ES_PAN_21mic_H50_0424_fot_49A-10160_W_tif
  70
32
  10
234881.000
  20
4563284.793
  30
765
  0
VERTEX
  8
PNOA-H_AMS_1956-57_33k_ES_PAN_21mic_H50_0424_fot_49A-10160_W_tif
  70
32
  10
234906.000
  20
4564356.793
  30
769
  0
VERTEX
  8
PNOA-H_AMS_1956-57_33k_ES_PAN_21mic_H50_0424_fot_49A-10160_W_tif
  70
32
  10
234906.000
  20
4564378.793
  30
769
  0
SEQEND
  8
PNOA-H_AMS_1956-57_33k_ES_PAN_21mic_H50_0424_fot_49A-10160_W_tif
  0
TEXT
  8
PNOA-H_AMS_1956-57_33k_ES_PAN_21mic_H50_0424_fot_49A-10160_W_tif
 62
0
  1
PNOA-H_AMS_1956-57_33k_ES_PAN_21mic_H50_0424_fot_49A-10160_W.tif
 40
41.50002
  10
236279.046
  20
4565139.793
  0
POLYLINE
  8
PNOA-H_AMS_1956-57_33k_ES_PAN_21mic_H50_0451_fot_50A-08787_E_tif
  70
9
  66
1
  0
VERTEX
  8
PNOA-H_AMS_1956-57_33k_ES_PAN_21mic_H50_0451_fot_50A-08787_E_tif
  70
32
  10
236395.674
  20
4562019.366
  30
753.773
  0
VERTEX
  8
PNOA-H_AMS_1956-57_33k_ES_PAN_21mic_H50_0451_fot_50A-08787_E_tif
  70
32
  10
236080.247
  20
4562030.702
  30
753.81
  0
VERTEX
  8
PNOA-H_AMS_1956-57_33k_ES_PAN_21mic_H50_0451_fot_50A-08787_E_tif
  70
32
  10
233372.038
  20
4562129.330
  30
763.885
  0
VERTEX
  8
PNOA-H_AMS_1956-57_33k_ES_PAN_21mic_H50_0451_fot_50A-08787_E_tif
  70
32
  10
233389.000
  20
4562827.793
  30
758.28
  0
VERTEX
  8
PNOA-H_AMS_1956-57_33k_ES_PAN_21mic_H50_0451_fot_50A-08787_E_tif
  70
32
  10
234880.000
  20
4563267.293
  30
766
  0
VERTEX
  8
PNOA-H_AMS_1956-57_33k_ES_PAN_21mic_H50_0451_fot_50A-08787_E_tif
  70
32
  10
234905.500
  20
4563259.293
  30
764
  0
VERTEX
  8
PNOA-H_AMS_1956-57_33k_ES_PAN_21mic_H50_0451_fot_50A-08787_E_tif
  70
32
  10
234906.500
  20
4563259.293
  30
764
  0
VERTEX
  8
PNOA-H_AMS_1956-57_33k_ES_PAN_21mic_H50_0451_fot_50A-08787_E_tif
  70
32
  10
236410.000
  20
4562783.793
  30
759
  0
SEQEND
  8
PNOA-H_AMS_1956-57_33k_ES_PAN_21mic_H50_0451_fot_50A-08787_E_tif
  0
TEXT
  8
PNOA-H_AMS_1956-57_33k_ES_PAN_21mic_H50_0451_fot_50A-08787_E_tif
 62
0
  1
PNOA-H_AMS_1956-57_33k_ES_PAN_21mic_H50_0451_fot_50A-08787_E.tif
 40
41.50002
  10
234891.019
  20
4562643.330
  0
POLYLINE
  8
PNOA-H_AMS_1956-57_33k_ES_PAN_21mic_H50_0451_fot_50A-08789_E_tif
  70
9
  66
1
  0
VERTEX
  8
PNOA-H_AMS_1956-57_33k_ES_PAN_21mic_H50_0451_fot_50A-08789_E_tif
  70
32
  10
242310.731
  20
4561808.104
  30
767.074
  0
VERTEX
  8
PNOA-H_AMS_1956-57_33k_ES_PAN_21mic_H50_0451_fot_50A-08789_E_tif
  70
32
  10
239576.337
  20
4561905.060
  30
746.063
  0
VERTEX
  8
PNOA-H_AMS_1956-57_33k_ES_PAN_21mic_H50_0451_fot_50A-08789_E_tif
  70
32
  10
239362.646
  20
4561912.740
  30
746.03
  0
VERTEX
  8
PNOA-H_AMS_1956-57_33k_ES_PAN_21mic_H50_0451_fot_50A-08789_E_tif
  70
32
  10
239380.500
  20
4562720.793
  30
737
  0
VERTEX
  8
PNOA-H_AMS_1956-57_33k_ES_PAN_21mic_H50_0451_fot_50A-08789_E_tif
  70
32
  10
240343.500
  20
4563118.793
  30
711.21
  0
VERTEX
  8
PNOA-H_AMS_1956-57_33k_ES_PAN_21mic_H50_0451_fot_50A-08789_E_tif
  70
32
  10
241047.500
  20
4562966.293
  30
715
  0
VERTEX
  8
PNOA-H_AMS_1956-57_33k_ES_PAN_21mic_H50_0451_fot_50A-08789_E_tif
  70
32
  10
241050.500
  20
4562965.793
  30
715
  0
VERTEX
  8
PNOA-H_AMS_1956-57_33k_ES_PAN_21mic_H50_0451_fot_50A-08789_E_tif
  70
32
  10
242342.500
  20
4562686.793
  30
762
  0
SEQEND
  8
PNOA-H_AMS_1956-57_33k_ES_PAN_21mic_H50_0451_fot_50A-08789_E_tif
  0
TEXT
  8
PNOA-H_AMS_1956-57_33k_ES_PAN_21mic_H50_0451_fot_50A-08789_E_tif
 62
0
  1
PNOA-H_AMS_1956-57_33k_ES_PAN_21mic_H50_0451_fot_50A-08789_E.tif
 40
41.50002
  10
240852.573
  20
4562463.449
  0
POLYLINE
  8
PNOA-H_AMS_1956-57_33k_ES_PAN_21mic_H50_0451_fot_50A-08788_E_tif
  70
9
  66
1
  0
VERTEX
  8
PNOA-H_AMS_1956-57_33k_ES_PAN_21mic_H50_0451_fot_50A-08788_E_tif
  70
32
  10
239362.744
  20
4561912.736
  30
746.032
  0
VERTEX
  8
PNOA-H_AMS_1956-57_33k_ES_PAN_21mic_H50_0451_fot_50A-08788_E_tif
  70
32
  10
236395.664
  20
4562019.367
  30
753.769
  0
VERTEX
  8
PNOA-H_AMS_1956-57_33k_ES_PAN_21mic_H50_0451_fot_50A-08788_E_tif
  70
32
  10
236410.000
  20
4562784.293
  30
759
  0
VERTEX
  8
PNOA-H_AMS_1956-57_33k_ES_PAN_21mic_H50_0451_fot_50A-08788_E_tif
  70
32
  10
236952.500
  20
4562981.293
  30
742.4
  0
VERTEX
  8
PNOA-H_AMS_1956-57_33k_ES_PAN_21mic_H50_0451_fot_50A-08788_E_tif
  70
32
  10
236954.000
  20
4562981.793
  30
742.72
  0
VERTEX
  8
PNOA-H_AMS_1956-57_33k_ES_PAN_21mic_H50_0451_fot_50A-08788_E_tif
  70
32
  10
237565.000
  20
4563203.793
  30
736.7
  0
VERTEX
  8
PNOA-H_AMS_1956-57_33k_ES_PAN_21mic_H50_0451_fot_50A-08788_E_tif
  70
32
  10
237571.000
  20
4563204.793
  30
737.2
  0
VERTEX
  8
PNOA-H_AMS_1956-57_33k_ES_PAN_21mic_H50_0451_fot_50A-08788_E_tif
  70
32
  10
239380.500
  20
4562720.793
  30
737
  0
SEQEND
  8
PNOA-H_AMS_1956-57_33k_ES_PAN_21mic_H50_0451_fot_50A-08788_E_tif
  0
TEXT
  8
PNOA-H_AMS_1956-57_33k_ES_PAN_21mic_H50_0451_fot_50A-08788_E_tif
 62
0
  1
PNOA-H_AMS_1956-57_33k_ES_PAN_21mic_H50_0451_fot_50A-08788_E.tif
 40
41.50002
  10
237888.082
  20
4562558.765
  0
POLYLINE
  8
PNOA-H_AMS_1956-57_33k_ES_PAN_21mic_H50_0424_fot_47A-06514_E_tif
  70
9
  66
1
  0
VERTEX
  8
PNOA-H_AMS_1956-57_33k_ES_PAN_21mic_H50_0424_fot_47A-06514_E_tif
  70
32
  10
247993.000
  20
4573685.793
  30
802
  0
VERTEX
  8
PNOA-H_AMS_1956-57_33k_ES_PAN_21mic_H50_0424_fot_47A-06514_E_tif
  70
32
  10
247935.500
  20
4571896.793
  30
822
  0
VERTEX
  8
PNOA-H_AMS_1956-57_33k_ES_PAN_21mic_H50_0424_fot_47A-06514_E_tif
  70
32
  10
246218.000
  20
4571591.793
  30
814.6
  0
VERTEX
  8
PNOA-H_AMS_1956-57_33k_ES_PAN_21mic_H50_0424_fot_47A-06514_E_tif
  70
32
  10
245214.500
  20
4571990.793
  30
808
  0
VERTEX
  8
PNOA-H_AMS_1956-57_33k_ES_PAN_21mic_H50_0424_fot_47A-06514_E_tif
  70
32
  10
245338.000
  20
4576245.793
  30
806
  0
VERTEX
  8
PNOA-H_AMS_1956-57_33k_ES_PAN_21mic_H50_0424_fot_47A-06514_E_tif
  70
32
  10
245338.500
  20
4576262.793
  30
806
  0
VERTEX
  8
PNOA-H_AMS_1956-57_33k_ES_PAN_21mic_H50_0424_fot_47A-06514_E_tif
  70
32
  10
245339.500
  20
4576265.293
  30
806
  0
VERTEX
  8
PNOA-H_AMS_1956-57_33k_ES_PAN_21mic_H50_0424_fot_47A-06514_E_tif
  70
32
  10
247279.000
  20
4576583.293
  30
806
  0
VERTEX
  8
PNOA-H_AMS_1956-57_33k_ES_PAN_21mic_H50_0424_fot_47A-06514_E_tif
  70
32
  10
248073.000
  20
4576170.293
  30
815.6
  0
VERTEX
  8
PNOA-H_AMS_1956-57_33k_ES_PAN_21mic_H50_0424_fot_47A-06514_E_tif
  70
32
  10
247993.000
  20
4573692.293
  30
802
  0
VERTEX
  8
PNOA-H_AMS_1956-57_33k_ES_PAN_21mic_H50_0424_fot_47A-06514_E_tif
  70
32
  10
247993.000
  20
4573685.793
  30
802
  0
SEQEND
  8
PNOA-H_AMS_1956-57_33k_ES_PAN_21mic_H50_0424_fot_47A-06514_E_tif
  0
TEXT
  8
PNOA-H_AMS_1956-57_33k_ES_PAN_21mic_H50_0424_fot_47A-06514_E_tif
 62
0
  1
PNOA-H_AMS_1956-57_33k_ES_PAN_21mic_H50_0424_fot_47A-06514_E.tif
 40
41.50002
  10
246640.559
  20
4574087.543
  0
POLYLINE
  8
PNOA-H_AMS_1956-57_33k_ES_PAN_21mic_H50_0424_fot_47A-06513_E_tif
  70
9
  66
1
  0
VERTEX
  8
PNOA-H_AMS_1956-57_33k_ES_PAN_21mic_H50_0424_fot_47A-06513_E_tif
  70
32
  10
243096.000
  20
4576496.793
  30
801
  0
VERTEX
  8
PNOA-H_AMS_1956-57_33k_ES_PAN_21mic_H50_0424_fot_47A-06513_E_tif
  70
32
  10
244313.500
  20
4576736.293
  30
814
  0
VERTEX
  8
PNOA-H_AMS_1956-57_33k_ES_PAN_21mic_H50_0424_fot_47A-06513_E_tif
  70
32
  10
245339.000
  20
4576264.793
  30
806
  0
VERTEX
  8
PNOA-H_AMS_1956-57_33k_ES_PAN_21mic_H50_0424_fot_47A-06513_E_tif
  70
32
  10
245215.000
  20
4571997.293
  30
808
  0
VERTEX
  8
PNOA-H_AMS_1956-57_33k_ES_PAN_21mic_H50_0424_fot_47A-06513_E_tif
  70
32
  10
245214.500
  20
4571990.793
  30
808
  0
VERTEX
  8
PNOA-H_AMS_1956-57_33k_ES_PAN_21mic_H50_0424_fot_47A-06513_E_tif
  70
32
  10
245212.500
  20
4571990.293
  30
808
  0
VERTEX
  8
PNOA-H_AMS_1956-57_33k_ES_PAN_21mic_H50_0424_fot_47A-06513_E_tif
  70
32
  10
243514.500
  20
4571689.793
  30
799
  0
VERTEX
  8
PNOA-H_AMS_1956-57_33k_ES_PAN_21mic_H50_0424_fot_47A-06513_E_tif
  70
32
  10
242497.000
  20
4572071.293
  30
817
  0
VERTEX
  8
PNOA-H_AMS_1956-57_33k_ES_PAN_21mic_H50_0424_fot_47A-06513_E_tif
  70
32
  10
242624.500
  20
4576403.793
  30
807
  0
VERTEX
  8
PNOA-H_AMS_1956-57_33k_ES_PAN_21mic_H50_0424_fot_47A-06513_E_tif
  70
32
  10
243093.500
  20
4576496.293
  30
801
  0
VERTEX
  8
PNOA-H_AMS_1956-57_33k_ES_PAN_21mic_H50_0424_fot_47A-06513_E_tif
  70
32
  10
243096.000
  20
4576496.793
  30
801
  0
SEQEND
  8
PNOA-H_AMS_1956-57_33k_ES_PAN_21mic_H50_0424_fot_47A-06513_E_tif
  0
TEXT
  8
PNOA-H_AMS_1956-57_33k_ES_PAN_21mic_H50_0424_fot_47A-06513_E_tif
 62
0
  1
PNOA-H_AMS_1956-57_33k_ES_PAN_21mic_H50_0424_fot_47A-06513_E.tif
 40
41.50002
  10
243919.706
  20
4574213.043
  0
POLYLINE
  8
PNOA-H_AMS_1956-57_33k_ES_PAN_21mic_H50_0424_fot_46A-10312_E_tif
  70
9
  66
1
  0
VERTEX
  8
PNOA-H_AMS_1956-57_33k_ES_PAN_21mic_H50_0424_fot_46A-10312_E_tif
  70
32
  10
244563.396
  20
4580257.559
  30
806.2
  0
VERTEX
  8
PNOA-H_AMS_1956-57_33k_ES_PAN_21mic_H50_0424_fot_46A-10312_E_tif
  70
32
  10
244313.000
  20
4576736.293
  30
814
  0
VERTEX
  8
PNOA-H_AMS_1956-57_33k_ES_PAN_21mic_H50_0424_fot_46A-10312_E_tif
  70
32
  10
242627.000
  20
4576403.793
  30
807
  0
VERTEX
  8
PNOA-H_AMS_1956-57_33k_ES_PAN_21mic_H50_0424_fot_46A-10312_E_tif
  70
32
  10
242623.500
  20
4576403.793
  30
807
  0
VERTEX
  8
PNOA-H_AMS_1956-57_33k_ES_PAN_21mic_H50_0424_fot_46A-10312_E_tif
  70
32
  10
242611.500
  20
4576408.293
  30
807
  0
VERTEX
  8
PNOA-H_AMS_1956-57_33k_ES_PAN_21mic_H50_0424_fot_46A-10312_E_tif
  70
32
  10
241386.000
  20
4576886.793
  30
810
  0
VERTEX
  8
PNOA-H_AMS_1956-57_33k_ES_PAN_21mic_H50_0424_fot_46A-10312_E_tif
  70
32
  10
241630.088
  20
4580361.509
  30
796.384
  0
VERTEX
  8
PNOA-H_AMS_1956-57_33k_ES_PAN_21mic_H50_0424_fot_46A-10312_E_tif
  70
32
  10
243725.227
  20
4580286.973
  30
802.747
  0
SEQEND
  8
PNOA-H_AMS_1956-57_33k_ES_PAN_21mic_H50_0424_fot_46A-10312_E_tif
  0
TEXT
  8
PNOA-H_AMS_1956-57_33k_ES_PAN_21mic_H50_0424_fot_46A-10312_E_tif
 62
0
  1
PNOA-H_AMS_1956-57_33k_ES_PAN_21mic_H50_0424_fot_46A-10312_E.tif
 40
41.50002
  10
242966.177
  20
4578461.897
  0
POLYLINE
  8
PNOA-H_AMS_1956-57_33k_ES_PAN_21mic_H50_0424_fot_46A-10314_E_tif
  70
9
  66
1
  0
VERTEX
  8
PNOA-H_AMS_1956-57_33k_ES_PAN_21mic_H50_0424_fot_46A-10314_E_tif
  70
32
  10
250469.782
  20
4580051.849
  30
803.641
  0
VERTEX
  8
PNOA-H_AMS_1956-57_33k_ES_PAN_21mic_H50_0424_fot_46A-10314_E_tif
  70
32
  10
250199.500
  20
4576397.293
  30
827
  0
VERTEX
  8
PNOA-H_AMS_1956-57_33k_ES_PAN_21mic_H50_0424_fot_46A-10314_E_tif
  70
32
  10
248077.500
  20
4576170.293
  30
815.6
  0
VERTEX
  8
PNOA-H_AMS_1956-57_33k_ES_PAN_21mic_H50_0424_fot_46A-10314_E_tif
  70
32
  10
248072.000
  20
4576170.293
  30
815.6
  0
VERTEX
  8
PNOA-H_AMS_1956-57_33k_ES_PAN_21mic_H50_0424_fot_46A-10314_E_tif
  70
32
  10
248066.000
  20
4576173.293
  30
815.36
  0
VERTEX
  8
PNOA-H_AMS_1956-57_33k_ES_PAN_21mic_H50_0424_fot_46A-10314_E_tif
  70
32
  10
247278.000
  20
4576583.293
  30
806
  0
VERTEX
  8
PNOA-H_AMS_1956-57_33k_ES_PAN_21mic_H50_0424_fot_46A-10314_E_tif
  70
32
  10
247507.955
  20
4580154.365
  30
804.502
  0
SEQEND
  8
PNOA-H_AMS_1956-57_33k_ES_PAN_21mic_H50_0424_fot_46A-10314_E_tif
  0
TEXT
  8
PNOA-H_AMS_1956-57_33k_ES_PAN_21mic_H50_0424_fot_46A-10314_E_tif
 62
0
  1
PNOA-H_AMS_1956-57_33k_ES_PAN_21mic_H50_0424_fot_46A-10314_E.tif
 40
41.50002
  10
248858.859
  20
4578220.147
  0
POLYLINE
  8
PNOA-H_AMS_1956-57_33k_ES_PAN_21mic_H50_0424_fot_46A-10313_E_tif
  70
9
  66
1
  0
VERTEX
  8
PNOA-H_AMS_1956-57_33k_ES_PAN_21mic_H50_0424_fot_46A-10313_E_tif
  70
32
  10
247507.955
  20
4580154.365
  30
804.502
  0
VERTEX
  8
PNOA-H_AMS_1956-57_33k_ES_PAN_21mic_H50_0424_fot_46A-10313_E_tif
  70
32
  10
247278.000
  20
4576583.293
  30
806
  0
VERTEX
  8
PNOA-H_AMS_1956-57_33k_ES_PAN_21mic_H50_0424_fot_46A-10313_E_tif
  70
32
  10
245338.500
  20
4576264.793
  30
806
  0
VERTEX
  8
PNOA-H_AMS_1956-57_33k_ES_PAN_21mic_H50_0424_fot_46A-10313_E_tif
  70
32
  10
244313.000
  20
4576736.293
  30
814
  0
VERTEX
  8
PNOA-H_AMS_1956-57_33k_ES_PAN_21mic_H50_0424_fot_46A-10313_E_tif
  70
32
  10
244563.396
  20
4580257.559
  30
806.2
  0
VERTEX
  8
PNOA-H_AMS_1956-57_33k_ES_PAN_21mic_H50_0424_fot_46A-10313_E_tif
  70
32
  10
247212.379
  20
4580164.596
  30
808.416
  0
SEQEND
  8
PNOA-H_AMS_1956-57_33k_ES_PAN_21mic_H50_0424_fot_46A-10313_E_tif
  0
TEXT
  8
PNOA-H_AMS_1956-57_33k_ES_PAN_21mic_H50_0424_fot_46A-10313_E_tif
 62
0
  1
PNOA-H_AMS_1956-57_33k_ES_PAN_21mic_H50_0424_fot_46A-10313_E.tif
 40
41.50002
  10
245912.630
  20
4578392.397
  0
POLYLINE
  8
PNOA-H_AMS_1956-57_33k_ES_PAN_21mic_H50_0424_fot_48A-10200_E_tif
  70
9
  66
1
  0
VERTEX
  8
PNOA-H_AMS_1956-57_33k_ES_PAN_21mic_H50_0424_fot_48A-10200_E_tif
  70
32
  10
245144.500
  20
4571978.793
  30
807
  0
VERTEX
  8
PNOA-H_AMS_1956-57_33k_ES_PAN_21mic_H50_0424_fot_48A-10200_E_tif
  70
32
  10
245212.500
  20
4571990.793
  30
808
  0
VERTEX
  8
PNOA-H_AMS_1956-57_33k_ES_PAN_21mic_H50_0424_fot_48A-10200_E_tif
  70
32
  10
245217.000
  20
4571990.293
  30
808
  0
VERTEX
  8
PNOA-H_AMS_1956-57_33k_ES_PAN_21mic_H50_0424_fot_48A-10200_E_tif
  70
32
  10
246218.500
  20
4571591.793
  30
814.7
  0
VERTEX
  8
PNOA-H_AMS_1956-57_33k_ES_PAN_21mic_H50_0424_fot_48A-10200_E_tif
  70
32
  10
246072.000
  20
4567314.793
  30
796
  0
VERTEX
  8
PNOA-H_AMS_1956-57_33k_ES_PAN_21mic_H50_0424_fot_48A-10200_E_tif
  70
32
  10
246062.000
  20
4567308.293
  30
796.12
  0
VERTEX
  8
PNOA-H_AMS_1956-57_33k_ES_PAN_21mic_H50_0424_fot_48A-10200_E_tif
  70
32
  10
245844.000
  20
4567188.293
  30
795.04
  0
VERTEX
  8
PNOA-H_AMS_1956-57_33k_ES_PAN_21mic_H50_0424_fot_48A-10200_E_tif
  70
32
  10
243366.500
  20
4567368.293
  30
823
  0
VERTEX
  8
PNOA-H_AMS_1956-57_33k_ES_PAN_21mic_H50_0424_fot_48A-10200_E_tif
  70
32
  10
243515.000
  20
4571689.793
  30
799
  0
VERTEX
  8
PNOA-H_AMS_1956-57_33k_ES_PAN_21mic_H50_0424_fot_48A-10200_E_tif
  70
32
  10
245142.000
  20
4571978.293
  30
807
  0
VERTEX
  8
PNOA-H_AMS_1956-57_33k_ES_PAN_21mic_H50_0424_fot_48A-10200_E_tif
  70
32
  10
245144.500
  20
4571978.793
  30
807
  0
SEQEND
  8
PNOA-H_AMS_1956-57_33k_ES_PAN_21mic_H50_0424_fot_48A-10200_E_tif
  0
TEXT
  8
PNOA-H_AMS_1956-57_33k_ES_PAN_21mic_H50_0424_fot_48A-10200_E_tif
 62
0
  1
PNOA-H_AMS_1956-57_33k_ES_PAN_21mic_H50_0424_fot_48A-10200_E.tif
 40
41.50002
  10
244796.373
  20
4569589.543
  0
POLYLINE
  8
PNOA-H_AMS_1956-57_33k_ES_PAN_21mic_H50_0424_fot_48A-10201_E_tif
  70
9
  66
1
  0
VERTEX
  8
PNOA-H_AMS_1956-57_33k_ES_PAN_21mic_H50_0424_fot_48A-10201_E_tif
  70
32
  10
247193.500
  20
4571765.293
  30
837
  0
VERTEX
  8
PNOA-H_AMS_1956-57_33k_ES_PAN_21mic_H50_0424_fot_48A-10201_E_tif
  70
32
  10
247936.500
  20
4571896.793
  30
822
  0
VERTEX
  8
PNOA-H_AMS_1956-57_33k_ES_PAN_21mic_H50_0424_fot_48A-10201_E_tif
  70
32
  10
248916.000
  20
4571520.793
  30
824
  0
VERTEX
  8
PNOA-H_AMS_1956-57_33k_ES_PAN_21mic_H50_0424_fot_48A-10201_E_tif
  70
32
  10
248819.500
  20
4567214.293
  30
832
  0
VERTEX
  8
PNOA-H_AMS_1956-57_33k_ES_PAN_21mic_H50_0424_fot_48A-10201_E_tif
  70
32
  10
248586.500
  20
4567086.793
  30
821
  0
VERTEX
  8
PNOA-H_AMS_1956-57_33k_ES_PAN_21mic_H50_0424_fot_48A-10201_E_tif
  70
32
  10
246071.500
  20
4567313.793
  30
796
  0
VERTEX
  8
PNOA-H_AMS_1956-57_33k_ES_PAN_21mic_H50_0424_fot_48A-10201_E_tif
  70
32
  10
246218.500
  20
4571591.793
  30
814.7
  0
VERTEX
  8
PNOA-H_AMS_1956-57_33k_ES_PAN_21mic_H50_0424_fot_48A-10201_E_tif
  70
32
  10
247191.000
  20
4571764.793
  30
837
  0
VERTEX
  8
PNOA-H_AMS_1956-57_33k_ES_PAN_21mic_H50_0424_fot_48A-10201_E_tif
  70
32
  10
247193.500
  20
4571765.293
  30
837
  0
SEQEND
  8
PNOA-H_AMS_1956-57_33k_ES_PAN_21mic_H50_0424_fot_48A-10201_E_tif
  0
TEXT
  8
PNOA-H_AMS_1956-57_33k_ES_PAN_21mic_H50_0424_fot_48A-10201_E_tif
 62
0
  1
PNOA-H_AMS_1956-57_33k_ES_PAN_21mic_H50_0424_fot_48A-10201_E.tif
 40
41.50002
  10
247508.437
  20
4569491.793
  0
POLYLINE
  8
PNOA-H_AMS_1956-57_33k_ES_PAN_21mic_H50_0424_fot_48A-10199_E_tif
  70
9
  66
1
  0
VERTEX
  8
PNOA-H_AMS_1956-57_33k_ES_PAN_21mic_H50_0424_fot_48A-10199_E_tif
  70
32
  10
243098.500
  20
4571845.793
  30
806
  0
VERTEX
  8
PNOA-H_AMS_1956-57_33k_ES_PAN_21mic_H50_0424_fot_48A-10199_E_tif
  70
32
  10
243515.000
  20
4571689.793
  30
799
  0
VERTEX
  8
PNOA-H_AMS_1956-57_33k_ES_PAN_21mic_H50_0424_fot_48A-10199_E_tif
  70
32
  10
243366.500
  20
4567367.793
  30
823
  0
VERTEX
  8
PNOA-H_AMS_1956-57_33k_ES_PAN_21mic_H50_0424_fot_48A-10199_E_tif
  70
32
  10
243051.000
  20
4567198.293
  30
808.84
  0
VERTEX
  8
PNOA-H_AMS_1956-57_33k_ES_PAN_21mic_H50_0424_fot_48A-10199_E_tif
  70
32
  10
243045.000
  20
4567195.293
  30
808.4
  0
VERTEX
  8
PNOA-H_AMS_1956-57_33k_ES_PAN_21mic_H50_0424_fot_48A-10199_E_tif
  70
32
  10
243040.500
  20
4567195.293
  30
808.04
  0
VERTEX
  8
PNOA-H_AMS_1956-57_33k_ES_PAN_21mic_H50_0424_fot_48A-10199_E_tif
  70
32
  10
240662.000
  20
4567391.793
  30
803
  0
VERTEX
  8
PNOA-H_AMS_1956-57_33k_ES_PAN_21mic_H50_0424_fot_48A-10199_E_tif
  70
32
  10
240760.000
  20
4571751.793
  30
777.9
  0
VERTEX
  8
PNOA-H_AMS_1956-57_33k_ES_PAN_21mic_H50_0424_fot_48A-10199_E_tif
  70
32
  10
242495.500
  20
4572071.293
  30
817
  0
VERTEX
  8
PNOA-H_AMS_1956-57_33k_ES_PAN_21mic_H50_0424_fot_48A-10199_E_tif
  70
32
  10
242500.500
  20
4572070.293
  30
817
  0
VERTEX
  8
PNOA-H_AMS_1956-57_33k_ES_PAN_21mic_H50_0424_fot_48A-10199_E_tif
  70
32
  10
243096.500
  20
4571846.293
  30
806
  0
VERTEX
  8
PNOA-H_AMS_1956-57_33k_ES_PAN_21mic_H50_0424_fot_48A-10199_E_tif
  70
32
  10
243098.500
  20
4571845.793
  30
806
  0
SEQEND
  8
PNOA-H_AMS_1956-57_33k_ES_PAN_21mic_H50_0424_fot_48A-10199_E_tif
  0
TEXT
  8
PNOA-H_AMS_1956-57_33k_ES_PAN_21mic_H50_0424_fot_48A-10199_E_tif
 62
0
  1
PNOA-H_AMS_1956-57_33k_ES_PAN_21mic_H50_0424_fot_48A-10199_E.tif
 40
41.50002
  10
242078.361
  20
4569633.293
  0
POLYLINE
  8
PNOA-H_AMS_1956-57_33k_ES_PAN_21mic_H50_0424_fot_49A-10156_W_tif
  70
9
  66
1
  0
VERTEX
  8
PNOA-H_AMS_1956-57_33k_ES_PAN_21mic_H50_0424_fot_49A-10156_W_tif
  70
32
  10
247194.500
  20
4567212.793
  30
799
  0
VERTEX
  8
PNOA-H_AMS_1956-57_33k_ES_PAN_21mic_H50_0424_fot_49A-10156_W_tif
  70
32
  10
248586.000
  20
4567086.793
  30
821
  0
VERTEX
  8
PNOA-H_AMS_1956-57_33k_ES_PAN_21mic_H50_0424_fot_49A-10156_W_tif
  70
32
  10
248436.000
  20
4562886.793
  30
817.8
  0
VERTEX
  8
PNOA-H_AMS_1956-57_33k_ES_PAN_21mic_H50_0424_fot_49A-10156_W_tif
  70
32
  10
247792.000
  20
4562621.293
  30
822.32
  0
VERTEX
  8
PNOA-H_AMS_1956-57_33k_ES_PAN_21mic_H50_0424_fot_49A-10156_W_tif
  70
32
  10
245748.000
  20
4562973.293
  30
823.92
  0
VERTEX
  8
PNOA-H_AMS_1956-57_33k_ES_PAN_21mic_H50_0424_fot_49A-10156_W_tif
  70
32
  10
245843.500
  20
4567188.293
  30
795.06
  0
VERTEX
  8
PNOA-H_AMS_1956-57_33k_ES_PAN_21mic_H50_0424_fot_49A-10156_W_tif
  70
32
  10
246071.000
  20
4567313.793
  30
796
  0
VERTEX
  8
PNOA-H_AMS_1956-57_33k_ES_PAN_21mic_H50_0424_fot_49A-10156_W_tif
  70
32
  10
247189.500
  20
4567212.793
  30
799
  0
VERTEX
  8
PNOA-H_AMS_1956-57_33k_ES_PAN_21mic_H50_0424_fot_49A-10156_W_tif
  70
32
  10
247194.500
  20
4567212.793
  30
799
  0
SEQEND
  8
PNOA-H_AMS_1956-57_33k_ES_PAN_21mic_H50_0424_fot_49A-10156_W_tif
  0
TEXT
  8
PNOA-H_AMS_1956-57_33k_ES_PAN_21mic_H50_0424_fot_49A-10156_W_tif
 62
0
  1
PNOA-H_AMS_1956-57_33k_ES_PAN_21mic_H50_0424_fot_49A-10156_W.tif
 40
41.50002
  10
247151.748
  20
4564967.543
  0
POLYLINE
  8
PNOA-H_AMS_1956-57_33k_ES_PAN_21mic_H50_0424_fot_49A-10157_W_tif
  70
9
  66
1
  0
VERTEX
  8
PNOA-H_AMS_1956-57_33k_ES_PAN_21mic_H50_0424_fot_49A-10157_W_tif
  70
32
  10
243097.500
  20
4567223.793
  30
811
  0
VERTEX
  8
PNOA-H_AMS_1956-57_33k_ES_PAN_21mic_H50_0424_fot_49A-10157_W_tif
  70
32
  10
243367.500
  20
4567368.293
  30
823
  0
VERTEX
  8
PNOA-H_AMS_1956-57_33k_ES_PAN_21mic_H50_0424_fot_49A-10157_W_tif
  70
32
  10
245843.500
  20
4567188.293
  30
795.06
  0
VERTEX
  8
PNOA-H_AMS_1956-57_33k_ES_PAN_21mic_H50_0424_fot_49A-10157_W_tif
  70
32
  10
245748.000
  20
4562973.293
  30
823.92
  0
VERTEX
  8
PNOA-H_AMS_1956-57_33k_ES_PAN_21mic_H50_0424_fot_49A-10157_W_tif
  70
32
  10
245148.000
  20
4562727.793
  30
808
  0
VERTEX
  8
PNOA-H_AMS_1956-57_33k_ES_PAN_21mic_H50_0424_fot_49A-10157_W_tif
  70
32
  10
243156.500
  20
4563049.793
  30
764.3
  0
VERTEX
  8
PNOA-H_AMS_1956-57_33k_ES_PAN_21mic_H50_0424_fot_49A-10157_W_tif
  70
32
  10
243044.500
  20
4567189.293
  30
808.96
  0
VERTEX
  8
PNOA-H_AMS_1956-57_33k_ES_PAN_21mic_H50_0424_fot_49A-10157_W_tif
  70
32
  10
243045.000
  20
4567195.793
  30
808.3
  0
VERTEX
  8
PNOA-H_AMS_1956-57_33k_ES_PAN_21mic_H50_0424_fot_49A-10157_W_tif
  70
32
  10
243096.500
  20
4567223.293
  30
811
  0
VERTEX
  8
PNOA-H_AMS_1956-57_33k_ES_PAN_21mic_H50_0424_fot_49A-10157_W_tif
  70
32
  10
243097.500
  20
4567223.793
  30
811
  0
SEQEND
  8
PNOA-H_AMS_1956-57_33k_ES_PAN_21mic_H50_0424_fot_49A-10157_W_tif
  0
TEXT
  8
PNOA-H_AMS_1956-57_33k_ES_PAN_21mic_H50_0424_fot_49A-10157_W_tif
 62
0
  1
PNOA-H_AMS_1956-57_33k_ES_PAN_21mic_H50_0424_fot_49A-10157_W.tif
 40
41.50002
  10
244448.721
  20
4565048.043
  0
POLYLINE
  8
PNOA-H_AMS_1956-57_33k_ES_PAN_21mic_H50_0424_fot_49A-10158_W_tif
  70
9
  66
1
  0
VERTEX
  8
PNOA-H_AMS_1956-57_33k_ES_PAN_21mic_H50_0424_fot_49A-10158_W_tif
  70
32
  10
240661.000
  20
4567391.793
  30
803
  0
VERTEX
  8
PNOA-H_AMS_1956-57_33k_ES_PAN_21mic_H50_0424_fot_49A-10158_W_tif
  70
32
  10
243044.500
  20
4567195.293
  30
808.36
  0
VERTEX
  8
PNOA-H_AMS_1956-57_33k_ES_PAN_21mic_H50_0424_fot_49A-10158_W_tif
  70
32
  10
243156.000
  20
4563049.293
  30
764.2
  0
VERTEX
  8
PNOA-H_AMS_1956-57_33k_ES_PAN_21mic_H50_0424_fot_49A-10158_W_tif
  70
32
  10
242367.000
  20
4562697.293
  30
763
  0
VERTEX
  8
PNOA-H_AMS_1956-57_33k_ES_PAN_21mic_H50_0424_fot_49A-10158_W_tif
  70
32
  10
242344.500
  20
4562687.293
  30
762
  0
VERTEX
  8
PNOA-H_AMS_1956-57_33k_ES_PAN_21mic_H50_0424_fot_49A-10158_W_tif
  70
32
  10
242341.000
  20
4562686.793
  30
762
  0
VERTEX
  8
PNOA-H_AMS_1956-57_33k_ES_PAN_21mic_H50_0424_fot_49A-10158_W_tif
  70
32
  10
240344.000
  20
4563118.293
  30
711.16
  0
VERTEX
  8
PNOA-H_AMS_1956-57_33k_ES_PAN_21mic_H50_0424_fot_49A-10158_W_tif
  70
32
  10
240420.500
  20
4567260.293
  30
799
  0
VERTEX
  8
PNOA-H_AMS_1956-57_33k_ES_PAN_21mic_H50_0424_fot_49A-10158_W_tif
  70
32
  10
240660.000
  20
4567391.293
  30
803
  0
VERTEX
  8
PNOA-H_AMS_1956-57_33k_ES_PAN_21mic_H50_0424_fot_49A-10158_W_tif
  70
32
  10
240661.000
  20
4567391.793
  30
803
  0
SEQEND
  8
PNOA-H_AMS_1956-57_33k_ES_PAN_21mic_H50_0424_fot_49A-10158_W_tif
  0
TEXT
  8
PNOA-H_AMS_1956-57_33k_ES_PAN_21mic_H50_0424_fot_49A-10158_W_tif
 62
0
  1
PNOA-H_AMS_1956-57_33k_ES_PAN_21mic_H50_0424_fot_49A-10158_W.tif
 40
41.50002
  10
241740.981
  20
4565039.293
  0
POLYLINE
  8
PNOA-H_AMS_1956-57_33k_ES_PAN_21mic_H50_0451_fot_50A-08790_E_tif
  70
9
  66
1
  0
VERTEX
  8
PNOA-H_AMS_1956-57_33k_ES_PAN_21mic_H50_0451_fot_50A-08790_E_tif
  70
32
  10
245097.026
  20
4561710.280
  30
796.5
  0
VERTEX
  8
PNOA-H_AMS_1956-57_33k_ES_PAN_21mic_H50_0451_fot_50A-08790_E_tif
  70
32
  10
243072.408
  20
4561781.097
  30
767.071
  0
VERTEX
  8
PNOA-H_AMS_1956-57_33k_ES_PAN_21mic_H50_0451_fot_50A-08790_E_tif
  70
32
  10
242310.731
  20
4561808.104
  30
767.074
  0
VERTEX
  8
PNOA-H_AMS_1956-57_33k_ES_PAN_21mic_H50_0451_fot_50A-08790_E_tif
  70
32
  10
242342.500
  20
4562686.793
  30
762
  0
VERTEX
  8
PNOA-H_AMS_1956-57_33k_ES_PAN_21mic_H50_0451_fot_50A-08790_E_tif
  70
32
  10
243156.000
  20
4563049.793
  30
764.2
  0
VERTEX
  8
PNOA-H_AMS_1956-57_33k_ES_PAN_21mic_H50_0451_fot_50A-08790_E_tif
  70
32
  10
245145.000
  20
4562728.293
  30
808
  0
VERTEX
  8
PNOA-H_AMS_1956-57_33k_ES_PAN_21mic_H50_0451_fot_50A-08790_E_tif
  70
32
  10
245146.500
  20
4562728.293
  30
808
  0
VERTEX
  8
PNOA-H_AMS_1956-57_33k_ES_PAN_21mic_H50_0451_fot_50A-08790_E_tif
  70
32
  10
245149.000
  20
4562727.793
  30
808
  0
VERTEX
  8
PNOA-H_AMS_1956-57_33k_ES_PAN_21mic_H50_0451_fot_50A-08790_E_tif
  70
32
  10
245148.500
  20
4562708.293
  30
808
  0
SEQEND
  8
PNOA-H_AMS_1956-57_33k_ES_PAN_21mic_H50_0451_fot_50A-08790_E_tif
  0
TEXT
  8
PNOA-H_AMS_1956-57_33k_ES_PAN_21mic_H50_0451_fot_50A-08790_E_tif
 62
0
  1
PNOA-H_AMS_1956-57_33k_ES_PAN_21mic_H50_0451_fot_50A-08790_E.tif
 40
41.50002
  10
243729.865
  20
4562380.037
  0
POLYLINE
  8
PNOA-H_AMS_1956-57_33k_ES_PAN_21mic_H50_0451_fot_50A-08791_E_tif
  70
9
  66
1
  0
VERTEX
  8
PNOA-H_AMS_1956-57_33k_ES_PAN_21mic_H50_0451_fot_50A-08791_E_tif
  70
32
  10
247753.870
  20
4561617.919
  30
814.719
  0
VERTEX
  8
PNOA-H_AMS_1956-57_33k_ES_PAN_21mic_H50_0451_fot_50A-08791_E_tif
  70
32
  10
246568.462
  20
4561658.813
  30
823.085
  0
VERTEX
  8
PNOA-H_AMS_1956-57_33k_ES_PAN_21mic_H50_0451_fot_50A-08791_E_tif
  70
32
  10
245097.027
  20
4561710.280
  30
795.393
  0
VERTEX
  8
PNOA-H_AMS_1956-57_33k_ES_PAN_21mic_H50_0451_fot_50A-08791_E_tif
  70
32
  10
245146.000
  20
4562659.793
  30
806
  0
VERTEX
  8
PNOA-H_AMS_1956-57_33k_ES_PAN_21mic_H50_0451_fot_50A-08791_E_tif
  70
32
  10
245146.000
  20
4562669.793
  30
806.8
  0
VERTEX
  8
PNOA-H_AMS_1956-57_33k_ES_PAN_21mic_H50_0451_fot_50A-08791_E_tif
  70
32
  10
245149.500
  20
4562728.293
  30
808
  0
VERTEX
  8
PNOA-H_AMS_1956-57_33k_ES_PAN_21mic_H50_0451_fot_50A-08791_E_tif
  70
32
  10
245746.500
  20
4562973.293
  30
823.86
  0
VERTEX
  8
PNOA-H_AMS_1956-57_33k_ES_PAN_21mic_H50_0451_fot_50A-08791_E_tif
  70
32
  10
245750.500
  20
4562973.293
  30
824
  0
VERTEX
  8
PNOA-H_AMS_1956-57_33k_ES_PAN_21mic_H50_0451_fot_50A-08791_E_tif
  70
32
  10
247791.000
  20
4562621.293
  30
822.16
  0
SEQEND
  8
PNOA-H_AMS_1956-57_33k_ES_PAN_21mic_H50_0451_fot_50A-08791_E_tif
  0
TEXT
  8
PNOA-H_AMS_1956-57_33k_ES_PAN_21mic_H50_0451_fot_50A-08791_E_tif
 62
0
  1
PNOA-H_AMS_1956-57_33k_ES_PAN_21mic_H50_0451_fot_50A-08791_E.tif
 40
41.50002
  10
246444.014
  20
4562295.606
  0
POLYLINE
  8
PNOA-H_AMS_1956-57_33k_ES_PAN_21mic_H50_0424_fot_47A-06515_E_tif
  70
9
  66
1
  0
VERTEX
  8
PNOA-H_AMS_1956-57_33k_ES_PAN_21mic_H50_0424_fot_47A-06515_E_tif
  70
32
  10
249238.000
  20
4576294.793
  30
816
  0
VERTEX
  8
PNOA-H_AMS_1956-57_33k_ES_PAN_21mic_H50_0424_fot_47A-06515_E_tif
  70
32
  10
250199.500
  20
4576397.293
  30
827
  0
VERTEX
  8
PNOA-H_AMS_1956-57_33k_ES_PAN_21mic_H50_0424_fot_47A-06515_E_tif
  70
32
  10
250800.000
  20
4576044.793
  30
831
  0
VERTEX
  8
PNOA-H_AMS_1956-57_33k_ES_PAN_21mic_H50_0424_fot_47A-06515_E_tif
  70
32
  10
250643.000
  20
4571824.293
  30
832
  0
VERTEX
  8
PNOA-H_AMS_1956-57_33k_ES_PAN_21mic_H50_0424_fot_47A-06515_E_tif
  70
32
  10
248917.500
  20
4571520.793
  30
824
  0
VERTEX
  8
PNOA-H_AMS_1956-57_33k_ES_PAN_21mic_H50_0424_fot_47A-06515_E_tif
  70
32
  10
248901.000
  20
4571526.293
  30
824
  0
VERTEX
  8
PNOA-H_AMS_1956-57_33k_ES_PAN_21mic_H50_0424_fot_47A-06515_E_tif
  70
32
  10
247935.500
  20
4571896.793
  30
822
  0
VERTEX
  8
PNOA-H_AMS_1956-57_33k_ES_PAN_21mic_H50_0424_fot_47A-06515_E_tif
  70
32
  10
248072.500
  20
4576163.293
  30
815
  0
VERTEX
  8
PNOA-H_AMS_1956-57_33k_ES_PAN_21mic_H50_0424_fot_47A-06515_E_tif
  70
32
  10
248073.000
  20
4576170.293
  30
815.6
  0
VERTEX
  8
PNOA-H_AMS_1956-57_33k_ES_PAN_21mic_H50_0424_fot_47A-06515_E_tif
  70
32
  10
249233.000
  20
4576294.293
  30
816
  0
VERTEX
  8
PNOA-H_AMS_1956-57_33k_ES_PAN_21mic_H50_0424_fot_47A-06515_E_tif
  70
32
  10
249238.000
  20
4576294.793
  30
816
  0
SEQEND
  8
PNOA-H_AMS_1956-57_33k_ES_PAN_21mic_H50_0424_fot_47A-06515_E_tif
  0
TEXT
  8
PNOA-H_AMS_1956-57_33k_ES_PAN_21mic_H50_0424_fot_47A-06515_E_tif
 62
0
  1
PNOA-H_AMS_1956-57_33k_ES_PAN_21mic_H50_0424_fot_47A-06515_E.tif
 40
41.50002
  10
249362.066
  20
4573959.043
  0
POLYLINE
  8
PNOA-H_AMS_1956-57_33k_ES_PAN_21mic_H50_0424_fot_47A-06517_E_tif
  70
9
  66
1
  0
VERTEX
  8
PNOA-H_AMS_1956-57_33k_ES_PAN_21mic_H50_0424_fot_47A-06517_E_tif
  70
32
  10
255386.000
  20
4576017.293
  30
831
  0
VERTEX
  8
PNOA-H_AMS_1956-57_33k_ES_PAN_21mic_H50_0424_fot_47A-06517_E_tif
  70
32
  10
255754.000
  20
4576039.793
  30
836
  0
VERTEX
  8
PNOA-H_AMS_1956-57_33k_ES_PAN_21mic_H50_0424_fot_47A-06517_E_tif
  70
32
  10
256236.000
  20
4575743.793
  30
837
  0
VERTEX
  8
PNOA-H_AMS_1956-57_33k_ES_PAN_21mic_H50_0424_fot_47A-06517_E_tif
  70
32
  10
256038.000
  20
4571644.793
  30
908
  0
VERTEX
  8
PNOA-H_AMS_1956-57_33k_ES_PAN_21mic_H50_0424_fot_47A-06517_E_tif
  70
32
  10
254281.500
  20
4571357.793
  30
865
  0
VERTEX
  8
PNOA-H_AMS_1956-57_33k_ES_PAN_21mic_H50_0424_fot_47A-06517_E_tif
  70
32
  10
253355.500
  20
4571738.793
  30
859
  0
VERTEX
  8
PNOA-H_AMS_1956-57_33k_ES_PAN_21mic_H50_0424_fot_47A-06517_E_tif
  70
32
  10
253527.000
  20
4575902.793
  30
826
  0
VERTEX
  8
PNOA-H_AMS_1956-57_33k_ES_PAN_21mic_H50_0424_fot_47A-06517_E_tif
  70
32
  10
255378.000
  20
4576016.793
  30
831
  0
VERTEX
  8
PNOA-H_AMS_1956-57_33k_ES_PAN_21mic_H50_0424_fot_47A-06517_E_tif
  70
32
  10
255386.000
  20
4576017.293
  30
831
  0
SEQEND
  8
PNOA-H_AMS_1956-57_33k_ES_PAN_21mic_H50_0424_fot_47A-06517_E_tif
  0
TEXT
  8
PNOA-H_AMS_1956-57_33k_ES_PAN_21mic_H50_0424_fot_47A-06517_E_tif
 62
0
  1
PNOA-H_AMS_1956-57_33k_ES_PAN_21mic_H50_0424_fot_47A-06517_E.tif
 40
41.50002
  10
254786.721
  20
4573698.793
  0
POLYLINE
  8
PNOA-H_AMS_1956-57_33k_ES_PAN_21mic_H50_0424_fot_47A-06516_E_tif
  70
9
  66
1
  0
VERTEX
  8
PNOA-H_AMS_1956-57_33k_ES_PAN_21mic_H50_0424_fot_47A-06516_E_tif
  70
32
  10
253026.500
  20
4576198.293
  30
828
  0
VERTEX
  8
PNOA-H_AMS_1956-57_33k_ES_PAN_21mic_H50_0424_fot_47A-06516_E_tif
  70
32
  10
253036.000
  20
4576197.793
  30
829
  0
VERTEX
  8
PNOA-H_AMS_1956-57_33k_ES_PAN_21mic_H50_0424_fot_47A-06516_E_tif
  70
32
  10
253527.000
  20
4575902.793
  30
826
  0
VERTEX
  8
PNOA-H_AMS_1956-57_33k_ES_PAN_21mic_H50_0424_fot_47A-06516_E_tif
  70
32
  10
253355.500
  20
4571738.793
  30
859
  0
VERTEX
  8
PNOA-H_AMS_1956-57_33k_ES_PAN_21mic_H50_0424_fot_47A-06516_E_tif
  70
32
  10
251584.500
  20
4571451.293
  30
835
  0
VERTEX
  8
PNOA-H_AMS_1956-57_33k_ES_PAN_21mic_H50_0424_fot_47A-06516_E_tif
  70
32
  10
251580.000
  20
4571451.293
  30
835
  0
VERTEX
  8
PNOA-H_AMS_1956-57_33k_ES_PAN_21mic_H50_0424_fot_47A-06516_E_tif
  70
32
  10
251561.000
  20
4571458.793
  30
836
  0
VERTEX
  8
PNOA-H_AMS_1956-57_33k_ES_PAN_21mic_H50_0424_fot_47A-06516_E_tif
  70
32
  10
250643.000
  20
4571824.293
  30
832
  0
VERTEX
  8
PNOA-H_AMS_1956-57_33k_ES_PAN_21mic_H50_0424_fot_47A-06516_E_tif
  70
32
  10
250800.000
  20
4576044.293
  30
831
  0
VERTEX
  8
PNOA-H_AMS_1956-57_33k_ES_PAN_21mic_H50_0424_fot_47A-06516_E_tif
  70
32
  10
253019.500
  20
4576197.793
  30
828
  0
VERTEX
  8
PNOA-H_AMS_1956-57_33k_ES_PAN_21mic_H50_0424_fot_47A-06516_E_tif
  70
32
  10
253026.500
  20
4576198.293
  30
828
  0
SEQEND
  8
PNOA-H_AMS_1956-57_33k_ES_PAN_21mic_H50_0424_fot_47A-06516_E_tif
  0
TEXT
  8
PNOA-H_AMS_1956-57_33k_ES_PAN_21mic_H50_0424_fot_47A-06516_E_tif
 62
0
  1
PNOA-H_AMS_1956-57_33k_ES_PAN_21mic_H50_0424_fot_47A-06516_E.tif
 40
41.50002
  10
252079.420
  20
4573824.793
  0
POLYLINE
  8
PNOA-H_AMS_1956-57_33k_ES_PAN_21mic_H50_0424_fot_46A-10315_E_tif
  70
9
  66
1
  0
VERTEX
  8
PNOA-H_AMS_1956-57_33k_ES_PAN_21mic_H50_0424_fot_46A-10315_E_tif
  70
32
  10
253294.992
  20
4579955.312
  30
811.522
  0
VERTEX
  8
PNOA-H_AMS_1956-57_33k_ES_PAN_21mic_H50_0424_fot_46A-10315_E_tif
  70
32
  10
253034.000
  20
4576198.293
  30
828.8
  0
VERTEX
  8
PNOA-H_AMS_1956-57_33k_ES_PAN_21mic_H50_0424_fot_46A-10315_E_tif
  70
32
  10
250800.000
  20
4576044.293
  30
831
  0
VERTEX
  8
PNOA-H_AMS_1956-57_33k_ES_PAN_21mic_H50_0424_fot_46A-10315_E_tif
  70
32
  10
250199.500
  20
4576396.793
  30
827
  0
VERTEX
  8
PNOA-H_AMS_1956-57_33k_ES_PAN_21mic_H50_0424_fot_46A-10315_E_tif
  70
32
  10
250469.409
  20
4580051.862
  30
803.638
  0
VERTEX
  8
PNOA-H_AMS_1956-57_33k_ES_PAN_21mic_H50_0424_fot_46A-10315_E_tif
  70
32
  10
250699.513
  20
4580043.898
  30
802.836
  0
SEQEND
  8
PNOA-H_AMS_1956-57_33k_ES_PAN_21mic_H50_0424_fot_46A-10315_E_tif
  0
TEXT
  8
PNOA-H_AMS_1956-57_33k_ES_PAN_21mic_H50_0424_fot_46A-10315_E_tif
 62
0
  1
PNOA-H_AMS_1956-57_33k_ES_PAN_21mic_H50_0424_fot_46A-10315_E.tif
 40
41.50002
  10
251749.785
  20
4578157.147
  0
POLYLINE
  8
PNOA-H_AMS_1956-57_33k_ES_PAN_21mic_H50_0424_fot_46A-10316_E_tif
  70
9
  66
1
  0
VERTEX
  8
PNOA-H_AMS_1956-57_33k_ES_PAN_21mic_H50_0424_fot_46A-10316_E_tif
  70
32
  10
256032.043
  20
4579862.783
  30
804.565
  0
VERTEX
  8
PNOA-H_AMS_1956-57_33k_ES_PAN_21mic_H50_0424_fot_46A-10316_E_tif
  70
32
  10
255754.000
  20
4576039.793
  30
836
  0
VERTEX
  8
PNOA-H_AMS_1956-57_33k_ES_PAN_21mic_H50_0424_fot_46A-10316_E_tif
  70
32
  10
253526.000
  20
4575902.793
  30
826
  0
VERTEX
  8
PNOA-H_AMS_1956-57_33k_ES_PAN_21mic_H50_0424_fot_46A-10316_E_tif
  70
32
  10
253034.000
  20
4576198.293
  30
828.8
  0
VERTEX
  8
PNOA-H_AMS_1956-57_33k_ES_PAN_21mic_H50_0424_fot_46A-10316_E_tif
  70
32
  10
253294.999
  20
4579955.312
  30
809.942
  0
VERTEX
  8
PNOA-H_AMS_1956-57_33k_ES_PAN_21mic_H50_0424_fot_46A-10316_E_tif
  70
32
  10
254186.630
  20
4579924.880
  30
814.183
  0
SEQEND
  8
PNOA-H_AMS_1956-57_33k_ES_PAN_21mic_H50_0424_fot_46A-10316_E_tif
  0
TEXT
  8
PNOA-H_AMS_1956-57_33k_ES_PAN_21mic_H50_0424_fot_46A-10316_E_tif
 62
0
  1
PNOA-H_AMS_1956-57_33k_ES_PAN_21mic_H50_0424_fot_46A-10316_E.tif
 40
41.50002
  10
254534.007
  20
4578086.397
  0
POLYLINE
  8
PNOA-H_AMS_1956-57_33k_ES_PAN_21mic_H50_0424_fot_48A-10203_E_tif
  70
9
  66
1
  0
VERTEX
  8
PNOA-H_AMS_1956-57_33k_ES_PAN_21mic_H50_0424_fot_48A-10203_E_tif
  70
32
  10
253338.000
  20
4571736.293
  30
859
  0
VERTEX
  8
PNOA-H_AMS_1956-57_33k_ES_PAN_21mic_H50_0424_fot_48A-10203_E_tif
  70
32
  10
253356.500
  20
4571738.793
  30
859
  0
VERTEX
  8
PNOA-H_AMS_1956-57_33k_ES_PAN_21mic_H50_0424_fot_48A-10203_E_tif
  70
32
  10
253364.000
  20
4571735.793
  30
859
  0
VERTEX
  8
PNOA-H_AMS_1956-57_33k_ES_PAN_21mic_H50_0424_fot_48A-10203_E_tif
  70
32
  10
254280.500
  20
4571358.293
  30
865
  0
VERTEX
  8
PNOA-H_AMS_1956-57_33k_ES_PAN_21mic_H50_0424_fot_48A-10203_E_tif
  70
32
  10
254167.500
  20
4567091.293
  30
879
  0
VERTEX
  8
PNOA-H_AMS_1956-57_33k_ES_PAN_21mic_H50_0424_fot_48A-10203_E_tif
  70
32
  10
254167.000
  20
4567089.293
  30
879
  0
VERTEX
  8
PNOA-H_AMS_1956-57_33k_ES_PAN_21mic_H50_0424_fot_48A-10203_E_tif
  70
32
  10
254165.000
  20
4567087.793
  30
879
  0
VERTEX
  8
PNOA-H_AMS_1956-57_33k_ES_PAN_21mic_H50_0424_fot_48A-10203_E_tif
  70
32
  10
253997.500
  20
4566993.793
  30
882.85
  0
VERTEX
  8
PNOA-H_AMS_1956-57_33k_ES_PAN_21mic_H50_0424_fot_48A-10203_E_tif
  70
32
  10
251500.500
  20
4567131.293
  30
871
  0
VERTEX
  8
PNOA-H_AMS_1956-57_33k_ES_PAN_21mic_H50_0424_fot_48A-10203_E_tif
  70
32
  10
251581.500
  20
4571451.293
  30
835
  0
VERTEX
  8
PNOA-H_AMS_1956-57_33k_ES_PAN_21mic_H50_0424_fot_48A-10203_E_tif
  70
32
  10
253335.000
  20
4571735.793
  30
859
  0
VERTEX
  8
PNOA-H_AMS_1956-57_33k_ES_PAN_21mic_H50_0424_fot_48A-10203_E_tif
  70
32
  10
253338.000
  20
4571736.293
  30
859
  0
SEQEND
  8
PNOA-H_AMS_1956-57_33k_ES_PAN_21mic_H50_0424_fot_48A-10203_E_tif
  0
TEXT
  8
PNOA-H_AMS_1956-57_33k_ES_PAN_21mic_H50_0424_fot_48A-10203_E_tif
 62
0
  1
PNOA-H_AMS_1956-57_33k_ES_PAN_21mic_H50_0424_fot_48A-10203_E.tif
 40
41.50002
  10
252885.077
  20
4569366.293
  0
POLYLINE
  8
PNOA-H_AMS_1956-57_33k_ES_PAN_21mic_H50_0424_fot_48A-10202_E_tif
  70
9
  66
1
  0
VERTEX
  8
PNOA-H_AMS_1956-57_33k_ES_PAN_21mic_H50_0424_fot_48A-10202_E_tif
  70
32
  10
251508.000
  20
4567541.793
  30
849
  0
VERTEX
  8
PNOA-H_AMS_1956-57_33k_ES_PAN_21mic_H50_0424_fot_48A-10202_E_tif
  70
32
  10
251500.500
  20
4567130.793
  30
871
  0
VERTEX
  8
PNOA-H_AMS_1956-57_33k_ES_PAN_21mic_H50_0424_fot_48A-10202_E_tif
  70
32
  10
251311.000
  20
4567024.793
  30
869.5
  0
VERTEX
  8
PNOA-H_AMS_1956-57_33k_ES_PAN_21mic_H50_0424_fot_48A-10202_E_tif
  70
32
  10
248819.500
  20
4567214.293
  30
832
  0
VERTEX
  8
PNOA-H_AMS_1956-57_33k_ES_PAN_21mic_H50_0424_fot_48A-10202_E_tif
  70
32
  10
248916.000
  20
4571520.793
  30
824
  0
VERTEX
  8
PNOA-H_AMS_1956-57_33k_ES_PAN_21mic_H50_0424_fot_48A-10202_E_tif
  70
32
  10
250640.500
  20
4571824.293
  30
832
  0
VERTEX
  8
PNOA-H_AMS_1956-57_33k_ES_PAN_21mic_H50_0424_fot_48A-10202_E_tif
  70
32
  10
250644.000
  20
4571824.293
  30
832
  0
VERTEX
  8
PNOA-H_AMS_1956-57_33k_ES_PAN_21mic_H50_0424_fot_48A-10202_E_tif
  70
32
  10
250668.000
  20
4571814.793
  30
832
  0
VERTEX
  8
PNOA-H_AMS_1956-57_33k_ES_PAN_21mic_H50_0424_fot_48A-10202_E_tif
  70
32
  10
251581.500
  20
4571451.293
  30
835
  0
VERTEX
  8
PNOA-H_AMS_1956-57_33k_ES_PAN_21mic_H50_0424_fot_48A-10202_E_tif
  70
32
  10
251508.000
  20
4567544.293
  30
848.76
  0
VERTEX
  8
PNOA-H_AMS_1956-57_33k_ES_PAN_21mic_H50_0424_fot_48A-10202_E_tif
  70
32
  10
251508.000
  20
4567541.793
  30
849
  0
SEQEND
  8
PNOA-H_AMS_1956-57_33k_ES_PAN_21mic_H50_0424_fot_48A-10202_E_tif
  0
TEXT
  8
PNOA-H_AMS_1956-57_33k_ES_PAN_21mic_H50_0424_fot_48A-10202_E_tif
 62
0
  1
PNOA-H_AMS_1956-57_33k_ES_PAN_21mic_H50_0424_fot_48A-10202_E.tif
 40
41.50002
  10
250206.200
  20
4569424.543
  0
POLYLINE
  8
PNOA-H_AMS_1956-57_33k_ES_PAN_21mic_H50_0424_fot_49A-10154_W_tif
  70
9
  66
1
  0
VERTEX
  8
PNOA-H_AMS_1956-57_33k_ES_PAN_21mic_H50_0424_fot_49A-10154_W_tif
  70
32
  10
253961.500
  20
4565493.793
  30
869
  0
VERTEX
  8
PNOA-H_AMS_1956-57_33k_ES_PAN_21mic_H50_0424_fot_49A-10154_W_tif
  70
32
  10
253476.000
  20
4563523.793
  30
859
  0
VERTEX
  8
PNOA-H_AMS_1956-57_33k_ES_PAN_21mic_H50_0424_fot_49A-10154_W_tif
  70
32
  10
253474.500
  20
4563521.293
  30
859
  0
VERTEX
  8
PNOA-H_AMS_1956-57_33k_ES_PAN_21mic_H50_0424_fot_49A-10154_W_tif
  70
32
  10
251281.000
  20
4565813.793
  30
871.5
  0
VERTEX
  8
PNOA-H_AMS_1956-57_33k_ES_PAN_21mic_H50_0424_fot_49A-10154_W_tif
  70
32
  10
251310.500
  20
4567024.793
  30
869.5
  0
VERTEX
  8
PNOA-H_AMS_1956-57_33k_ES_PAN_21mic_H50_0424_fot_49A-10154_W_tif
  70
32
  10
251500.500
  20
4567131.293
  30
871
  0
VERTEX
  8
PNOA-H_AMS_1956-57_33k_ES_PAN_21mic_H50_0424_fot_49A-10154_W_tif
  70
32
  10
253997.000
  20
4566993.793
  30
882.82
  0
VERTEX
  8
PNOA-H_AMS_1956-57_33k_ES_PAN_21mic_H50_0424_fot_49A-10154_W_tif
  70
32
  10
253976.500
  20
4565573.293
  30
867
  0
VERTEX
  8
PNOA-H_AMS_1956-57_33k_ES_PAN_21mic_H50_0424_fot_49A-10154_W_tif
  70
32
  10
253976.000
  20
4565552.293
  30
869
  0
VERTEX
  8
PNOA-H_AMS_1956-57_33k_ES_PAN_21mic_H50_0424_fot_49A-10154_W_tif
  70
32
  10
253961.500
  20
4565495.793
  30
869
  0
VERTEX
  8
PNOA-H_AMS_1956-57_33k_ES_PAN_21mic_H50_0424_fot_49A-10154_W_tif
  70
32
  10
253961.500
  20
4565493.793
  30
869
  0
SEQEND
  8
PNOA-H_AMS_1956-57_33k_ES_PAN_21mic_H50_0424_fot_49A-10154_W_tif
  0
TEXT
  8
PNOA-H_AMS_1956-57_33k_ES_PAN_21mic_H50_0424_fot_49A-10154_W_tif
 62
0
  1
PNOA-H_AMS_1956-57_33k_ES_PAN_21mic_H50_0424_fot_49A-10154_W.tif
 40
41.50002
  10
252833.834
  20
4565326.293
  0
POLYLINE
  8
PNOA-H_AMS_1956-57_33k_ES_PAN_21mic_H50_0424_fot_49A-10155_W_tif
  70
9
  66
1
  0
VERTEX
  8
PNOA-H_AMS_1956-57_33k_ES_PAN_21mic_H50_0424_fot_49A-10155_W_tif
  70
32
  10
251290.500
  20
4567026.293
  30
870
  0
VERTEX
  8
PNOA-H_AMS_1956-57_33k_ES_PAN_21mic_H50_0424_fot_49A-10155_W_tif
  70
32
  10
251310.500
  20
4567024.793
  30
869.5
  0
VERTEX
  8
PNOA-H_AMS_1956-57_33k_ES_PAN_21mic_H50_0424_fot_49A-10155_W_tif
  70
32
  10
251310.500
  20
4567007.793
  30
869
  0
VERTEX
  8
PNOA-H_AMS_1956-57_33k_ES_PAN_21mic_H50_0424_fot_49A-10155_W_tif
  70
32
  10
251281.000
  20
4565813.793
  30
871.5
  0
VERTEX
  8
PNOA-H_AMS_1956-57_33k_ES_PAN_21mic_H50_0424_fot_49A-10155_W_tif
  70
32
  10
250444.000
  20
4562529.793
  30
824
  0
VERTEX
  8
PNOA-H_AMS_1956-57_33k_ES_PAN_21mic_H50_0424_fot_49A-10155_W_tif
  70
32
  10
248436.000
  20
4562887.293
  30
817.8
  0
VERTEX
  8
PNOA-H_AMS_1956-57_33k_ES_PAN_21mic_H50_0424_fot_49A-10155_W_tif
  70
32
  10
248586.000
  20
4567086.793
  30
821
  0
VERTEX
  8
PNOA-H_AMS_1956-57_33k_ES_PAN_21mic_H50_0424_fot_49A-10155_W_tif
  70
32
  10
248815.000
  20
4567212.293
  30
832
  0
VERTEX
  8
PNOA-H_AMS_1956-57_33k_ES_PAN_21mic_H50_0424_fot_49A-10155_W_tif
  70
32
  10
248819.000
  20
4567214.293
  30
832
  0
VERTEX
  8
PNOA-H_AMS_1956-57_33k_ES_PAN_21mic_H50_0424_fot_49A-10155_W_tif
  70
32
  10
248823.500
  20
4567214.293
  30
832
  0
VERTEX
  8
PNOA-H_AMS_1956-57_33k_ES_PAN_21mic_H50_0424_fot_49A-10155_W_tif
  70
32
  10
251287.000
  20
4567026.293
  30
870
  0
VERTEX
  8
PNOA-H_AMS_1956-57_33k_ES_PAN_21mic_H50_0424_fot_49A-10155_W_tif
  70
32
  10
251290.500
  20
4567026.293
  30
870
  0
SEQEND
  8
PNOA-H_AMS_1956-57_33k_ES_PAN_21mic_H50_0424_fot_49A-10155_W_tif
  0
TEXT
  8
PNOA-H_AMS_1956-57_33k_ES_PAN_21mic_H50_0424_fot_49A-10155_W_tif
 62
0
  1
PNOA-H_AMS_1956-57_33k_ES_PAN_21mic_H50_0424_fot_49A-10155_W.tif
 40
41.50002
  10
249773.933
  20
4564872.043
  0
POLYLINE
  8
PNOA-H_AMS_1956-57_33k_ES_PAN_21mic_H50_0424_fot_49B-08767_W_tif
  70
9
  66
1
  0
VERTEX
  8
PNOA-H_AMS_1956-57_33k_ES_PAN_21mic_H50_0424_fot_49B-08767_W_tif
  70
32
  10
253475.000
  20
4563521.793
  30
859
  0
VERTEX
  8
PNOA-H_AMS_1956-57_33k_ES_PAN_21mic_H50_0424_fot_49B-08767_W_tif
  70
32
  10
253976.000
  20
4565552.793
  30
868.9
  0
VERTEX
  8
PNOA-H_AMS_1956-57_33k_ES_PAN_21mic_H50_0424_fot_49B-08767_W_tif
  70
32
  10
256244.500
  20
4563656.793
  30
840.91
  0
VERTEX
  8
PNOA-H_AMS_1956-57_33k_ES_PAN_21mic_H50_0424_fot_49B-08767_W_tif
  70
32
  10
256247.000
  20
4563653.793
  30
840.58
  0
VERTEX
  8
PNOA-H_AMS_1956-57_33k_ES_PAN_21mic_H50_0424_fot_49B-08767_W_tif
  70
32
  10
256240.500
  20
4563447.293
  30
845
  0
VERTEX
  8
PNOA-H_AMS_1956-57_33k_ES_PAN_21mic_H50_0424_fot_49B-08767_W_tif
  70
32
  10
256240.500
  20
4563445.793
  30
845
  0
VERTEX
  8
PNOA-H_AMS_1956-57_33k_ES_PAN_21mic_H50_0424_fot_49B-08767_W_tif
  70
32
  10
256208.500
  20
4562330.793
  30
837
  0
VERTEX
  8
PNOA-H_AMS_1956-57_33k_ES_PAN_21mic_H50_0424_fot_49B-08767_W_tif
  70
32
  10
255876.500
  20
4562149.293
  30
829
  0
VERTEX
  8
PNOA-H_AMS_1956-57_33k_ES_PAN_21mic_H50_0424_fot_49B-08767_W_tif
  70
32
  10
253455.000
  20
4562443.293
  30
850
  0
SEQEND
  8
PNOA-H_AMS_1956-57_33k_ES_PAN_21mic_H50_0424_fot_49B-08767_W_tif
  0
TEXT
  8
PNOA-H_AMS_1956-57_33k_ES_PAN_21mic_H50_0424_fot_49B-08767_W_tif
 62
0
  1
PNOA-H_AMS_1956-57_33k_ES_PAN_21mic_H50_0424_fot_49B-08767_W.tif
 40
41.50002
  10
254784.152
  20
4563851.043
  0
POLYLINE
  8
PNOA-H_AMS_1956-57_33k_ES_PAN_21mic_H50_0424_fot_000-08768_R_tif
  70
9
  66
1
  0
VERTEX
  8
PNOA-H_AMS_1956-57_33k_ES_PAN_21mic_H50_0424_fot_000-08768_R_tif
  70
32
  10
251280.500
  20
4565813.793
  30
871.4
  0
VERTEX
  8
PNOA-H_AMS_1956-57_33k_ES_PAN_21mic_H50_0424_fot_000-08768_R_tif
  70
32
  10
251300.000
  20
4565794.793
  30
873
  0
VERTEX
  8
PNOA-H_AMS_1956-57_33k_ES_PAN_21mic_H50_0424_fot_000-08768_R_tif
  70
32
  10
253475.000
  20
4563521.293
  30
859
  0
VERTEX
  8
PNOA-H_AMS_1956-57_33k_ES_PAN_21mic_H50_0424_fot_000-08768_R_tif
  70
32
  10
253455.500
  20
4562444.293
  30
850
  0
VERTEX
  8
PNOA-H_AMS_1956-57_33k_ES_PAN_21mic_H50_0424_fot_000-08768_R_tif
  70
32
  10
253451.000
  20
4562440.793
  30
850
  0
VERTEX
  8
PNOA-H_AMS_1956-57_33k_ES_PAN_21mic_H50_0424_fot_000-08768_R_tif
  70
32
  10
253135.000
  20
4562270.793
  30
845
  0
VERTEX
  8
PNOA-H_AMS_1956-57_33k_ES_PAN_21mic_H50_0424_fot_000-08768_R_tif
  70
32
  10
250490.500
  20
4562494.293
  30
821
  0
VERTEX
  8
PNOA-H_AMS_1956-57_33k_ES_PAN_21mic_H50_0424_fot_000-08768_R_tif
  70
32
  10
250444.000
  20
4562529.293
  30
824
  0
VERTEX
  8
PNOA-H_AMS_1956-57_33k_ES_PAN_21mic_H50_0424_fot_000-08768_R_tif
  70
32
  10
251280.500
  20
4565811.793
  30
871.1
  0
VERTEX
  8
PNOA-H_AMS_1956-57_33k_ES_PAN_21mic_H50_0424_fot_000-08768_R_tif
  70
32
  10
251280.500
  20
4565813.793
  30
871.4
  0
SEQEND
  8
PNOA-H_AMS_1956-57_33k_ES_PAN_21mic_H50_0424_fot_000-08768_R_tif
  0
TEXT
  8
PNOA-H_AMS_1956-57_33k_ES_PAN_21mic_H50_0424_fot_000-08768_R_tif
 62
0
  1
PNOA-H_AMS_1956-57_33k_ES_PAN_21mic_H50_0424_fot_000-08768_R.tif
 40
41.50002
  10
251903.070
  20
4564042.293
  0
POLYLINE
  8
PNOA-H_AMS_1956-57_33k_ES_PAN_21mic_H50_0451_fot_50A-08793_E_tif
  70
9
  66
1
  0
VERTEX
  8
PNOA-H_AMS_1956-57_33k_ES_PAN_21mic_H50_0451_fot_50A-08793_E_tif
  70
32
  10
253105.800
  20
4561434.749
  30
833.729
  0
VERTEX
  8
PNOA-H_AMS_1956-57_33k_ES_PAN_21mic_H50_0451_fot_50A-08793_E_tif
  70
32
  10
250457.051
  20
4561524.854
  30
818.638
  0
VERTEX
  8
PNOA-H_AMS_1956-57_33k_ES_PAN_21mic_H50_0451_fot_50A-08793_E_tif
  70
32
  10
250490.000
  20
4562494.793
  30
821
  0
VERTEX
  8
PNOA-H_AMS_1956-57_33k_ES_PAN_21mic_H50_0451_fot_50A-08793_E_tif
  70
32
  10
251288.500
  20
4562426.793
  30
809
  0
VERTEX
  8
PNOA-H_AMS_1956-57_33k_ES_PAN_21mic_H50_0451_fot_50A-08793_E_tif
  70
32
  10
251290.500
  20
4562426.793
  30
809
  0
VERTEX
  8
PNOA-H_AMS_1956-57_33k_ES_PAN_21mic_H50_0451_fot_50A-08793_E_tif
  70
32
  10
253134.500
  20
4562270.793
  30
845
  0
SEQEND
  8
PNOA-H_AMS_1956-57_33k_ES_PAN_21mic_H50_0451_fot_50A-08793_E_tif
  0
TEXT
  8
PNOA-H_AMS_1956-57_33k_ES_PAN_21mic_H50_0451_fot_50A-08793_E_tif
 62
0
  1
PNOA-H_AMS_1956-57_33k_ES_PAN_21mic_H50_0451_fot_50A-08793_E.tif
 40
41.50002
  10
251795.775
  20
4561964.771
  0
POLYLINE
  8
PNOA-H_AMS_1956-57_33k_ES_PAN_21mic_H50_0451_fot_50A-08792_E_tif
  70
9
  66
1
  0
VERTEX
  8
PNOA-H_AMS_1956-57_33k_ES_PAN_21mic_H50_0451_fot_50A-08792_E_tif
  70
32
  10
250457.051
  20
4561524.854
  30
818.638
  0
VERTEX
  8
PNOA-H_AMS_1956-57_33k_ES_PAN_21mic_H50_0451_fot_50A-08792_E_tif
  70
32
  10
250064.497
  20
4561538.208
  30
818.638
  0
VERTEX
  8
PNOA-H_AMS_1956-57_33k_ES_PAN_21mic_H50_0451_fot_50A-08792_E_tif
  70
32
  10
247753.865
  20
4561617.919
  30
814.743
  0
VERTEX
  8
PNOA-H_AMS_1956-57_33k_ES_PAN_21mic_H50_0451_fot_50A-08792_E_tif
  70
32
  10
247791.000
  20
4562621.293
  30
822.16
  0
VERTEX
  8
PNOA-H_AMS_1956-57_33k_ES_PAN_21mic_H50_0451_fot_50A-08792_E_tif
  70
32
  10
248436.000
  20
4562887.293
  30
817.8
  0
VERTEX
  8
PNOA-H_AMS_1956-57_33k_ES_PAN_21mic_H50_0451_fot_50A-08792_E_tif
  70
32
  10
249240.000
  20
4562743.793
  30
790
  0
VERTEX
  8
PNOA-H_AMS_1956-57_33k_ES_PAN_21mic_H50_0451_fot_50A-08792_E_tif
  70
32
  10
249242.500
  20
4562743.293
  30
790
  0
VERTEX
  8
PNOA-H_AMS_1956-57_33k_ES_PAN_21mic_H50_0451_fot_50A-08792_E_tif
  70
32
  10
250439.500
  20
4562530.793
  30
824
  0
VERTEX
  8
PNOA-H_AMS_1956-57_33k_ES_PAN_21mic_H50_0451_fot_50A-08792_E_tif
  70
32
  10
250445.500
  20
4562528.793
  30
824
  0
VERTEX
  8
PNOA-H_AMS_1956-57_33k_ES_PAN_21mic_H50_0451_fot_50A-08792_E_tif
  70
32
  10
250490.000
  20
4562494.793
  30
821
  0
SEQEND
  8
PNOA-H_AMS_1956-57_33k_ES_PAN_21mic_H50_0451_fot_50A-08792_E_tif
  0
TEXT
  8
PNOA-H_AMS_1956-57_33k_ES_PAN_21mic_H50_0451_fot_50A-08792_E_tif
 62
0
  1
PNOA-H_AMS_1956-57_33k_ES_PAN_21mic_H50_0451_fot_50A-08792_E.tif
 40
41.50002
  10
249121.933
  20
4562206.074
  0
POLYLINE
  8
PNOA-H_AMS_1956-57_33k_ES_PAN_21mic_H50_0451_fot_50A-08794_E_tif
  70
9
  66
1
  0
VERTEX
  8
PNOA-H_AMS_1956-57_33k_ES_PAN_21mic_H50_0451_fot_50A-08794_E_tif
  70
32
  10
255838.199
  20
4561342.893
  30
826.845
  0
VERTEX
  8
PNOA-H_AMS_1956-57_33k_ES_PAN_21mic_H50_0451_fot_50A-08794_E_tif
  70
32
  10
253560.514
  20
4561419.281
  30
833.789
  0
VERTEX
  8
PNOA-H_AMS_1956-57_33k_ES_PAN_21mic_H50_0451_fot_50A-08794_E_tif
  70
32
  10
253105.448
  20
4561434.761
  30
833.787
  0
VERTEX
  8
PNOA-H_AMS_1956-57_33k_ES_PAN_21mic_H50_0451_fot_50A-08794_E_tif
  70
32
  10
253134.000
  20
4562266.293
  30
845
  0
VERTEX
  8
PNOA-H_AMS_1956-57_33k_ES_PAN_21mic_H50_0451_fot_50A-08794_E_tif
  70
32
  10
253135.500
  20
4562271.793
  30
845
  0
VERTEX
  8
PNOA-H_AMS_1956-57_33k_ES_PAN_21mic_H50_0451_fot_50A-08794_E_tif
  70
32
  10
253336.500
  20
4562379.793
  30
848
  0
VERTEX
  8
PNOA-H_AMS_1956-57_33k_ES_PAN_21mic_H50_0451_fot_50A-08794_E_tif
  70
32
  10
253337.500
  20
4562380.293
  30
848
  0
VERTEX
  8
PNOA-H_AMS_1956-57_33k_ES_PAN_21mic_H50_0451_fot_50A-08794_E_tif
  70
32
  10
253451.500
  20
4562441.793
  30
850
  0
VERTEX
  8
PNOA-H_AMS_1956-57_33k_ES_PAN_21mic_H50_0451_fot_50A-08794_E_tif
  70
32
  10
253454.500
  20
4562443.293
  30
850
  0
VERTEX
  8
PNOA-H_AMS_1956-57_33k_ES_PAN_21mic_H50_0451_fot_50A-08794_E_tif
  70
32
  10
253458.500
  20
4562443.293
  30
850
  0
VERTEX
  8
PNOA-H_AMS_1956-57_33k_ES_PAN_21mic_H50_0451_fot_50A-08794_E_tif
  70
32
  10
255875.500
  20
4562149.293
  30
829
  0
SEQEND
  8
PNOA-H_AMS_1956-57_33k_ES_PAN_21mic_H50_0451_fot_50A-08794_E_tif
  0
TEXT
  8
PNOA-H_AMS_1956-57_33k_ES_PAN_21mic_H50_0451_fot_50A-08794_E_tif
 62
0
  1
PNOA-H_AMS_1956-57_33k_ES_PAN_21mic_H50_0451_fot_50A-08794_E.tif
 40
41.50002
  10
254490.474
  20
4561893.093
  0
POLYLINE
  8
PNOA-H_AMS_1956-57_33k_ES_PAN_21mic_H50_0424_fot_47A-06518_E_tif
  70
9
  66
1
  0
VERTEX
  8
PNOA-H_AMS_1956-57_33k_ES_PAN_21mic_H50_0424_fot_47A-06518_E_tif
  70
32
  10
257428.000
  20
4575813.293
  30
822
  0
VERTEX
  8
PNOA-H_AMS_1956-57_33k_ES_PAN_21mic_H50_0424_fot_47A-06518_E_tif
  70
32
  10
258573.500
  20
4575879.793
  30
822.85
  0
VERTEX
  8
PNOA-H_AMS_1956-57_33k_ES_PAN_21mic_H50_0424_fot_47A-06518_E_tif
  70
32
  10
258981.500
  20
4575611.793
  30
829.7
  0
VERTEX
  8
PNOA-H_AMS_1956-57_33k_ES_PAN_21mic_H50_0424_fot_47A-06518_E_tif
  70
32
  10
258747.500
  20
4571573.293
  30
860.1
  0
VERTEX
  8
PNOA-H_AMS_1956-57_33k_ES_PAN_21mic_H50_0424_fot_47A-06518_E_tif
  70
32
  10
258747.000
  20
4571571.293
  30
860.12
  0
VERTEX
  8
PNOA-H_AMS_1956-57_33k_ES_PAN_21mic_H50_0424_fot_47A-06518_E_tif
  70
32
  10
256976.000
  20
4571257.293
  30
900
  0
VERTEX
  8
PNOA-H_AMS_1956-57_33k_ES_PAN_21mic_H50_0424_fot_47A-06518_E_tif
  70
32
  10
256972.500
  20
4571257.293
  30
900.5
  0
VERTEX
  8
PNOA-H_AMS_1956-57_33k_ES_PAN_21mic_H50_0424_fot_47A-06518_E_tif
  70
32
  10
256964.000
  20
4571260.793
  30
901.14
  0
VERTEX
  8
PNOA-H_AMS_1956-57_33k_ES_PAN_21mic_H50_0424_fot_47A-06518_E_tif
  70
32
  10
256038.000
  20
4571644.793
  30
908
  0
VERTEX
  8
PNOA-H_AMS_1956-57_33k_ES_PAN_21mic_H50_0424_fot_47A-06518_E_tif
  70
32
  10
256235.500
  20
4575739.793
  30
837
  0
VERTEX
  8
PNOA-H_AMS_1956-57_33k_ES_PAN_21mic_H50_0424_fot_47A-06518_E_tif
  70
32
  10
256236.000
  20
4575743.793
  30
837
  0
VERTEX
  8
PNOA-H_AMS_1956-57_33k_ES_PAN_21mic_H50_0424_fot_47A-06518_E_tif
  70
32
  10
256243.000
  20
4575744.293
  30
837
  0
VERTEX
  8
PNOA-H_AMS_1956-57_33k_ES_PAN_21mic_H50_0424_fot_47A-06518_E_tif
  70
32
  10
257419.500
  20
4575812.793
  30
822
  0
VERTEX
  8
PNOA-H_AMS_1956-57_33k_ES_PAN_21mic_H50_0424_fot_47A-06518_E_tif
  70
32
  10
257428.000
  20
4575813.293
  30
822
  0
SEQEND
  8
PNOA-H_AMS_1956-57_33k_ES_PAN_21mic_H50_0424_fot_47A-06518_E_tif
  0
TEXT
  8
PNOA-H_AMS_1956-57_33k_ES_PAN_21mic_H50_0424_fot_47A-06518_E_tif
 62
0
  1
PNOA-H_AMS_1956-57_33k_ES_PAN_21mic_H50_0424_fot_47A-06518_E.tif
 40
41.50002
  10
257496.945
  20
4573568.543
  0
POLYLINE
  8
PNOA-H_AMS_1956-57_33k_ES_PAN_21mic_H50_0424_fot_47A-06519_E_tif
  70
9
  66
1
  0
VERTEX
  8
PNOA-H_AMS_1956-57_33k_ES_PAN_21mic_H50_0424_fot_47A-06519_E_tif
  70
32
  10
261029.010
  20
4575687.413
  30
851.21
  0
VERTEX
  8
PNOA-H_AMS_1956-57_33k_ES_PAN_21mic_H50_0424_fot_47A-06519_E_tif
  70
32
  10
261008.545
  20
4575065.491
  30
861.782
  0
VERTEX
  8
PNOA-H_AMS_1956-57_33k_ES_PAN_21mic_H50_0424_fot_47A-06519_E_tif
  70
32
  10
260932.457
  20
4572752.304
  30
866.129
  0
VERTEX
  8
PNOA-H_AMS_1956-57_33k_ES_PAN_21mic_H50_0424_fot_47A-06519_E_tif
  70
32
  10
260885.722
  20
4571330.867
  30
867.426
  0
VERTEX
  8
PNOA-H_AMS_1956-57_33k_ES_PAN_21mic_H50_0424_fot_47A-06519_E_tif
  70
32
  10
259724.500
  20
4571151.293
  30
860
  0
VERTEX
  8
PNOA-H_AMS_1956-57_33k_ES_PAN_21mic_H50_0424_fot_47A-06519_E_tif
  70
32
  10
259712.000
  20
4571155.793
  30
860.6
  0
VERTEX
  8
PNOA-H_AMS_1956-57_33k_ES_PAN_21mic_H50_0424_fot_47A-06519_E_tif
  70
32
  10
258747.000
  20
4571571.793
  30
860.06
  0
VERTEX
  8
PNOA-H_AMS_1956-57_33k_ES_PAN_21mic_H50_0424_fot_47A-06519_E_tif
  70
32
  10
258981.000
  20
4575609.793
  30
829.8
  0
VERTEX
  8
PNOA-H_AMS_1956-57_33k_ES_PAN_21mic_H50_0424_fot_47A-06519_E_tif
  70
32
  10
258981.500
  20
4575611.793
  30
829.7
  0
VERTEX
  8
PNOA-H_AMS_1956-57_33k_ES_PAN_21mic_H50_0424_fot_47A-06519_E_tif
  70
32
  10
259466.000
  20
4575629.793
  30
817.3
  0
VERTEX
  8
PNOA-H_AMS_1956-57_33k_ES_PAN_21mic_H50_0424_fot_47A-06519_E_tif
  70
32
  10
259479.500
  20
4575630.293
  30
815.1
  0
SEQEND
  8
PNOA-H_AMS_1956-57_33k_ES_PAN_21mic_H50_0424_fot_47A-06519_E_tif
  0
TEXT
  8
PNOA-H_AMS_1956-57_33k_ES_PAN_21mic_H50_0424_fot_47A-06519_E_tif
 62
0
  1
PNOA-H_AMS_1956-57_33k_ES_PAN_21mic_H50_0424_fot_47A-06519_E.tif
 40
41.50002
  10
259982.161
  20
4573423.795
  0
POLYLINE
  8
PNOA-H_AMS_1956-57_33k_ES_PAN_21mic_H50_0424_fot_46A-10317_E_tif
  70
9
  66
1
  0
VERTEX
  8
PNOA-H_AMS_1956-57_33k_ES_PAN_21mic_H50_0424_fot_46A-10317_E_tif
  70
32
  10
258774.683
  20
4579771.026
  30
793.22
  0
VERTEX
  8
PNOA-H_AMS_1956-57_33k_ES_PAN_21mic_H50_0424_fot_46A-10317_E_tif
  70
32
  10
258574.500
  20
4575897.293
  30
820.9
  0
VERTEX
  8
PNOA-H_AMS_1956-57_33k_ES_PAN_21mic_H50_0424_fot_46A-10317_E_tif
  70
32
  10
258573.500
  20
4575879.793
  30
822.85
  0
VERTEX
  8
PNOA-H_AMS_1956-57_33k_ES_PAN_21mic_H50_0424_fot_46A-10317_E_tif
  70
32
  10
258570.000
  20
4575879.293
  30
822.6
  0
VERTEX
  8
PNOA-H_AMS_1956-57_33k_ES_PAN_21mic_H50_0424_fot_46A-10317_E_tif
  70
32
  10
256235.500
  20
4575743.793
  30
837
  0
VERTEX
  8
PNOA-H_AMS_1956-57_33k_ES_PAN_21mic_H50_0424_fot_46A-10317_E_tif
  70
32
  10
255754.000
  20
4576039.293
  30
836
  0
VERTEX
  8
PNOA-H_AMS_1956-57_33k_ES_PAN_21mic_H50_0424_fot_46A-10317_E_tif
  70
32
  10
256031.651
  20
4579862.796
  30
804.585
  0
VERTEX
  8
PNOA-H_AMS_1956-57_33k_ES_PAN_21mic_H50_0424_fot_46A-10317_E_tif
  70
32
  10
257673.730
  20
4579807.542
  30
796.178
  0
SEQEND
  8
PNOA-H_AMS_1956-57_33k_ES_PAN_21mic_H50_0424_fot_46A-10317_E_tif
  0
TEXT
  8
PNOA-H_AMS_1956-57_33k_ES_PAN_21mic_H50_0424_fot_46A-10317_E_tif
 62
0
  1
PNOA-H_AMS_1956-57_33k_ES_PAN_21mic_H50_0424_fot_46A-10317_E.tif
 40
41.50002
  10
257282.742
  20
4577886.897
  0
POLYLINE
  8
PNOA-H_AMS_1956-57_33k_ES_PAN_21mic_H50_0424_fot_46A-10318_E_tif
  70
9
  66
1
  0
VERTEX
  8
PNOA-H_AMS_1956-57_33k_ES_PAN_21mic_H50_0424_fot_46A-10318_E_tif
  70
32
  10
261029.010
  20
4575687.412
  30
854.7
  0
VERTEX
  8
PNOA-H_AMS_1956-57_33k_ES_PAN_21mic_H50_0424_fot_46A-10318_E_tif
  70
32
  10
258980.500
  20
4575611.793
  30
829.9
  0
VERTEX
  8
PNOA-H_AMS_1956-57_33k_ES_PAN_21mic_H50_0424_fot_46A-10318_E_tif
  70
32
  10
258573.500
  20
4575879.293
  30
822.88
  0
VERTEX
  8
PNOA-H_AMS_1956-57_33k_ES_PAN_21mic_H50_0424_fot_46A-10318_E_tif
  70
32
  10
258774.256
  20
4579771.040
  30
793.386
  0
VERTEX
  8
PNOA-H_AMS_1956-57_33k_ES_PAN_21mic_H50_0424_fot_46A-10318_E_tif
  70
32
  10
261160.814
  20
4579691.883
  30
772.226
  0
VERTEX
  8
PNOA-H_AMS_1956-57_33k_ES_PAN_21mic_H50_0424_fot_46A-10318_E_tif
  70
32
  10
261084.664
  20
4577378.684
  30
821.663
  0
SEQEND
  8
PNOA-H_AMS_1956-57_33k_ES_PAN_21mic_H50_0424_fot_46A-10318_E_tif
  0
TEXT
  8
PNOA-H_AMS_1956-57_33k_ES_PAN_21mic_H50_0424_fot_46A-10318_E_tif
 62
0
  1
PNOA-H_AMS_1956-57_33k_ES_PAN_21mic_H50_0424_fot_46A-10318_E.tif
 40
41.50002
  10
259971.829
  20
4577820.897
  0
POLYLINE
  8
PNOA-H_AMS_1956-57_33k_ES_PAN_21mic_H50_0424_fot_48A-10204_E_tif
  70
9
  66
1
  0
VERTEX
  8
PNOA-H_AMS_1956-57_33k_ES_PAN_21mic_H50_0424_fot_48A-10204_E_tif
  70
32
  10
256036.500
  20
4571644.793
  30
908
  0
VERTEX
  8
PNOA-H_AMS_1956-57_33k_ES_PAN_21mic_H50_0424_fot_48A-10204_E_tif
  70
32
  10
256043.500
  20
4571642.793
  30
908.7
  0
VERTEX
  8
PNOA-H_AMS_1956-57_33k_ES_PAN_21mic_H50_0424_fot_48A-10204_E_tif
  70
32
  10
256973.500
  20
4571257.293
  30
900.3
  0
VERTEX
  8
PNOA-H_AMS_1956-57_33k_ES_PAN_21mic_H50_0424_fot_48A-10204_E_tif
  70
32
  10
256914.000
  20
4567017.793
  30
887.1
  0
VERTEX
  8
PNOA-H_AMS_1956-57_33k_ES_PAN_21mic_H50_0424_fot_48A-10204_E_tif
  70
32
  10
256751.500
  20
4566921.293
  30
884.06
  0
VERTEX
  8
PNOA-H_AMS_1956-57_33k_ES_PAN_21mic_H50_0424_fot_48A-10204_E_tif
  70
32
  10
254167.000
  20
4567089.293
  30
879
  0
VERTEX
  8
PNOA-H_AMS_1956-57_33k_ES_PAN_21mic_H50_0424_fot_48A-10204_E_tif
  70
32
  10
254280.500
  20
4571357.793
  30
865
  0
VERTEX
  8
PNOA-H_AMS_1956-57_33k_ES_PAN_21mic_H50_0424_fot_48A-10204_E_tif
  70
32
  10
256033.000
  20
4571644.293
  30
907.84
  0
VERTEX
  8
PNOA-H_AMS_1956-57_33k_ES_PAN_21mic_H50_0424_fot_48A-10204_E_tif
  70
32
  10
256036.500
  20
4571644.793
  30
908
  0
SEQEND
  8
PNOA-H_AMS_1956-57_33k_ES_PAN_21mic_H50_0424_fot_48A-10204_E_tif
  0
TEXT
  8
PNOA-H_AMS_1956-57_33k_ES_PAN_21mic_H50_0424_fot_48A-10204_E_tif
 62
0
  1
PNOA-H_AMS_1956-57_33k_ES_PAN_21mic_H50_0424_fot_48A-10204_E.tif
 40
41.50002
  10
255585.562
  20
4569283.043
  0
POLYLINE
  8
PNOA-H_AMS_1956-57_33k_ES_PAN_21mic_H50_0424_fot_48A-10205_E_tif
  70
9
  66
1
  0
VERTEX
  8
PNOA-H_AMS_1956-57_33k_ES_PAN_21mic_H50_0424_fot_48A-10205_E_tif
  70
32
  10
257432.500
  20
4571338.793
  30
891
  0
VERTEX
  8
PNOA-H_AMS_1956-57_33k_ES_PAN_21mic_H50_0424_fot_48A-10205_E_tif
  70
32
  10
258747.500
  20
4571571.793
  30
860.05
  0
VERTEX
  8
PNOA-H_AMS_1956-57_33k_ES_PAN_21mic_H50_0424_fot_48A-10205_E_tif
  70
32
  10
259723.000
  20
4571151.293
  30
860
  0
VERTEX
  8
PNOA-H_AMS_1956-57_33k_ES_PAN_21mic_H50_0424_fot_48A-10205_E_tif
  70
32
  10
259551.500
  20
4566899.793
  30
924.5
  0
VERTEX
  8
PNOA-H_AMS_1956-57_33k_ES_PAN_21mic_H50_0424_fot_48A-10205_E_tif
  70
32
  10
256914.000
  20
4567017.793
  30
887.1
  0
VERTEX
  8
PNOA-H_AMS_1956-57_33k_ES_PAN_21mic_H50_0424_fot_48A-10205_E_tif
  70
32
  10
256973.500
  20
4571257.293
  30
900.3
  0
VERTEX
  8
PNOA-H_AMS_1956-57_33k_ES_PAN_21mic_H50_0424_fot_48A-10205_E_tif
  70
32
  10
257430.000
  20
4571338.293
  30
891
  0
VERTEX
  8
PNOA-H_AMS_1956-57_33k_ES_PAN_21mic_H50_0424_fot_48A-10205_E_tif
  70
32
  10
257432.500
  20
4571338.793
  30
891
  0
SEQEND
  8
PNOA-H_AMS_1956-57_33k_ES_PAN_21mic_H50_0424_fot_48A-10205_E_tif
  0
TEXT
  8
PNOA-H_AMS_1956-57_33k_ES_PAN_21mic_H50_0424_fot_48A-10205_E_tif
 62
0
  1
PNOA-H_AMS_1956-57_33k_ES_PAN_21mic_H50_0424_fot_48A-10205_E.tif
 40
41.50002
  10
258295.430
  20
4569235.793
  0
POLYLINE
  8
PNOA-H_AMS_1956-57_33k_ES_PAN_21mic_H50_0425_fot_48A-10206_E_tif
  70
9
  66
1
  0
VERTEX
  8
PNOA-H_AMS_1956-57_33k_ES_PAN_21mic_H50_0425_fot_48A-10206_E_tif
  70
32
  10
260885.735
  20
4571331.287
  30
867.362
  0
VERTEX
  8
PNOA-H_AMS_1956-57_33k_ES_PAN_21mic_H50_0425_fot_48A-10206_E_tif
  70
32
  10
260856.402
  20
4570439.123
  30
870.46
  0
VERTEX
  8
PNOA-H_AMS_1956-57_33k_ES_PAN_21mic_H50_0425_fot_48A-10206_E_tif
  70
32
  10
260780.378
  20
4568125.949
  30
889.686
  0
VERTEX
  8
PNOA-H_AMS_1956-57_33k_ES_PAN_21mic_H50_0425_fot_48A-10206_E_tif
  70
32
  10
260730.041
  20
4566593.732
  30
906.531
  0
VERTEX
  8
PNOA-H_AMS_1956-57_33k_ES_PAN_21mic_H50_0425_fot_48A-10206_E_tif
  70
32
  10
259846.000
  20
4566698.293
  30
919
  0
VERTEX
  8
PNOA-H_AMS_1956-57_33k_ES_PAN_21mic_H50_0425_fot_48A-10206_E_tif
  70
32
  10
259551.500
  20
4566899.293
  30
924.4
  0
VERTEX
  8
PNOA-H_AMS_1956-57_33k_ES_PAN_21mic_H50_0425_fot_48A-10206_E_tif
  70
32
  10
259723.000
  20
4571151.293
  30
860
  0
SEQEND
  8
PNOA-H_AMS_1956-57_33k_ES_PAN_21mic_H50_0425_fot_48A-10206_E_tif
  0
TEXT
  8
PNOA-H_AMS_1956-57_33k_ES_PAN_21mic_H50_0425_fot_48A-10206_E_tif
 62
0
  1
PNOA-H_AMS_1956-57_33k_ES_PAN_21mic_H50_0425_fot_48A-10206_E.tif
 40
41.50002
  10
260297.435
  20
4568966.268
  0
POLYLINE
  8
PNOA-H_AMS_1956-57_33k_ES_PAN_21mic_H50_0424_fot_49B-08765_W_tif
  70
9
  66
1
  0
VERTEX
  8
PNOA-H_AMS_1956-57_33k_ES_PAN_21mic_H50_0424_fot_49B-08765_W_tif
  70
32
  10
260730.041
  20
4566593.705
  30
906.53
  0
VERTEX
  8
PNOA-H_AMS_1956-57_33k_ES_PAN_21mic_H50_0424_fot_49B-08765_W_tif
  70
32
  10
260704.386
  20
4565812.781
  30
911.493
  0
VERTEX
  8
PNOA-H_AMS_1956-57_33k_ES_PAN_21mic_H50_0424_fot_49B-08765_W_tif
  70
32
  10
260628.425
  20
4563499.619
  30
880.17
  0
VERTEX
  8
PNOA-H_AMS_1956-57_33k_ES_PAN_21mic_H50_0424_fot_49B-08765_W_tif
  70
32
  10
260580.467
  20
4562038.586
  30
856.946
  0
VERTEX
  8
PNOA-H_AMS_1956-57_33k_ES_PAN_21mic_H50_0424_fot_49B-08765_W_tif
  70
32
  10
258974.500
  20
4562235.293
  30
842.1
  0
VERTEX
  8
PNOA-H_AMS_1956-57_33k_ES_PAN_21mic_H50_0424_fot_49B-08765_W_tif
  70
32
  10
259012.500
  20
4563601.793
  30
860
  0
VERTEX
  8
PNOA-H_AMS_1956-57_33k_ES_PAN_21mic_H50_0424_fot_49B-08765_W_tif
  70
32
  10
259482.000
  20
4565344.293
  30
927
  0
VERTEX
  8
PNOA-H_AMS_1956-57_33k_ES_PAN_21mic_H50_0424_fot_49B-08765_W_tif
  70
32
  10
259482.000
  20
4565346.293
  30
927
  0
VERTEX
  8
PNOA-H_AMS_1956-57_33k_ES_PAN_21mic_H50_0424_fot_49B-08765_W_tif
  70
32
  10
259846.000
  20
4566698.293
  30
919
  0
SEQEND
  8
PNOA-H_AMS_1956-57_33k_ES_PAN_21mic_H50_0424_fot_49B-08765_W_tif
  0
TEXT
  8
PNOA-H_AMS_1956-57_33k_ES_PAN_21mic_H50_0424_fot_49B-08765_W_tif
 62
0
  1
PNOA-H_AMS_1956-57_33k_ES_PAN_21mic_H50_0424_fot_49B-08765_W.tif
 40
41.50002
  10
260012.639
  20
4564354.383
  0
POLYLINE
  8
PNOA-H_AMS_1956-57_33k_ES_PAN_21mic_H50_0424_fot_49A-10152_W_tif
  70
9
  66
1
  0
VERTEX
  8
PNOA-H_AMS_1956-57_33k_ES_PAN_21mic_H50_0424_fot_49A-10152_W_tif
  70
32
  10
256751.500
  20
4566921.793
  30
884.03
  0
VERTEX
  8
PNOA-H_AMS_1956-57_33k_ES_PAN_21mic_H50_0424_fot_49A-10152_W_tif
  70
32
  10
256913.500
  20
4567017.793
  30
887.1
  0
VERTEX
  8
PNOA-H_AMS_1956-57_33k_ES_PAN_21mic_H50_0424_fot_49A-10152_W_tif
  70
32
  10
256920.500
  20
4567017.793
  30
887.1
  0
VERTEX
  8
PNOA-H_AMS_1956-57_33k_ES_PAN_21mic_H50_0424_fot_49A-10152_W_tif
  70
32
  10
259475.500
  20
4566902.793
  30
924.1
  0
VERTEX
  8
PNOA-H_AMS_1956-57_33k_ES_PAN_21mic_H50_0424_fot_49A-10152_W_tif
  70
32
  10
259482.500
  20
4566902.793
  30
924.1
  0
VERTEX
  8
PNOA-H_AMS_1956-57_33k_ES_PAN_21mic_H50_0424_fot_49A-10152_W_tif
  70
32
  10
259552.500
  20
4566899.293
  30
924.4
  0
VERTEX
  8
PNOA-H_AMS_1956-57_33k_ES_PAN_21mic_H50_0424_fot_49A-10152_W_tif
  70
32
  10
259845.500
  20
4566699.293
  30
919
  0
VERTEX
  8
PNOA-H_AMS_1956-57_33k_ES_PAN_21mic_H50_0424_fot_49A-10152_W_tif
  70
32
  10
259846.000
  20
4566697.293
  30
919
  0
VERTEX
  8
PNOA-H_AMS_1956-57_33k_ES_PAN_21mic_H50_0424_fot_49A-10152_W_tif
  70
32
  10
259012.500
  20
4563601.293
  30
860
  0
VERTEX
  8
PNOA-H_AMS_1956-57_33k_ES_PAN_21mic_H50_0424_fot_49A-10152_W_tif
  70
32
  10
256724.000
  20
4565557.293
  30
880
  0
SEQEND
  8
PNOA-H_AMS_1956-57_33k_ES_PAN_21mic_H50_0424_fot_49A-10152_W_tif
  0
TEXT
  8
PNOA-H_AMS_1956-57_33k_ES_PAN_21mic_H50_0424_fot_49A-10152_W_tif
 62
0
  1
PNOA-H_AMS_1956-57_33k_ES_PAN_21mic_H50_0424_fot_49A-10152_W.tif
 40
41.50002
  10
258243.129
  20
4565309.543
  0
POLYLINE
  8
PNOA-H_AMS_1956-57_33k_ES_PAN_21mic_H50_0424_fot_49A-10153_W_tif
  70
9
  66
1
  0
VERTEX
  8
PNOA-H_AMS_1956-57_33k_ES_PAN_21mic_H50_0424_fot_49A-10153_W_tif
  70
32
  10
254166.500
  20
4567089.293
  30
879
  0
VERTEX
  8
PNOA-H_AMS_1956-57_33k_ES_PAN_21mic_H50_0424_fot_49A-10153_W_tif
  70
32
  10
256751.500
  20
4566921.293
  30
884.06
  0
VERTEX
  8
PNOA-H_AMS_1956-57_33k_ES_PAN_21mic_H50_0424_fot_49A-10153_W_tif
  70
32
  10
256724.000
  20
4565556.293
  30
880
  0
VERTEX
  8
PNOA-H_AMS_1956-57_33k_ES_PAN_21mic_H50_0424_fot_49A-10153_W_tif
  70
32
  10
256247.000
  20
4563654.293
  30
840.64
  0
VERTEX
  8
PNOA-H_AMS_1956-57_33k_ES_PAN_21mic_H50_0424_fot_49A-10153_W_tif
  70
32
  10
253976.000
  20
4565552.793
  30
868.9
  0
VERTEX
  8
PNOA-H_AMS_1956-57_33k_ES_PAN_21mic_H50_0424_fot_49A-10153_W_tif
  70
32
  10
253996.500
  20
4566991.793
  30
883
  0
VERTEX
  8
PNOA-H_AMS_1956-57_33k_ES_PAN_21mic_H50_0424_fot_49A-10153_W_tif
  70
32
  10
253997.000
  20
4566993.793
  30
882.82
  0
VERTEX
  8
PNOA-H_AMS_1956-57_33k_ES_PAN_21mic_H50_0424_fot_49A-10153_W_tif
  70
32
  10
253999.000
  20
4566995.293
  30
882.88
  0
VERTEX
  8
PNOA-H_AMS_1956-57_33k_ES_PAN_21mic_H50_0424_fot_49A-10153_W_tif
  70
32
  10
254165.500
  20
4567088.793
  30
879
  0
VERTEX
  8
PNOA-H_AMS_1956-57_33k_ES_PAN_21mic_H50_0424_fot_49A-10153_W_tif
  70
32
  10
254166.500
  20
4567089.293
  30
879
  0
SEQEND
  8
PNOA-H_AMS_1956-57_33k_ES_PAN_21mic_H50_0424_fot_49A-10153_W_tif
  0
TEXT
  8
PNOA-H_AMS_1956-57_33k_ES_PAN_21mic_H50_0424_fot_49A-10153_W_tif
 62
0
  1
PNOA-H_AMS_1956-57_33k_ES_PAN_21mic_H50_0424_fot_49A-10153_W.tif
 40
41.50002
  10
255435.122
  20
4565371.793
  0
POLYLINE
  8
PNOA-H_AMS_1956-57_33k_ES_PAN_21mic_H50_0424_fot_49B-08766_W_tif
  70
9
  66
1
  0
VERTEX
  8
PNOA-H_AMS_1956-57_33k_ES_PAN_21mic_H50_0424_fot_49B-08766_W_tif
  70
32
  10
256246.500
  20
4563653.793
  30
840.51
  0
VERTEX
  8
PNOA-H_AMS_1956-57_33k_ES_PAN_21mic_H50_0424_fot_49B-08766_W_tif
  70
32
  10
256724.000
  20
4565557.293
  30
880
  0
VERTEX
  8
PNOA-H_AMS_1956-57_33k_ES_PAN_21mic_H50_0424_fot_49B-08766_W_tif
  70
32
  10
259012.000
  20
4563601.793
  30
860
  0
VERTEX
  8
PNOA-H_AMS_1956-57_33k_ES_PAN_21mic_H50_0424_fot_49B-08766_W_tif
  70
32
  10
259012.500
  20
4563589.293
  30
860.5
  0
VERTEX
  8
PNOA-H_AMS_1956-57_33k_ES_PAN_21mic_H50_0424_fot_49B-08766_W_tif
  70
32
  10
259008.500
  20
4563463.293
  30
871.56
  0
VERTEX
  8
PNOA-H_AMS_1956-57_33k_ES_PAN_21mic_H50_0424_fot_49B-08766_W_tif
  70
32
  10
259008.500
  20
4563445.793
  30
873.21
  0
VERTEX
  8
PNOA-H_AMS_1956-57_33k_ES_PAN_21mic_H50_0424_fot_49B-08766_W_tif
  70
32
  10
258975.000
  20
4562235.793
  30
842
  0
VERTEX
  8
PNOA-H_AMS_1956-57_33k_ES_PAN_21mic_H50_0424_fot_49B-08766_W_tif
  70
32
  10
258639.500
  20
4562063.293
  30
849
  0
VERTEX
  8
PNOA-H_AMS_1956-57_33k_ES_PAN_21mic_H50_0424_fot_49B-08766_W_tif
  70
32
  10
256208.500
  20
4562330.793
  30
837
  0
SEQEND
  8
PNOA-H_AMS_1956-57_33k_ES_PAN_21mic_H50_0424_fot_49B-08766_W_tif
  0
TEXT
  8
PNOA-H_AMS_1956-57_33k_ES_PAN_21mic_H50_0424_fot_49B-08766_W_tif
 62
0
  1
PNOA-H_AMS_1956-57_33k_ES_PAN_21mic_H50_0424_fot_49B-08766_W.tif
 40
41.50002
  10
257526.903
  20
4563810.293
  0
POLYLINE
  8
PNOA-H_AMS_1956-57_33k_ES_PAN_21mic_H50_0451_fot_50A-08795_E_tif
  70
9
  66
1
  0
VERTEX
  8
PNOA-H_AMS_1956-57_33k_ES_PAN_21mic_H50_0451_fot_50A-08795_E_tif
  70
32
  10
258598.949
  20
4561251.044
  30
837.857
  0
VERTEX
  8
PNOA-H_AMS_1956-57_33k_ES_PAN_21mic_H50_0451_fot_50A-08795_E_tif
  70
32
  10
257056.514
  20
4561302.033
  30
833.117
  0
VERTEX
  8
PNOA-H_AMS_1956-57_33k_ES_PAN_21mic_H50_0451_fot_50A-08795_E_tif
  70
32
  10
255838.295
  20
4561342.889
  30
826.875
  0
VERTEX
  8
PNOA-H_AMS_1956-57_33k_ES_PAN_21mic_H50_0451_fot_50A-08795_E_tif
  70
32
  10
255875.500
  20
4562149.293
  30
829
  0
VERTEX
  8
PNOA-H_AMS_1956-57_33k_ES_PAN_21mic_H50_0451_fot_50A-08795_E_tif
  70
32
  10
256207.500
  20
4562330.793
  30
837
  0
VERTEX
  8
PNOA-H_AMS_1956-57_33k_ES_PAN_21mic_H50_0451_fot_50A-08795_E_tif
  70
32
  10
257432.000
  20
4562195.793
  30
832
  0
VERTEX
  8
PNOA-H_AMS_1956-57_33k_ES_PAN_21mic_H50_0451_fot_50A-08795_E_tif
  70
32
  10
257434.500
  20
4562195.793
  30
832
  0
VERTEX
  8
PNOA-H_AMS_1956-57_33k_ES_PAN_21mic_H50_0451_fot_50A-08795_E_tif
  70
32
  10
258638.500
  20
4562063.293
  30
849
  0
SEQEND
  8
PNOA-H_AMS_1956-57_33k_ES_PAN_21mic_H50_0451_fot_50A-08795_E_tif
  0
TEXT
  8
PNOA-H_AMS_1956-57_33k_ES_PAN_21mic_H50_0451_fot_50A-08795_E_tif
 62
0
  1
PNOA-H_AMS_1956-57_33k_ES_PAN_21mic_H50_0451_fot_50A-08795_E.tif
 40
41.50002
  10
257238.398
  20
4561790.918
  0
POLYLINE
  8
PNOA-H_AMS_1956-57_33k_ES_PAN_21mic_H50_0451_fot_50A-08796_E_tif
  70
9
  66
1
  0
VERTEX
  8
PNOA-H_AMS_1956-57_33k_ES_PAN_21mic_H50_0451_fot_50A-08796_E_tif
  70
32
  10
260580.469
  20
4562038.631
  30
856.068
  0
VERTEX
  8
PNOA-H_AMS_1956-57_33k_ES_PAN_21mic_H50_0451_fot_50A-08796_E_tif
  70
32
  10
260552.497
  20
4561186.464
  30
846.923
  0
VERTEX
  8
PNOA-H_AMS_1956-57_33k_ES_PAN_21mic_H50_0451_fot_50A-08796_E_tif
  70
32
  10
258598.949
  20
4561251.044
  30
837.857
  0
VERTEX
  8
PNOA-H_AMS_1956-57_33k_ES_PAN_21mic_H50_0451_fot_50A-08796_E_tif
  70
32
  10
258638.500
  20
4562063.293
  30
849
  0
VERTEX
  8
PNOA-H_AMS_1956-57_33k_ES_PAN_21mic_H50_0451_fot_50A-08796_E_tif
  70
32
  10
258974.000
  20
4562235.293
  30
842.2
  0
VERTEX
  8
PNOA-H_AMS_1956-57_33k_ES_PAN_21mic_H50_0451_fot_50A-08796_E_tif
  70
32
  10
259480.000
  20
4562173.293
  30
843
  0
VERTEX
  8
PNOA-H_AMS_1956-57_33k_ES_PAN_21mic_H50_0451_fot_50A-08796_E_tif
  70
32
  10
259482.500
  20
4562173.293
  30
843
  0
SEQEND
  8
PNOA-H_AMS_1956-57_33k_ES_PAN_21mic_H50_0451_fot_50A-08796_E_tif
  0
TEXT
  8
PNOA-H_AMS_1956-57_33k_ES_PAN_21mic_H50_0451_fot_50A-08796_E_tif
 62
0
  1
PNOA-H_AMS_1956-57_33k_ES_PAN_21mic_H50_0451_fot_50A-08796_E.tif
 40
41.50002
  10
259589.709
  20
4561710.878
  0
ENDSEC
  0
EOF
