  0
SECTION
  2
HEADER
  9
$ACADVER
  1
AC1009
  9
$LUNITS
  70
2
  9
$LIMMIN
  10
204614.566
  20
4562158.024
  9
$LIMMAX
  10
233263.668
  20
4581744.064
  9
$EXTMIN
  10
204614.566
  20
4562158.024
  9
$EXTMAX
  10
233263.668
  20
4581744.064
  999
Created by Global Mapper
  999
Projection: UTM
  999
Datum: ETRS89
  999
Ground Units: meters
  999
ZONE: 30
  0
ENDSEC
  0
SECTION
  2
TABLES
  0
ENDSEC
  0
SECTION
  2
BLOCKS
  0
ENDSEC
  0
SECTION
  2
ENTITIES
  0
POLYLINE
  8
PNOA-H_AMS_1956-57_33k_ES_PAN_21mic_H50_0423_fot_47A-06499_E_tif
  70
9
  66
1
  0
VERTEX
  8
PNOA-H_AMS_1956-57_33k_ES_PAN_21mic_H50_0423_fot_47A-06499_E_tif
  70
32
  10
205274.997
  20
4579519.793
  30
-16816.336
  0
VERTEX
  8
PNOA-H_AMS_1956-57_33k_ES_PAN_21mic_H50_0423_fot_47A-06499_E_tif
  70
32
  10
205290.500
  20
4579519.793
  30
-17825.65
  0
VERTEX
  8
PNOA-H_AMS_1956-57_33k_ES_PAN_21mic_H50_0423_fot_47A-06499_E_tif
  70
32
  10
205294.500
  20
4579514.793
  30
-14505.35
  0
VERTEX
  8
PNOA-H_AMS_1956-57_33k_ES_PAN_21mic_H50_0423_fot_47A-06499_E_tif
  70
32
  10
205345.500
  20
4579514.793
  30
-17826.1
  0
VERTEX
  8
PNOA-H_AMS_1956-57_33k_ES_PAN_21mic_H50_0423_fot_47A-06499_E_tif
  70
32
  10
205349.500
  20
4579509.793
  30
-14505.9
  0
VERTEX
  8
PNOA-H_AMS_1956-57_33k_ES_PAN_21mic_H50_0423_fot_47A-06499_E_tif
  70
32
  10
205410.500
  20
4579509.793
  30
-17826.1
  0
VERTEX
  8
PNOA-H_AMS_1956-57_33k_ES_PAN_21mic_H50_0423_fot_47A-06499_E_tif
  70
32
  10
205414.500
  20
4579504.793
  30
-14505.9
  0
VERTEX
  8
PNOA-H_AMS_1956-57_33k_ES_PAN_21mic_H50_0423_fot_47A-06499_E_tif
  70
32
  10
205465.500
  20
4579504.793
  30
-17826.1
  0
VERTEX
  8
PNOA-H_AMS_1956-57_33k_ES_PAN_21mic_H50_0423_fot_47A-06499_E_tif
  70
32
  10
205469.500
  20
4579499.793
  30
-14505.9
  0
VERTEX
  8
PNOA-H_AMS_1956-57_33k_ES_PAN_21mic_H50_0423_fot_47A-06499_E_tif
  70
32
  10
205520.500
  20
4579499.793
  30
-17826.1
  0
VERTEX
  8
PNOA-H_AMS_1956-57_33k_ES_PAN_21mic_H50_0423_fot_47A-06499_E_tif
  70
32
  10
205524.500
  20
4579494.793
  30
-14505.9
  0
VERTEX
  8
PNOA-H_AMS_1956-57_33k_ES_PAN_21mic_H50_0423_fot_47A-06499_E_tif
  70
32
  10
205575.500
  20
4579494.793
  30
-17826.1
  0
VERTEX
  8
PNOA-H_AMS_1956-57_33k_ES_PAN_21mic_H50_0423_fot_47A-06499_E_tif
  70
32
  10
205579.500
  20
4579489.793
  30
-14506.4
  0
VERTEX
  8
PNOA-H_AMS_1956-57_33k_ES_PAN_21mic_H50_0423_fot_47A-06499_E_tif
  70
32
  10
205635.500
  20
4579489.793
  30
-17826.551
  0
VERTEX
  8
PNOA-H_AMS_1956-57_33k_ES_PAN_21mic_H50_0423_fot_47A-06499_E_tif
  70
32
  10
205639.500
  20
4579484.793
  30
-14506.45
  0
VERTEX
  8
PNOA-H_AMS_1956-57_33k_ES_PAN_21mic_H50_0423_fot_47A-06499_E_tif
  70
32
  10
205685.500
  20
4579484.793
  30
-16166.5
  0
VERTEX
  8
PNOA-H_AMS_1956-57_33k_ES_PAN_21mic_H50_0423_fot_47A-06499_E_tif
  70
32
  10
205694.500
  20
4579474.793
  30
-14506.45
  0
VERTEX
  8
PNOA-H_AMS_1956-57_33k_ES_PAN_21mic_H50_0423_fot_47A-06499_E_tif
  70
32
  10
205745.500
  20
4579474.793
  30
-17826.551
  0
VERTEX
  8
PNOA-H_AMS_1956-57_33k_ES_PAN_21mic_H50_0423_fot_47A-06499_E_tif
  70
32
  10
205749.500
  20
4579469.793
  30
-14506.9
  0
VERTEX
  8
PNOA-H_AMS_1956-57_33k_ES_PAN_21mic_H50_0423_fot_47A-06499_E_tif
  70
32
  10
205810.500
  20
4579469.793
  30
-17827
  0
VERTEX
  8
PNOA-H_AMS_1956-57_33k_ES_PAN_21mic_H50_0423_fot_47A-06499_E_tif
  70
32
  10
205814.500
  20
4579464.793
  30
-14507
  0
VERTEX
  8
PNOA-H_AMS_1956-57_33k_ES_PAN_21mic_H50_0423_fot_47A-06499_E_tif
  70
32
  10
205865.500
  20
4579464.793
  30
-17827
  0
VERTEX
  8
PNOA-H_AMS_1956-57_33k_ES_PAN_21mic_H50_0423_fot_47A-06499_E_tif
  70
32
  10
205869.500
  20
4579459.793
  30
-14507
  0
VERTEX
  8
PNOA-H_AMS_1956-57_33k_ES_PAN_21mic_H50_0423_fot_47A-06499_E_tif
  70
32
  10
205895.500
  20
4579459.793
  30
-16167
  0
VERTEX
  8
PNOA-H_AMS_1956-57_33k_ES_PAN_21mic_H50_0423_fot_47A-06499_E_tif
  70
32
  10
205902.500
  20
4579452.793
  30
-16167
  0
VERTEX
  8
PNOA-H_AMS_1956-57_33k_ES_PAN_21mic_H50_0423_fot_47A-06499_E_tif
  70
32
  10
205902.500
  20
4579286.793
  30
-14509.2
  0
VERTEX
  8
PNOA-H_AMS_1956-57_33k_ES_PAN_21mic_H50_0423_fot_47A-06499_E_tif
  70
32
  10
205904.500
  20
4579284.793
  30
-14509.2
  0
VERTEX
  8
PNOA-H_AMS_1956-57_33k_ES_PAN_21mic_H50_0423_fot_47A-06499_E_tif
  70
32
  10
205940.500
  20
4579284.793
  30
-17828.801
  0
VERTEX
  8
PNOA-H_AMS_1956-57_33k_ES_PAN_21mic_H50_0423_fot_47A-06499_E_tif
  70
32
  10
205944.500
  20
4579279.793
  30
-14509.2
  0
VERTEX
  8
PNOA-H_AMS_1956-57_33k_ES_PAN_21mic_H50_0423_fot_47A-06499_E_tif
  70
32
  10
206025.500
  20
4579279.793
  30
-17829.25
  0
VERTEX
  8
PNOA-H_AMS_1956-57_33k_ES_PAN_21mic_H50_0423_fot_47A-06499_E_tif
  70
32
  10
206029.500
  20
4579274.793
  30
-14509.75
  0
VERTEX
  8
PNOA-H_AMS_1956-57_33k_ES_PAN_21mic_H50_0423_fot_47A-06499_E_tif
  70
32
  10
206110.500
  20
4579274.793
  30
-17829.25
  0
VERTEX
  8
PNOA-H_AMS_1956-57_33k_ES_PAN_21mic_H50_0423_fot_47A-06499_E_tif
  70
32
  10
206114.500
  20
4579269.793
  30
-14510.25
  0
VERTEX
  8
PNOA-H_AMS_1956-57_33k_ES_PAN_21mic_H50_0423_fot_47A-06499_E_tif
  70
32
  10
206195.500
  20
4579269.793
  30
-17829.699
  0
VERTEX
  8
PNOA-H_AMS_1956-57_33k_ES_PAN_21mic_H50_0423_fot_47A-06499_E_tif
  70
32
  10
206199.500
  20
4579264.793
  30
-14510.3
  0
VERTEX
  8
PNOA-H_AMS_1956-57_33k_ES_PAN_21mic_H50_0423_fot_47A-06499_E_tif
  70
32
  10
206285.500
  20
4579264.793
  30
-17830.15
  0
VERTEX
  8
PNOA-H_AMS_1956-57_33k_ES_PAN_21mic_H50_0423_fot_47A-06499_E_tif
  70
32
  10
206289.500
  20
4579259.793
  30
-14510.85
  0
VERTEX
  8
PNOA-H_AMS_1956-57_33k_ES_PAN_21mic_H50_0423_fot_47A-06499_E_tif
  70
32
  10
206370.500
  20
4579259.793
  30
-17830.15
  0
VERTEX
  8
PNOA-H_AMS_1956-57_33k_ES_PAN_21mic_H50_0423_fot_47A-06499_E_tif
  70
32
  10
206374.500
  20
4579254.793
  30
-14510.85
  0
VERTEX
  8
PNOA-H_AMS_1956-57_33k_ES_PAN_21mic_H50_0423_fot_47A-06499_E_tif
  70
32
  10
206455.500
  20
4579254.793
  30
-17830.6
  0
VERTEX
  8
PNOA-H_AMS_1956-57_33k_ES_PAN_21mic_H50_0423_fot_47A-06499_E_tif
  70
32
  10
206459.500
  20
4579249.793
  30
-14511.4
  0
VERTEX
  8
PNOA-H_AMS_1956-57_33k_ES_PAN_21mic_H50_0423_fot_47A-06499_E_tif
  70
32
  10
206540.500
  20
4579249.793
  30
-17830.6
  0
VERTEX
  8
PNOA-H_AMS_1956-57_33k_ES_PAN_21mic_H50_0423_fot_47A-06499_E_tif
  70
32
  10
206544.500
  20
4579244.793
  30
-14511.4
  0
VERTEX
  8
PNOA-H_AMS_1956-57_33k_ES_PAN_21mic_H50_0423_fot_47A-06499_E_tif
  70
32
  10
206620.500
  20
4579244.793
  30
-17831.051
  0
VERTEX
  8
PNOA-H_AMS_1956-57_33k_ES_PAN_21mic_H50_0423_fot_47A-06499_E_tif
  70
32
  10
206624.500
  20
4579239.793
  30
-14511.95
  0
VERTEX
  8
PNOA-H_AMS_1956-57_33k_ES_PAN_21mic_H50_0423_fot_47A-06499_E_tif
  70
32
  10
206696.500
  20
4579239.793
  30
-16171.5
  0
VERTEX
  8
PNOA-H_AMS_1956-57_33k_ES_PAN_21mic_H50_0423_fot_47A-06499_E_tif
  70
32
  10
206570.000
  20
4578139.293
  30
399
  0
VERTEX
  8
PNOA-H_AMS_1956-57_33k_ES_PAN_21mic_H50_0423_fot_47A-06499_E_tif
  70
32
  10
206554.500
  20
4578004.793
  30
515.05
  0
VERTEX
  8
PNOA-H_AMS_1956-57_33k_ES_PAN_21mic_H50_0423_fot_47A-06499_E_tif
  70
32
  10
206043.000
  20
4573567.293
  30
473
  0
VERTEX
  8
PNOA-H_AMS_1956-57_33k_ES_PAN_21mic_H50_0423_fot_47A-06499_E_tif
  70
32
  10
205021.311
  20
4573270.770
  30
603.521
  0
VERTEX
  8
PNOA-H_AMS_1956-57_33k_ES_PAN_21mic_H50_0423_fot_47A-06499_E_tif
  70
32
  10
205083.520
  20
4574803.903
  30
483.53
  0
VERTEX
  8
PNOA-H_AMS_1956-57_33k_ES_PAN_21mic_H50_0423_fot_47A-06499_E_tif
  70
32
  10
205177.429
  20
4577117.285
  30
-14518.6
  0
VERTEX
  8
PNOA-H_AMS_1956-57_33k_ES_PAN_21mic_H50_0423_fot_47A-06499_E_tif
  70
32
  10
205271.376
  20
4579430.672
  30
-14505.35
  0
SEQEND
  8
PNOA-H_AMS_1956-57_33k_ES_PAN_21mic_H50_0423_fot_47A-06499_E_tif
  0
TEXT
  8
PNOA-H_AMS_1956-57_33k_ES_PAN_21mic_H50_0423_fot_47A-06499_E_tif
 62
0
  1
PNOA-H_AMS_1956-57_33k_ES_PAN_21mic_H50_0423_fot_47A-06499_E.tif
 40
41.64508
  10
205858.905
  20
4576395.282
  0
POLYLINE
  8
PNOA-H_AMS_1956-57_33k_ES_PAN_21mic_H50_0423_fot_48A-10186_E_tif
  70
9
  66
1
  0
VERTEX
  8
PNOA-H_AMS_1956-57_33k_ES_PAN_21mic_H50_0423_fot_48A-10186_E_tif
  70
32
  10
205021.309
  20
4573270.733
  30
603.554
  0
VERTEX
  8
PNOA-H_AMS_1956-57_33k_ES_PAN_21mic_H50_0423_fot_48A-10186_E_tif
  70
32
  10
206041.000
  20
4573567.293
  30
473
  0
VERTEX
  8
PNOA-H_AMS_1956-57_33k_ES_PAN_21mic_H50_0423_fot_48A-10186_E_tif
  70
32
  10
206048.000
  20
4573565.793
  30
471.68
  0
VERTEX
  8
PNOA-H_AMS_1956-57_33k_ES_PAN_21mic_H50_0423_fot_48A-10186_E_tif
  70
32
  10
206233.000
  20
4573493.793
  30
394.3
  0
VERTEX
  8
PNOA-H_AMS_1956-57_33k_ES_PAN_21mic_H50_0423_fot_48A-10186_E_tif
  70
32
  10
206234.500
  20
4573493.293
  30
392.7
  0
VERTEX
  8
PNOA-H_AMS_1956-57_33k_ES_PAN_21mic_H50_0423_fot_48A-10186_E_tif
  70
32
  10
207653.000
  20
4572946.293
  30
717.12
  0
VERTEX
  8
PNOA-H_AMS_1956-57_33k_ES_PAN_21mic_H50_0423_fot_48A-10186_E_tif
  70
32
  10
207417.500
  20
4568857.293
  30
710
  0
VERTEX
  8
PNOA-H_AMS_1956-57_33k_ES_PAN_21mic_H50_0423_fot_48A-10186_E_tif
  70
32
  10
204871.000
  20
4568832.293
  30
718
  0
VERTEX
  8
PNOA-H_AMS_1956-57_33k_ES_PAN_21mic_H50_0423_fot_48A-10186_E_tif
  70
32
  10
204842.016
  20
4568850.051
  30
717.579
  0
VERTEX
  8
PNOA-H_AMS_1956-57_33k_ES_PAN_21mic_H50_0423_fot_48A-10186_E_tif
  70
32
  10
204895.821
  20
4570177.155
  30
689.381
  0
VERTEX
  8
PNOA-H_AMS_1956-57_33k_ES_PAN_21mic_H50_0423_fot_48A-10186_E_tif
  70
32
  10
204989.651
  20
4572490.526
  30
641.496
  0
SEQEND
  8
PNOA-H_AMS_1956-57_33k_ES_PAN_21mic_H50_0423_fot_48A-10186_E_tif
  0
TEXT
  8
PNOA-H_AMS_1956-57_33k_ES_PAN_21mic_H50_0423_fot_48A-10186_E_tif
 62
0
  1
PNOA-H_AMS_1956-57_33k_ES_PAN_21mic_H50_0423_fot_48A-10186_E.tif
 40
41.64508
  10
206139.687
  20
4571199.793
  0
POLYLINE
  8
PNOA-H_AMS_1956-57_33k_ES_PAN_21mic_H50_0422_fot_49A-10172_W_tif
  70
9
  66
1
  0
VERTEX
  8
PNOA-H_AMS_1956-57_33k_ES_PAN_21mic_H50_0422_fot_49A-10172_W_tif
  70
32
  10
204842.035
  20
4568850.518
  30
717.578
  0
VERTEX
  8
PNOA-H_AMS_1956-57_33k_ES_PAN_21mic_H50_0422_fot_49A-10172_W_tif
  70
32
  10
204871.000
  20
4568832.793
  30
718
  0
VERTEX
  8
PNOA-H_AMS_1956-57_33k_ES_PAN_21mic_H50_0422_fot_49A-10172_W_tif
  70
32
  10
204690.000
  20
4564616.293
  30
693
  0
VERTEX
  8
PNOA-H_AMS_1956-57_33k_ES_PAN_21mic_H50_0422_fot_49A-10172_W_tif
  70
32
  10
204670.178
  20
4564609.893
  30
692.785
  0
VERTEX
  8
PNOA-H_AMS_1956-57_33k_ES_PAN_21mic_H50_0422_fot_49A-10172_W_tif
  70
32
  10
204708.278
  20
4565550.428
  30
698.533
  0
VERTEX
  8
PNOA-H_AMS_1956-57_33k_ES_PAN_21mic_H50_0422_fot_49A-10172_W_tif
  70
32
  10
204802.030
  20
4567863.789
  30
712.248
  0
SEQEND
  8
PNOA-H_AMS_1956-57_33k_ES_PAN_21mic_H50_0422_fot_49A-10172_W_tif
  0
TEXT
  8
PNOA-H_AMS_1956-57_33k_ES_PAN_21mic_H50_0422_fot_49A-10172_W_tif
 62
0
  1
PNOA-H_AMS_1956-57_33k_ES_PAN_21mic_H50_0422_fot_49A-10172_W.tif
 40
41.64508
  10
204770.589
  20
4566730.205
  0
POLYLINE
  8
PNOA-H_AMS_1956-57_33k_ES_PAN_21mic_H50_0423_fot_49A-10171_W_tif
  70
9
  66
1
  0
VERTEX
  8
PNOA-H_AMS_1956-57_33k_ES_PAN_21mic_H50_0423_fot_49A-10171_W_tif
  70
32
  10
204871.000
  20
4568832.293
  30
718
  0
VERTEX
  8
PNOA-H_AMS_1956-57_33k_ES_PAN_21mic_H50_0423_fot_49A-10171_W_tif
  70
32
  10
207342.500
  20
4568856.793
  30
716
  0
VERTEX
  8
PNOA-H_AMS_1956-57_33k_ES_PAN_21mic_H50_0423_fot_49A-10171_W_tif
  70
32
  10
207394.000
  20
4568857.293
  30
711.2
  0
VERTEX
  8
PNOA-H_AMS_1956-57_33k_ES_PAN_21mic_H50_0423_fot_49A-10171_W_tif
  70
32
  10
207418.000
  20
4568857.293
  30
710
  0
VERTEX
  8
PNOA-H_AMS_1956-57_33k_ES_PAN_21mic_H50_0423_fot_49A-10171_W_tif
  70
32
  10
207638.500
  20
4568715.793
  30
708
  0
VERTEX
  8
PNOA-H_AMS_1956-57_33k_ES_PAN_21mic_H50_0423_fot_49A-10171_W_tif
  70
32
  10
207478.500
  20
4564423.793
  30
680.12
  0
VERTEX
  8
PNOA-H_AMS_1956-57_33k_ES_PAN_21mic_H50_0423_fot_49A-10171_W_tif
  70
32
  10
206521.000
  20
4564069.793
  30
708
  0
VERTEX
  8
PNOA-H_AMS_1956-57_33k_ES_PAN_21mic_H50_0423_fot_49A-10171_W_tif
  70
32
  10
204690.000
  20
4564616.793
  30
693
  0
SEQEND
  8
PNOA-H_AMS_1956-57_33k_ES_PAN_21mic_H50_0423_fot_49A-10171_W_tif
  0
TEXT
  8
PNOA-H_AMS_1956-57_33k_ES_PAN_21mic_H50_0423_fot_49A-10171_W_tif
 62
0
  1
PNOA-H_AMS_1956-57_33k_ES_PAN_21mic_H50_0423_fot_49A-10171_W.tif
 40
41.64508
  10
206161.916
  20
4566463.543
  0
POLYLINE
  8
PNOA-H_AMS_1956-57_33k_ES_PAN_21mic_H50_0450_fot_50A-08777_E_tif
  70
9
  66
1
  0
VERTEX
  8
PNOA-H_AMS_1956-57_33k_ES_PAN_21mic_H50_0450_fot_50A-08777_E_tif
  70
32
  10
206447.392
  20
4563163.281
  30
714.932
  0
VERTEX
  8
PNOA-H_AMS_1956-57_33k_ES_PAN_21mic_H50_0450_fot_50A-08777_E_tif
  70
32
  10
204614.566
  20
4563237.072
  30
690.56
  0
VERTEX
  8
PNOA-H_AMS_1956-57_33k_ES_PAN_21mic_H50_0450_fot_50A-08777_E_tif
  70
32
  10
204670.192
  20
4564610.232
  30
692.799
  0
VERTEX
  8
PNOA-H_AMS_1956-57_33k_ES_PAN_21mic_H50_0450_fot_50A-08777_E_tif
  70
32
  10
204690.500
  20
4564616.793
  30
693
  0
VERTEX
  8
PNOA-H_AMS_1956-57_33k_ES_PAN_21mic_H50_0450_fot_50A-08777_E_tif
  70
32
  10
206520.500
  20
4564069.793
  30
708
  0
SEQEND
  8
PNOA-H_AMS_1956-57_33k_ES_PAN_21mic_H50_0450_fot_50A-08777_E_tif
  0
TEXT
  8
PNOA-H_AMS_1956-57_33k_ES_PAN_21mic_H50_0450_fot_50A-08777_E_tif
 62
0
  1
PNOA-H_AMS_1956-57_33k_ES_PAN_21mic_H50_0450_fot_50A-08777_E.tif
 40
41.64508
  10
205567.533
  20
4563890.037
  0
POLYLINE
  8
PNOA-H_AMS_1956-57_33k_ES_PAN_21mic_H50_0423_fot_47A-06502_E_tif
  70
9
  66
1
  0
VERTEX
  8
PNOA-H_AMS_1956-57_33k_ES_PAN_21mic_H50_0423_fot_47A-06502_E_tif
  70
32
  10
212824.500
  20
4577938.293
  30
612.72
  0
VERTEX
  8
PNOA-H_AMS_1956-57_33k_ES_PAN_21mic_H50_0423_fot_47A-06502_E_tif
  70
32
  10
215080.500
  20
4577598.793
  30
636
  0
VERTEX
  8
PNOA-H_AMS_1956-57_33k_ES_PAN_21mic_H50_0423_fot_47A-06502_E_tif
  70
32
  10
214869.500
  20
4573004.293
  30
734
  0
VERTEX
  8
PNOA-H_AMS_1956-57_33k_ES_PAN_21mic_H50_0423_fot_47A-06502_E_tif
  70
32
  10
214868.500
  20
4572982.793
  30
734.3
  0
VERTEX
  8
PNOA-H_AMS_1956-57_33k_ES_PAN_21mic_H50_0423_fot_47A-06502_E_tif
  70
32
  10
214867.500
  20
4572981.793
  30
734.5
  0
VERTEX
  8
PNOA-H_AMS_1956-57_33k_ES_PAN_21mic_H50_0423_fot_47A-06502_E_tif
  70
32
  10
213376.500
  20
4572571.293
  30
705
  0
VERTEX
  8
PNOA-H_AMS_1956-57_33k_ES_PAN_21mic_H50_0423_fot_47A-06502_E_tif
  70
32
  10
211830.500
  20
4573178.293
  30
689
  0
VERTEX
  8
PNOA-H_AMS_1956-57_33k_ES_PAN_21mic_H50_0423_fot_47A-06502_E_tif
  70
32
  10
212151.500
  20
4577705.293
  30
570.2
  0
VERTEX
  8
PNOA-H_AMS_1956-57_33k_ES_PAN_21mic_H50_0423_fot_47A-06502_E_tif
  70
32
  10
212823.000
  20
4577937.793
  30
612.54
  0
VERTEX
  8
PNOA-H_AMS_1956-57_33k_ES_PAN_21mic_H50_0423_fot_47A-06502_E_tif
  70
32
  10
212824.500
  20
4577938.293
  30
612.72
  0
SEQEND
  8
PNOA-H_AMS_1956-57_33k_ES_PAN_21mic_H50_0423_fot_47A-06502_E_tif
  0
TEXT
  8
PNOA-H_AMS_1956-57_33k_ES_PAN_21mic_H50_0423_fot_47A-06502_E_tif
 62
0
  1
PNOA-H_AMS_1956-57_33k_ES_PAN_21mic_H50_0423_fot_47A-06502_E.tif
 40
41.64508
  10
213475.297
  20
4575254.793
  0
POLYLINE
  8
PNOA-H_AMS_1956-57_33k_ES_PAN_21mic_H50_0423_fot_47A-06501_E_tif
  70
9
  66
1
  0
VERTEX
  8
PNOA-H_AMS_1956-57_33k_ES_PAN_21mic_H50_0423_fot_47A-06501_E_tif
  70
32
  10
209352.000
  20
4578199.793
  30
423.6
  0
VERTEX
  8
PNOA-H_AMS_1956-57_33k_ES_PAN_21mic_H50_0423_fot_47A-06501_E_tif
  70
32
  10
212151.500
  20
4577705.293
  30
570.2
  0
VERTEX
  8
PNOA-H_AMS_1956-57_33k_ES_PAN_21mic_H50_0423_fot_47A-06501_E_tif
  70
32
  10
211830.500
  20
4573178.293
  30
689
  0
VERTEX
  8
PNOA-H_AMS_1956-57_33k_ES_PAN_21mic_H50_0423_fot_47A-06501_E_tif
  70
32
  10
210575.000
  20
4572756.293
  30
704.2
  0
VERTEX
  8
PNOA-H_AMS_1956-57_33k_ES_PAN_21mic_H50_0423_fot_47A-06501_E_tif
  70
32
  10
210519.500
  20
4572737.793
  30
701.89
  0
VERTEX
  8
PNOA-H_AMS_1956-57_33k_ES_PAN_21mic_H50_0423_fot_47A-06501_E_tif
  70
32
  10
210516.500
  20
4572737.793
  30
701.83
  0
VERTEX
  8
PNOA-H_AMS_1956-57_33k_ES_PAN_21mic_H50_0423_fot_47A-06501_E_tif
  70
32
  10
208923.000
  20
4573305.293
  30
672.64
  0
VERTEX
  8
PNOA-H_AMS_1956-57_33k_ES_PAN_21mic_H50_0423_fot_47A-06501_E_tif
  70
32
  10
209352.000
  20
4578194.793
  30
425.3
  0
VERTEX
  8
PNOA-H_AMS_1956-57_33k_ES_PAN_21mic_H50_0423_fot_47A-06501_E_tif
  70
32
  10
209352.000
  20
4578199.793
  30
423.6
  0
SEQEND
  8
PNOA-H_AMS_1956-57_33k_ES_PAN_21mic_H50_0423_fot_47A-06501_E_tif
  0
TEXT
  8
PNOA-H_AMS_1956-57_33k_ES_PAN_21mic_H50_0423_fot_47A-06501_E_tif
 62
0
  1
PNOA-H_AMS_1956-57_33k_ES_PAN_21mic_H50_0423_fot_47A-06501_E.tif
 40
41.64508
  10
210552.869
  20
4575468.793
  0
POLYLINE
  8
PNOA-H_AMS_1956-57_33k_ES_PAN_21mic_H50_0423_fot_47A-06500_E_tif
  70
9
  66
1
  0
VERTEX
  8
PNOA-H_AMS_1956-57_33k_ES_PAN_21mic_H50_0423_fot_47A-06500_E_tif
  70
32
  10
207429.455
  20
4579323.688
  30
-6212.6
  0
VERTEX
  8
PNOA-H_AMS_1956-57_33k_ES_PAN_21mic_H50_0423_fot_47A-06500_E_tif
  70
32
  10
207429.000
  20
4579311.793
  30
-5548.84
  0
VERTEX
  8
PNOA-H_AMS_1956-57_33k_ES_PAN_21mic_H50_0423_fot_47A-06500_E_tif
  70
32
  10
207428.000
  20
4579309.293
  30
-4885.48
  0
VERTEX
  8
PNOA-H_AMS_1956-57_33k_ES_PAN_21mic_H50_0423_fot_47A-06500_E_tif
  70
32
  10
207424.000
  20
4579307.793
  30
-8868.76
  0
VERTEX
  8
PNOA-H_AMS_1956-57_33k_ES_PAN_21mic_H50_0423_fot_47A-06500_E_tif
  70
32
  10
207423.500
  20
4579191.293
  30
421.8
  0
VERTEX
  8
PNOA-H_AMS_1956-57_33k_ES_PAN_21mic_H50_0423_fot_47A-06500_E_tif
  70
32
  10
207496.000
  20
4579187.793
  30
421
  0
VERTEX
  8
PNOA-H_AMS_1956-57_33k_ES_PAN_21mic_H50_0423_fot_47A-06500_E_tif
  70
32
  10
207626.000
  20
4579179.293
  30
420.4
  0
VERTEX
  8
PNOA-H_AMS_1956-57_33k_ES_PAN_21mic_H50_0423_fot_47A-06500_E_tif
  70
32
  10
207672.000
  20
4579177.793
  30
420
  0
VERTEX
  8
PNOA-H_AMS_1956-57_33k_ES_PAN_21mic_H50_0423_fot_47A-06500_E_tif
  70
32
  10
207754.000
  20
4579172.293
  30
419
  0
VERTEX
  8
PNOA-H_AMS_1956-57_33k_ES_PAN_21mic_H50_0423_fot_47A-06500_E_tif
  70
32
  10
207783.000
  20
4579171.793
  30
419
  0
VERTEX
  8
PNOA-H_AMS_1956-57_33k_ES_PAN_21mic_H50_0423_fot_47A-06500_E_tif
  70
32
  10
207849.500
  20
4579167.293
  30
419
  0
VERTEX
  8
PNOA-H_AMS_1956-57_33k_ES_PAN_21mic_H50_0423_fot_47A-06500_E_tif
  70
32
  10
207887.500
  20
4579166.293
  30
418
  0
VERTEX
  8
PNOA-H_AMS_1956-57_33k_ES_PAN_21mic_H50_0423_fot_47A-06500_E_tif
  70
32
  10
207946.000
  20
4579162.293
  30
417
  0
VERTEX
  8
PNOA-H_AMS_1956-57_33k_ES_PAN_21mic_H50_0423_fot_47A-06500_E_tif
  70
32
  10
207990.500
  20
4579160.793
  30
417
  0
VERTEX
  8
PNOA-H_AMS_1956-57_33k_ES_PAN_21mic_H50_0423_fot_47A-06500_E_tif
  70
32
  10
207995.000
  20
4578995.293
  30
410
  0
VERTEX
  8
PNOA-H_AMS_1956-57_33k_ES_PAN_21mic_H50_0423_fot_47A-06500_E_tif
  70
32
  10
207995.500
  20
4578987.793
  30
432.61
  0
VERTEX
  8
PNOA-H_AMS_1956-57_33k_ES_PAN_21mic_H50_0423_fot_47A-06500_E_tif
  70
32
  10
207998.000
  20
4578984.293
  30
544.88
  0
VERTEX
  8
PNOA-H_AMS_1956-57_33k_ES_PAN_21mic_H50_0423_fot_47A-06500_E_tif
  70
32
  10
208009.500
  20
4578982.793
  30
634.19
  0
VERTEX
  8
PNOA-H_AMS_1956-57_33k_ES_PAN_21mic_H50_0423_fot_47A-06500_E_tif
  70
32
  10
208066.000
  20
4578981.293
  30
632.6
  0
VERTEX
  8
PNOA-H_AMS_1956-57_33k_ES_PAN_21mic_H50_0423_fot_47A-06500_E_tif
  70
32
  10
208127.000
  20
4578981.793
  30
626.5
  0
VERTEX
  8
PNOA-H_AMS_1956-57_33k_ES_PAN_21mic_H50_0423_fot_47A-06500_E_tif
  70
32
  10
208160.000
  20
4578989.293
  30
615.4
  0
VERTEX
  8
PNOA-H_AMS_1956-57_33k_ES_PAN_21mic_H50_0423_fot_47A-06500_E_tif
  70
32
  10
208171.000
  20
4578992.793
  30
609.68
  0
VERTEX
  8
PNOA-H_AMS_1956-57_33k_ES_PAN_21mic_H50_0423_fot_47A-06500_E_tif
  70
32
  10
208176.500
  20
4578995.793
  30
607.4
  0
VERTEX
  8
PNOA-H_AMS_1956-57_33k_ES_PAN_21mic_H50_0423_fot_47A-06500_E_tif
  70
32
  10
208187.000
  20
4578997.293
  30
604.6
  0
VERTEX
  8
PNOA-H_AMS_1956-57_33k_ES_PAN_21mic_H50_0423_fot_47A-06500_E_tif
  70
32
  10
209352.000
  20
4578200.293
  30
423.4
  0
VERTEX
  8
PNOA-H_AMS_1956-57_33k_ES_PAN_21mic_H50_0423_fot_47A-06500_E_tif
  70
32
  10
208923.000
  20
4573305.293
  30
672.64
  0
VERTEX
  8
PNOA-H_AMS_1956-57_33k_ES_PAN_21mic_H50_0423_fot_47A-06500_E_tif
  70
32
  10
207657.000
  20
4572946.793
  30
717.1
  0
VERTEX
  8
PNOA-H_AMS_1956-57_33k_ES_PAN_21mic_H50_0423_fot_47A-06500_E_tif
  70
32
  10
207651.500
  20
4572946.293
  30
717.06
  0
VERTEX
  8
PNOA-H_AMS_1956-57_33k_ES_PAN_21mic_H50_0423_fot_47A-06500_E_tif
  70
32
  10
206043.000
  20
4573567.293
  30
473
  0
VERTEX
  8
PNOA-H_AMS_1956-57_33k_ES_PAN_21mic_H50_0423_fot_47A-06500_E_tif
  70
32
  10
206554.000
  20
4578003.793
  30
562.34
  0
VERTEX
  8
PNOA-H_AMS_1956-57_33k_ES_PAN_21mic_H50_0423_fot_47A-06500_E_tif
  70
32
  10
206554.500
  20
4578004.793
  30
515.05
  0
VERTEX
  8
PNOA-H_AMS_1956-57_33k_ES_PAN_21mic_H50_0423_fot_47A-06500_E_tif
  70
32
  10
206570.000
  20
4578139.293
  30
399
  0
VERTEX
  8
PNOA-H_AMS_1956-57_33k_ES_PAN_21mic_H50_0423_fot_47A-06500_E_tif
  70
32
  10
206696.500
  20
4579239.793
  30
-16171.5
  0
VERTEX
  8
PNOA-H_AMS_1956-57_33k_ES_PAN_21mic_H50_0423_fot_47A-06500_E_tif
  70
32
  10
206710.500
  20
4579239.793
  30
-17831.051
  0
VERTEX
  8
PNOA-H_AMS_1956-57_33k_ES_PAN_21mic_H50_0423_fot_47A-06500_E_tif
  70
32
  10
206714.500
  20
4579234.793
  30
-14511.95
  0
VERTEX
  8
PNOA-H_AMS_1956-57_33k_ES_PAN_21mic_H50_0423_fot_47A-06500_E_tif
  70
32
  10
206795.500
  20
4579234.793
  30
-17831.051
  0
VERTEX
  8
PNOA-H_AMS_1956-57_33k_ES_PAN_21mic_H50_0423_fot_47A-06500_E_tif
  70
32
  10
206799.500
  20
4579229.793
  30
-14512.45
  0
VERTEX
  8
PNOA-H_AMS_1956-57_33k_ES_PAN_21mic_H50_0423_fot_47A-06500_E_tif
  70
32
  10
206880.500
  20
4579229.793
  30
-17831.5
  0
VERTEX
  8
PNOA-H_AMS_1956-57_33k_ES_PAN_21mic_H50_0423_fot_47A-06500_E_tif
  70
32
  10
206884.500
  20
4579224.793
  30
-14512.5
  0
VERTEX
  8
PNOA-H_AMS_1956-57_33k_ES_PAN_21mic_H50_0423_fot_47A-06500_E_tif
  70
32
  10
206960.500
  20
4579224.793
  30
-17831.5
  0
VERTEX
  8
PNOA-H_AMS_1956-57_33k_ES_PAN_21mic_H50_0423_fot_47A-06500_E_tif
  70
32
  10
206964.500
  20
4579219.793
  30
-14512.5
  0
VERTEX
  8
PNOA-H_AMS_1956-57_33k_ES_PAN_21mic_H50_0423_fot_47A-06500_E_tif
  70
32
  10
207045.500
  20
4579219.793
  30
-17831.5
  0
VERTEX
  8
PNOA-H_AMS_1956-57_33k_ES_PAN_21mic_H50_0423_fot_47A-06500_E_tif
  70
32
  10
207049.500
  20
4579214.793
  30
-14513
  0
VERTEX
  8
PNOA-H_AMS_1956-57_33k_ES_PAN_21mic_H50_0423_fot_47A-06500_E_tif
  70
32
  10
207135.500
  20
4579214.793
  30
-17831.949
  0
VERTEX
  8
PNOA-H_AMS_1956-57_33k_ES_PAN_21mic_H50_0423_fot_47A-06500_E_tif
  70
32
  10
207139.500
  20
4579209.793
  30
-14513.05
  0
VERTEX
  8
PNOA-H_AMS_1956-57_33k_ES_PAN_21mic_H50_0423_fot_47A-06500_E_tif
  70
32
  10
207215.500
  20
4579209.793
  30
-17831.949
  0
VERTEX
  8
PNOA-H_AMS_1956-57_33k_ES_PAN_21mic_H50_0423_fot_47A-06500_E_tif
  70
32
  10
207219.500
  20
4579204.793
  30
-14513.05
  0
VERTEX
  8
PNOA-H_AMS_1956-57_33k_ES_PAN_21mic_H50_0423_fot_47A-06500_E_tif
  70
32
  10
207300.500
  20
4579204.793
  30
-17831.949
  0
VERTEX
  8
PNOA-H_AMS_1956-57_33k_ES_PAN_21mic_H50_0423_fot_47A-06500_E_tif
  70
32
  10
207304.500
  20
4579199.793
  30
-14513.05
  0
VERTEX
  8
PNOA-H_AMS_1956-57_33k_ES_PAN_21mic_H50_0423_fot_47A-06500_E_tif
  70
32
  10
207380.500
  20
4579199.793
  30
-17831.949
  0
VERTEX
  8
PNOA-H_AMS_1956-57_33k_ES_PAN_21mic_H50_0423_fot_47A-06500_E_tif
  70
32
  10
207384.500
  20
4579194.793
  30
-14513.05
  0
VERTEX
  8
PNOA-H_AMS_1956-57_33k_ES_PAN_21mic_H50_0423_fot_47A-06500_E_tif
  70
32
  10
207420.500
  20
4579194.793
  30
-14513.05
  0
VERTEX
  8
PNOA-H_AMS_1956-57_33k_ES_PAN_21mic_H50_0423_fot_47A-06500_E_tif
  70
32
  10
207422.500
  20
4579196.793
  30
-14513.05
  0
VERTEX
  8
PNOA-H_AMS_1956-57_33k_ES_PAN_21mic_H50_0423_fot_47A-06500_E_tif
  70
32
  10
207422.500
  20
4579307.793
  30
-17830.6
  0
VERTEX
  8
PNOA-H_AMS_1956-57_33k_ES_PAN_21mic_H50_0423_fot_47A-06500_E_tif
  70
32
  10
207427.500
  20
4579311.793
  30
-14510.95
  0
VERTEX
  8
PNOA-H_AMS_1956-57_33k_ES_PAN_21mic_H50_0423_fot_47A-06500_E_tif
  70
32
  10
207427.500
  20
4579322.793
  30
-16170.5
  0
VERTEX
  8
PNOA-H_AMS_1956-57_33k_ES_PAN_21mic_H50_0423_fot_47A-06500_E_tif
  70
32
  10
207428.500
  20
4579323.293
  30
-9531.9
  0
VERTEX
  8
PNOA-H_AMS_1956-57_33k_ES_PAN_21mic_H50_0423_fot_47A-06500_E_tif
  70
32
  10
207429.455
  20
4579323.688
  30
-6212.6
  0
SEQEND
  8
PNOA-H_AMS_1956-57_33k_ES_PAN_21mic_H50_0423_fot_47A-06500_E_tif
  0
TEXT
  8
PNOA-H_AMS_1956-57_33k_ES_PAN_21mic_H50_0423_fot_47A-06500_E_tif
 62
0
  1
PNOA-H_AMS_1956-57_33k_ES_PAN_21mic_H50_0423_fot_47A-06500_E.tif
 40
41.64508
  10
207754.873
  20
4576134.990
  0
POLYLINE
  8
PNOA-H_AMS_1956-57_33k_ES_PAN_21mic_H50_0423_fot_48A-10188_E_tif
  70
9
  66
1
  0
VERTEX
  8
PNOA-H_AMS_1956-57_33k_ES_PAN_21mic_H50_0423_fot_48A-10188_E_tif
  70
32
  10
213187.500
  20
4569589.793
  30
747.75
  0
VERTEX
  8
PNOA-H_AMS_1956-57_33k_ES_PAN_21mic_H50_0423_fot_48A-10188_E_tif
  70
32
  10
213119.000
  20
4568515.293
  30
739
  0
VERTEX
  8
PNOA-H_AMS_1956-57_33k_ES_PAN_21mic_H50_0423_fot_48A-10188_E_tif
  70
32
  10
210402.500
  20
4568648.793
  30
770
  0
VERTEX
  8
PNOA-H_AMS_1956-57_33k_ES_PAN_21mic_H50_0423_fot_48A-10188_E_tif
  70
32
  10
210400.000
  20
4568649.293
  30
770
  0
VERTEX
  8
PNOA-H_AMS_1956-57_33k_ES_PAN_21mic_H50_0423_fot_48A-10188_E_tif
  70
32
  10
210318.000
  20
4568704.293
  30
767
  0
VERTEX
  8
PNOA-H_AMS_1956-57_33k_ES_PAN_21mic_H50_0423_fot_48A-10188_E_tif
  70
32
  10
210518.000
  20
4572737.793
  30
701.86
  0
VERTEX
  8
PNOA-H_AMS_1956-57_33k_ES_PAN_21mic_H50_0423_fot_48A-10188_E_tif
  70
32
  10
211829.500
  20
4573178.293
  30
689.08
  0
VERTEX
  8
PNOA-H_AMS_1956-57_33k_ES_PAN_21mic_H50_0423_fot_48A-10188_E_tif
  70
32
  10
213376.500
  20
4572571.793
  30
705
  0
VERTEX
  8
PNOA-H_AMS_1956-57_33k_ES_PAN_21mic_H50_0423_fot_48A-10188_E_tif
  70
32
  10
213187.500
  20
4569595.293
  30
747.2
  0
VERTEX
  8
PNOA-H_AMS_1956-57_33k_ES_PAN_21mic_H50_0423_fot_48A-10188_E_tif
  70
32
  10
213187.500
  20
4569589.793
  30
747.75
  0
SEQEND
  8
PNOA-H_AMS_1956-57_33k_ES_PAN_21mic_H50_0423_fot_48A-10188_E_tif
  0
TEXT
  8
PNOA-H_AMS_1956-57_33k_ES_PAN_21mic_H50_0423_fot_48A-10188_E_tif
 62
0
  1
PNOA-H_AMS_1956-57_33k_ES_PAN_21mic_H50_0423_fot_48A-10188_E.tif
 40
41.64508
  10
211845.601
  20
4570846.793
  0
POLYLINE
  8
PNOA-H_AMS_1956-57_33k_ES_PAN_21mic_H50_0423_fot_48A-10187_E_tif
  70
9
  66
1
  0
VERTEX
  8
PNOA-H_AMS_1956-57_33k_ES_PAN_21mic_H50_0423_fot_48A-10187_E_tif
  70
32
  10
208282.000
  20
4573124.293
  30
700.24
  0
VERTEX
  8
PNOA-H_AMS_1956-57_33k_ES_PAN_21mic_H50_0423_fot_48A-10187_E_tif
  70
32
  10
208924.000
  20
4573305.293
  30
672.72
  0
VERTEX
  8
PNOA-H_AMS_1956-57_33k_ES_PAN_21mic_H50_0423_fot_48A-10187_E_tif
  70
32
  10
210518.000
  20
4572737.793
  30
701.86
  0
VERTEX
  8
PNOA-H_AMS_1956-57_33k_ES_PAN_21mic_H50_0423_fot_48A-10187_E_tif
  70
32
  10
210318.000
  20
4568704.793
  30
767
  0
VERTEX
  8
PNOA-H_AMS_1956-57_33k_ES_PAN_21mic_H50_0423_fot_48A-10187_E_tif
  70
32
  10
207638.000
  20
4568715.793
  30
708
  0
VERTEX
  8
PNOA-H_AMS_1956-57_33k_ES_PAN_21mic_H50_0423_fot_48A-10187_E_tif
  70
32
  10
207417.500
  20
4568857.293
  30
710
  0
VERTEX
  8
PNOA-H_AMS_1956-57_33k_ES_PAN_21mic_H50_0423_fot_48A-10187_E_tif
  70
32
  10
207653.000
  20
4572946.293
  30
717.12
  0
VERTEX
  8
PNOA-H_AMS_1956-57_33k_ES_PAN_21mic_H50_0423_fot_48A-10187_E_tif
  70
32
  10
208280.500
  20
4573123.793
  30
700.27
  0
VERTEX
  8
PNOA-H_AMS_1956-57_33k_ES_PAN_21mic_H50_0423_fot_48A-10187_E_tif
  70
32
  10
208282.000
  20
4573124.293
  30
700.24
  0
SEQEND
  8
PNOA-H_AMS_1956-57_33k_ES_PAN_21mic_H50_0423_fot_48A-10187_E_tif
  0
TEXT
  8
PNOA-H_AMS_1956-57_33k_ES_PAN_21mic_H50_0423_fot_48A-10187_E_tif
 62
0
  1
PNOA-H_AMS_1956-57_33k_ES_PAN_21mic_H50_0423_fot_48A-10187_E.tif
 40
41.64508
  10
208986.634
  20
4571005.043
  0
POLYLINE
  8
PNOA-H_AMS_1956-57_33k_ES_PAN_21mic_H50_0423_fot_49A-10170_W_tif
  70
9
  66
1
  0
VERTEX
  8
PNOA-H_AMS_1956-57_33k_ES_PAN_21mic_H50_0423_fot_49A-10170_W_tif
  70
32
  10
207638.500
  20
4568715.793
  30
708
  0
VERTEX
  8
PNOA-H_AMS_1956-57_33k_ES_PAN_21mic_H50_0423_fot_49A-10170_W_tif
  70
32
  10
210318.000
  20
4568704.793
  30
767
  0
VERTEX
  8
PNOA-H_AMS_1956-57_33k_ES_PAN_21mic_H50_0423_fot_49A-10170_W_tif
  70
32
  10
210400.500
  20
4568649.293
  30
770
  0
VERTEX
  8
PNOA-H_AMS_1956-57_33k_ES_PAN_21mic_H50_0423_fot_49A-10170_W_tif
  70
32
  10
210217.000
  20
4564240.293
  30
722
  0
VERTEX
  8
PNOA-H_AMS_1956-57_33k_ES_PAN_21mic_H50_0423_fot_49A-10170_W_tif
  70
32
  10
209478.000
  20
4563942.793
  30
721
  0
VERTEX
  8
PNOA-H_AMS_1956-57_33k_ES_PAN_21mic_H50_0423_fot_49A-10170_W_tif
  70
32
  10
207478.500
  20
4564423.793
  30
680.12
  0
VERTEX
  8
PNOA-H_AMS_1956-57_33k_ES_PAN_21mic_H50_0423_fot_49A-10170_W_tif
  70
32
  10
207638.500
  20
4568711.293
  30
708
  0
VERTEX
  8
PNOA-H_AMS_1956-57_33k_ES_PAN_21mic_H50_0423_fot_49A-10170_W_tif
  70
32
  10
207638.500
  20
4568715.793
  30
708
  0
SEQEND
  8
PNOA-H_AMS_1956-57_33k_ES_PAN_21mic_H50_0423_fot_49A-10170_W_tif
  0
TEXT
  8
PNOA-H_AMS_1956-57_33k_ES_PAN_21mic_H50_0423_fot_49A-10170_W_tif
 62
0
  1
PNOA-H_AMS_1956-57_33k_ES_PAN_21mic_H50_0423_fot_49A-10170_W.tif
 40
41.64508
  10
208926.776
  20
4566329.293
  0
POLYLINE
  8
PNOA-H_AMS_1956-57_33k_ES_PAN_21mic_H50_0423_fot_49A-10169_W_tif
  70
9
  66
1
  0
VERTEX
  8
PNOA-H_AMS_1956-57_33k_ES_PAN_21mic_H50_0423_fot_49A-10169_W_tif
  70
32
  10
210330.000
  20
4566960.793
  30
755
  0
VERTEX
  8
PNOA-H_AMS_1956-57_33k_ES_PAN_21mic_H50_0423_fot_49A-10169_W_tif
  70
32
  10
210400.500
  20
4568649.293
  30
770
  0
VERTEX
  8
PNOA-H_AMS_1956-57_33k_ES_PAN_21mic_H50_0423_fot_49A-10169_W_tif
  70
32
  10
213117.000
  20
4568515.793
  30
739
  0
VERTEX
  8
PNOA-H_AMS_1956-57_33k_ES_PAN_21mic_H50_0423_fot_49A-10169_W_tif
  70
32
  10
213120.000
  20
4568515.293
  30
739
  0
VERTEX
  8
PNOA-H_AMS_1956-57_33k_ES_PAN_21mic_H50_0423_fot_49A-10169_W_tif
  70
32
  10
213130.500
  20
4568507.793
  30
739
  0
VERTEX
  8
PNOA-H_AMS_1956-57_33k_ES_PAN_21mic_H50_0423_fot_49A-10169_W_tif
  70
32
  10
212927.000
  20
4564036.293
  30
753.68
  0
VERTEX
  8
PNOA-H_AMS_1956-57_33k_ES_PAN_21mic_H50_0423_fot_49A-10169_W_tif
  70
32
  10
212500.500
  20
4563840.793
  30
763
  0
VERTEX
  8
PNOA-H_AMS_1956-57_33k_ES_PAN_21mic_H50_0423_fot_49A-10169_W_tif
  70
32
  10
212490.500
  20
4563836.293
  30
763
  0
VERTEX
  8
PNOA-H_AMS_1956-57_33k_ES_PAN_21mic_H50_0423_fot_49A-10169_W_tif
  70
32
  10
212487.500
  20
4563836.293
  30
763
  0
VERTEX
  8
PNOA-H_AMS_1956-57_33k_ES_PAN_21mic_H50_0423_fot_49A-10169_W_tif
  70
32
  10
210217.000
  20
4564240.293
  30
722
  0
VERTEX
  8
PNOA-H_AMS_1956-57_33k_ES_PAN_21mic_H50_0423_fot_49A-10169_W_tif
  70
32
  10
210330.000
  20
4566948.793
  30
755
  0
VERTEX
  8
PNOA-H_AMS_1956-57_33k_ES_PAN_21mic_H50_0423_fot_49A-10169_W_tif
  70
32
  10
210330.000
  20
4566960.793
  30
755
  0
SEQEND
  8
PNOA-H_AMS_1956-57_33k_ES_PAN_21mic_H50_0423_fot_49A-10169_W_tif
  0
TEXT
  8
PNOA-H_AMS_1956-57_33k_ES_PAN_21mic_H50_0423_fot_49A-10169_W_tif
 62
0
  1
PNOA-H_AMS_1956-57_33k_ES_PAN_21mic_H50_0423_fot_49A-10169_W.tif
 40
41.64508
  10
211663.982
  20
4566242.793
  0
POLYLINE
  8
PNOA-H_AMS_1956-57_33k_ES_PAN_21mic_H50_0450_fot_50A-08778_E_tif
  70
9
  66
1
  0
VERTEX
  8
PNOA-H_AMS_1956-57_33k_ES_PAN_21mic_H50_0450_fot_50A-08778_E_tif
  70
32
  10
209425.445
  20
4563044.014
  30
722.77
  0
VERTEX
  8
PNOA-H_AMS_1956-57_33k_ES_PAN_21mic_H50_0450_fot_50A-08778_E_tif
  70
32
  10
208110.833
  20
4563096.310
  30
698.566
  0
VERTEX
  8
PNOA-H_AMS_1956-57_33k_ES_PAN_21mic_H50_0450_fot_50A-08778_E_tif
  70
32
  10
206446.930
  20
4563163.300
  30
714.891
  0
VERTEX
  8
PNOA-H_AMS_1956-57_33k_ES_PAN_21mic_H50_0450_fot_50A-08778_E_tif
  70
32
  10
206520.000
  20
4564069.293
  30
708
  0
VERTEX
  8
PNOA-H_AMS_1956-57_33k_ES_PAN_21mic_H50_0450_fot_50A-08778_E_tif
  70
32
  10
206522.000
  20
4564070.793
  30
708
  0
VERTEX
  8
PNOA-H_AMS_1956-57_33k_ES_PAN_21mic_H50_0450_fot_50A-08778_E_tif
  70
32
  10
207479.500
  20
4564423.793
  30
680.24
  0
VERTEX
  8
PNOA-H_AMS_1956-57_33k_ES_PAN_21mic_H50_0450_fot_50A-08778_E_tif
  70
32
  10
209478.000
  20
4563943.293
  30
721
  0
SEQEND
  8
PNOA-H_AMS_1956-57_33k_ES_PAN_21mic_H50_0450_fot_50A-08778_E_tif
  0
TEXT
  8
PNOA-H_AMS_1956-57_33k_ES_PAN_21mic_H50_0450_fot_50A-08778_E_tif
 62
0
  1
PNOA-H_AMS_1956-57_33k_ES_PAN_21mic_H50_0450_fot_50A-08778_E.tif
 40
41.64508
  10
207962.465
  20
4563733.904
  0
POLYLINE
  8
PNOA-H_AMS_1956-57_33k_ES_PAN_21mic_H50_0450_fot_50A-08779_E_tif
  70
9
  66
1
  0
VERTEX
  8
PNOA-H_AMS_1956-57_33k_ES_PAN_21mic_H50_0450_fot_50A-08779_E_tif
  70
32
  10
212429.680
  20
4562924.900
  30
763
  0
VERTEX
  8
PNOA-H_AMS_1956-57_33k_ES_PAN_21mic_H50_0450_fot_50A-08779_E_tif
  70
32
  10
211607.080
  20
4562957.228
  30
763
  0
VERTEX
  8
PNOA-H_AMS_1956-57_33k_ES_PAN_21mic_H50_0450_fot_50A-08779_E_tif
  70
32
  10
209425.505
  20
4563044.012
  30
726.064
  0
VERTEX
  8
PNOA-H_AMS_1956-57_33k_ES_PAN_21mic_H50_0450_fot_50A-08779_E_tif
  70
32
  10
209478.000
  20
4563942.793
  30
721
  0
VERTEX
  8
PNOA-H_AMS_1956-57_33k_ES_PAN_21mic_H50_0450_fot_50A-08779_E_tif
  70
32
  10
210214.500
  20
4564239.793
  30
722
  0
VERTEX
  8
PNOA-H_AMS_1956-57_33k_ES_PAN_21mic_H50_0450_fot_50A-08779_E_tif
  70
32
  10
210215.500
  20
4564240.293
  30
722
  0
VERTEX
  8
PNOA-H_AMS_1956-57_33k_ES_PAN_21mic_H50_0450_fot_50A-08779_E_tif
  70
32
  10
212489.500
  20
4563836.293
  30
763
  0
SEQEND
  8
PNOA-H_AMS_1956-57_33k_ES_PAN_21mic_H50_0450_fot_50A-08779_E_tif
  0
TEXT
  8
PNOA-H_AMS_1956-57_33k_ES_PAN_21mic_H50_0450_fot_50A-08779_E_tif
 62
0
  1
PNOA-H_AMS_1956-57_33k_ES_PAN_21mic_H50_0450_fot_50A-08779_E.tif
 40
41.64508
  10
210957.503
  20
4563582.597
  0
POLYLINE
  8
PNOA-H_AMS_1956-57_33k_ES_PAN_21mic_H50_0423_fot_47A-06503_E_tif
  70
9
  66
1
  0
VERTEX
  8
PNOA-H_AMS_1956-57_33k_ES_PAN_21mic_H50_0423_fot_47A-06503_E_tif
  70
32
  10
217697.000
  20
4573685.793
  30
727
  0
VERTEX
  8
PNOA-H_AMS_1956-57_33k_ES_PAN_21mic_H50_0423_fot_47A-06503_E_tif
  70
32
  10
217667.500
  20
4572831.793
  30
717
  0
VERTEX
  8
PNOA-H_AMS_1956-57_33k_ES_PAN_21mic_H50_0423_fot_47A-06503_E_tif
  70
32
  10
216111.500
  20
4572439.793
  30
727.65
  0
VERTEX
  8
PNOA-H_AMS_1956-57_33k_ES_PAN_21mic_H50_0423_fot_47A-06503_E_tif
  70
32
  10
216107.500
  20
4572440.293
  30
727.7
  0
VERTEX
  8
PNOA-H_AMS_1956-57_33k_ES_PAN_21mic_H50_0423_fot_47A-06503_E_tif
  70
32
  10
214868.000
  20
4572982.293
  30
734.4
  0
VERTEX
  8
PNOA-H_AMS_1956-57_33k_ES_PAN_21mic_H50_0423_fot_47A-06503_E_tif
  70
32
  10
215080.000
  20
4577596.293
  30
635.8
  0
VERTEX
  8
PNOA-H_AMS_1956-57_33k_ES_PAN_21mic_H50_0423_fot_47A-06503_E_tif
  70
32
  10
215080.500
  20
4577599.293
  30
636
  0
VERTEX
  8
PNOA-H_AMS_1956-57_33k_ES_PAN_21mic_H50_0423_fot_47A-06503_E_tif
  70
32
  10
215604.500
  20
4577783.293
  30
661
  0
VERTEX
  8
PNOA-H_AMS_1956-57_33k_ES_PAN_21mic_H50_0423_fot_47A-06503_E_tif
  70
32
  10
217828.500
  20
4577479.293
  30
573.06
  0
VERTEX
  8
PNOA-H_AMS_1956-57_33k_ES_PAN_21mic_H50_0423_fot_47A-06503_E_tif
  70
32
  10
217697.000
  20
4573689.793
  30
726.5
  0
VERTEX
  8
PNOA-H_AMS_1956-57_33k_ES_PAN_21mic_H50_0423_fot_47A-06503_E_tif
  70
32
  10
217697.000
  20
4573685.793
  30
727
  0
SEQEND
  8
PNOA-H_AMS_1956-57_33k_ES_PAN_21mic_H50_0423_fot_47A-06503_E_tif
  0
TEXT
  8
PNOA-H_AMS_1956-57_33k_ES_PAN_21mic_H50_0423_fot_47A-06503_E_tif
 62
0
  1
PNOA-H_AMS_1956-57_33k_ES_PAN_21mic_H50_0423_fot_47A-06503_E.tif
 40
41.64508
  10
216356.085
  20
4575111.543
  0
POLYLINE
  8
PNOA-H_AMS_1956-57_33k_ES_PAN_21mic_H50_0423_fot_47A-06504_E_tif
  70
9
  66
1
  0
VERTEX
  8
PNOA-H_AMS_1956-57_33k_ES_PAN_21mic_H50_0423_fot_47A-06504_E_tif
  70
32
  10
218522.500
  20
4577670.293
  30
668.5
  0
VERTEX
  8
PNOA-H_AMS_1956-57_33k_ES_PAN_21mic_H50_0423_fot_47A-06504_E_tif
  70
32
  10
220403.500
  20
4577293.293
  30
732.06
  0
VERTEX
  8
PNOA-H_AMS_1956-57_33k_ES_PAN_21mic_H50_0423_fot_47A-06504_E_tif
  70
32
  10
220350.000
  20
4572755.793
  30
727.7
  0
VERTEX
  8
PNOA-H_AMS_1956-57_33k_ES_PAN_21mic_H50_0423_fot_47A-06504_E_tif
  70
32
  10
218934.500
  20
4572351.793
  30
739
  0
VERTEX
  8
PNOA-H_AMS_1956-57_33k_ES_PAN_21mic_H50_0423_fot_47A-06504_E_tif
  70
32
  10
218930.500
  20
4572352.293
  30
739
  0
VERTEX
  8
PNOA-H_AMS_1956-57_33k_ES_PAN_21mic_H50_0423_fot_47A-06504_E_tif
  70
32
  10
217667.500
  20
4572831.793
  30
717
  0
VERTEX
  8
PNOA-H_AMS_1956-57_33k_ES_PAN_21mic_H50_0423_fot_47A-06504_E_tif
  70
32
  10
217828.500
  20
4577479.293
  30
573.06
  0
VERTEX
  8
PNOA-H_AMS_1956-57_33k_ES_PAN_21mic_H50_0423_fot_47A-06504_E_tif
  70
32
  10
218471.500
  20
4577679.293
  30
661.3
  0
VERTEX
  8
PNOA-H_AMS_1956-57_33k_ES_PAN_21mic_H50_0423_fot_47A-06504_E_tif
  70
32
  10
218475.500
  20
4577679.793
  30
662
  0
VERTEX
  8
PNOA-H_AMS_1956-57_33k_ES_PAN_21mic_H50_0423_fot_47A-06504_E_tif
  70
32
  10
218520.500
  20
4577670.293
  30
668.1
  0
VERTEX
  8
PNOA-H_AMS_1956-57_33k_ES_PAN_21mic_H50_0423_fot_47A-06504_E_tif
  70
32
  10
218522.500
  20
4577670.293
  30
668.5
  0
SEQEND
  8
PNOA-H_AMS_1956-57_33k_ES_PAN_21mic_H50_0423_fot_47A-06504_E_tif
  0
TEXT
  8
PNOA-H_AMS_1956-57_33k_ES_PAN_21mic_H50_0423_fot_47A-06504_E_tif
 62
0
  1
PNOA-H_AMS_1956-57_33k_ES_PAN_21mic_H50_0423_fot_47A-06504_E.tif
 40
41.64508
  10
219059.903
  20
4575015.793
  0
POLYLINE
  8
PNOA-H_AMS_1956-57_33k_ES_PAN_21mic_H50_0423_fot_46A-10302_E_tif
  70
9
  66
1
  0
VERTEX
  8
PNOA-H_AMS_1956-57_33k_ES_PAN_21mic_H50_0423_fot_46A-10302_E_tif
  70
32
  10
215829.511
  20
4581326.417
  30
639.841
  0
VERTEX
  8
PNOA-H_AMS_1956-57_33k_ES_PAN_21mic_H50_0423_fot_46A-10302_E_tif
  70
32
  10
215606.000
  20
4577783.293
  30
661.2
  0
VERTEX
  8
PNOA-H_AMS_1956-57_33k_ES_PAN_21mic_H50_0423_fot_46A-10302_E_tif
  70
32
  10
215080.500
  20
4577598.793
  30
636
  0
VERTEX
  8
PNOA-H_AMS_1956-57_33k_ES_PAN_21mic_H50_0423_fot_46A-10302_E_tif
  70
32
  10
212825.500
  20
4577938.293
  30
612.82
  0
VERTEX
  8
PNOA-H_AMS_1956-57_33k_ES_PAN_21mic_H50_0423_fot_46A-10302_E_tif
  70
32
  10
212912.733
  20
4581441.425
  30
536.354
  0
VERTEX
  8
PNOA-H_AMS_1956-57_33k_ES_PAN_21mic_H50_0423_fot_46A-10302_E_tif
  70
32
  10
215827.370
  20
4581326.500
  30
639.842
  0
SEQEND
  8
PNOA-H_AMS_1956-57_33k_ES_PAN_21mic_H50_0423_fot_46A-10302_E_tif
  0
TEXT
  8
PNOA-H_AMS_1956-57_33k_ES_PAN_21mic_H50_0423_fot_46A-10302_E_tif
 62
0
  1
PNOA-H_AMS_1956-57_33k_ES_PAN_21mic_H50_0423_fot_46A-10302_E.tif
 40
41.64508
  10
214293.055
  20
4579584.397
  0
POLYLINE
  8
PNOA-H_AMS_1956-57_33k_ES_PAN_21mic_H50_0423_fot_46A-10304_E_tif
  70
9
  66
1
  0
VERTEX
  8
PNOA-H_AMS_1956-57_33k_ES_PAN_21mic_H50_0423_fot_46A-10304_E_tif
  70
32
  10
221726.576
  20
4581097.898
  30
717.355
  0
VERTEX
  8
PNOA-H_AMS_1956-57_33k_ES_PAN_21mic_H50_0423_fot_46A-10304_E_tif
  70
32
  10
221444.500
  20
4577580.293
  30
755.64
  0
VERTEX
  8
PNOA-H_AMS_1956-57_33k_ES_PAN_21mic_H50_0423_fot_46A-10304_E_tif
  70
32
  10
220403.500
  20
4577293.293
  30
732.06
  0
VERTEX
  8
PNOA-H_AMS_1956-57_33k_ES_PAN_21mic_H50_0423_fot_46A-10304_E_tif
  70
32
  10
218532.500
  20
4577667.793
  30
669.5
  0
VERTEX
  8
PNOA-H_AMS_1956-57_33k_ES_PAN_21mic_H50_0423_fot_46A-10304_E_tif
  70
32
  10
218475.500
  20
4577679.293
  30
662
  0
VERTEX
  8
PNOA-H_AMS_1956-57_33k_ES_PAN_21mic_H50_0423_fot_46A-10304_E_tif
  70
32
  10
218474.000
  20
4577679.793
  30
661.8
  0
VERTEX
  8
PNOA-H_AMS_1956-57_33k_ES_PAN_21mic_H50_0423_fot_46A-10304_E_tif
  70
32
  10
218474.000
  20
4577681.293
  30
661.8
  0
VERTEX
  8
PNOA-H_AMS_1956-57_33k_ES_PAN_21mic_H50_0423_fot_46A-10304_E_tif
  70
32
  10
218753.773
  20
4581212.522
  30
663.131
  0
VERTEX
  8
PNOA-H_AMS_1956-57_33k_ES_PAN_21mic_H50_0423_fot_46A-10304_E_tif
  70
32
  10
219314.668
  20
4581190.676
  30
682.222
  0
SEQEND
  8
PNOA-H_AMS_1956-57_33k_ES_PAN_21mic_H50_0423_fot_46A-10304_E_tif
  0
TEXT
  8
PNOA-H_AMS_1956-57_33k_ES_PAN_21mic_H50_0423_fot_46A-10304_E_tif
 62
0
  1
PNOA-H_AMS_1956-57_33k_ES_PAN_21mic_H50_0423_fot_46A-10304_E.tif
 40
41.64508
  10
220102.818
  20
4579431.647
  0
POLYLINE
  8
PNOA-H_AMS_1956-57_33k_ES_PAN_21mic_H50_0423_fot_46A-10303_E_tif
  70
9
  66
1
  0
VERTEX
  8
PNOA-H_AMS_1956-57_33k_ES_PAN_21mic_H50_0423_fot_46A-10303_E_tif
  70
32
  10
218754.030
  20
4581212.512
  30
662.944
  0
VERTEX
  8
PNOA-H_AMS_1956-57_33k_ES_PAN_21mic_H50_0423_fot_46A-10303_E_tif
  70
32
  10
218474.500
  20
4577681.293
  30
661.9
  0
VERTEX
  8
PNOA-H_AMS_1956-57_33k_ES_PAN_21mic_H50_0423_fot_46A-10303_E_tif
  70
32
  10
218473.500
  20
4577679.293
  30
661.7
  0
VERTEX
  8
PNOA-H_AMS_1956-57_33k_ES_PAN_21mic_H50_0423_fot_46A-10303_E_tif
  70
32
  10
217829.500
  20
4577479.293
  30
573.02
  0
VERTEX
  8
PNOA-H_AMS_1956-57_33k_ES_PAN_21mic_H50_0423_fot_46A-10303_E_tif
  70
32
  10
215606.000
  20
4577783.293
  30
661.2
  0
VERTEX
  8
PNOA-H_AMS_1956-57_33k_ES_PAN_21mic_H50_0423_fot_46A-10303_E_tif
  70
32
  10
215606.000
  20
4577787.293
  30
661.2
  0
VERTEX
  8
PNOA-H_AMS_1956-57_33k_ES_PAN_21mic_H50_0423_fot_46A-10303_E_tif
  70
32
  10
215829.457
  20
4581326.419
  30
639.844
  0
SEQEND
  8
PNOA-H_AMS_1956-57_33k_ES_PAN_21mic_H50_0423_fot_46A-10303_E_tif
  0
TEXT
  8
PNOA-H_AMS_1956-57_33k_ES_PAN_21mic_H50_0423_fot_46A-10303_E_tif
 62
0
  1
PNOA-H_AMS_1956-57_33k_ES_PAN_21mic_H50_0423_fot_46A-10303_E.tif
 40
41.64508
  10
217168.057
  20
4579524.647
  0
POLYLINE
  8
PNOA-H_AMS_1956-57_33k_ES_PAN_21mic_H50_0423_fot_46A-10301_E_tif
  70
9
  66
1
  0
VERTEX
  8
PNOA-H_AMS_1956-57_33k_ES_PAN_21mic_H50_0423_fot_46A-10301_E_tif
  70
32
  10
212912.733
  20
4581441.425
  30
536.354
  0
VERTEX
  8
PNOA-H_AMS_1956-57_33k_ES_PAN_21mic_H50_0423_fot_46A-10301_E_tif
  70
32
  10
212825.500
  20
4577938.293
  30
612.82
  0
VERTEX
  8
PNOA-H_AMS_1956-57_33k_ES_PAN_21mic_H50_0423_fot_46A-10301_E_tif
  70
32
  10
212150.500
  20
4577705.293
  30
569.8
  0
VERTEX
  8
PNOA-H_AMS_1956-57_33k_ES_PAN_21mic_H50_0423_fot_46A-10301_E_tif
  70
32
  10
209352.000
  20
4578199.793
  30
423.6
  0
VERTEX
  8
PNOA-H_AMS_1956-57_33k_ES_PAN_21mic_H50_0423_fot_46A-10301_E_tif
  70
32
  10
208187.000
  20
4578997.293
  30
604.6
  0
VERTEX
  8
PNOA-H_AMS_1956-57_33k_ES_PAN_21mic_H50_0423_fot_46A-10301_E_tif
  70
32
  10
208176.500
  20
4578995.793
  30
607.4
  0
VERTEX
  8
PNOA-H_AMS_1956-57_33k_ES_PAN_21mic_H50_0423_fot_46A-10301_E_tif
  70
32
  10
208171.000
  20
4578992.793
  30
609.68
  0
VERTEX
  8
PNOA-H_AMS_1956-57_33k_ES_PAN_21mic_H50_0423_fot_46A-10301_E_tif
  70
32
  10
208160.000
  20
4578989.293
  30
615.4
  0
VERTEX
  8
PNOA-H_AMS_1956-57_33k_ES_PAN_21mic_H50_0423_fot_46A-10301_E_tif
  70
32
  10
208127.000
  20
4578981.793
  30
626.5
  0
VERTEX
  8
PNOA-H_AMS_1956-57_33k_ES_PAN_21mic_H50_0423_fot_46A-10301_E_tif
  70
32
  10
208066.000
  20
4578981.293
  30
632.6
  0
VERTEX
  8
PNOA-H_AMS_1956-57_33k_ES_PAN_21mic_H50_0423_fot_46A-10301_E_tif
  70
32
  10
208002.000
  20
4578983.793
  30
634.48
  0
VERTEX
  8
PNOA-H_AMS_1956-57_33k_ES_PAN_21mic_H50_0423_fot_46A-10301_E_tif
  70
32
  10
208002.000
  20
4579089.793
  30
651
  0
VERTEX
  8
PNOA-H_AMS_1956-57_33k_ES_PAN_21mic_H50_0423_fot_46A-10301_E_tif
  70
32
  10
207998.500
  20
4579093.793
  30
580.11
  0
VERTEX
  8
PNOA-H_AMS_1956-57_33k_ES_PAN_21mic_H50_0423_fot_46A-10301_E_tif
  70
32
  10
207997.500
  20
4579159.793
  30
536
  0
VERTEX
  8
PNOA-H_AMS_1956-57_33k_ES_PAN_21mic_H50_0423_fot_46A-10301_E_tif
  70
32
  10
207997.500
  20
4579277.793
  30
-1122.35
  0
VERTEX
  8
PNOA-H_AMS_1956-57_33k_ES_PAN_21mic_H50_0423_fot_46A-10301_E_tif
  70
32
  10
207998.500
  20
4579278.293
  30
-1408.06
  0
VERTEX
  8
PNOA-H_AMS_1956-57_33k_ES_PAN_21mic_H50_0423_fot_46A-10301_E_tif
  70
32
  10
207998.500
  20
4579281.793
  30
-8376.77
  0
VERTEX
  8
PNOA-H_AMS_1956-57_33k_ES_PAN_21mic_H50_0423_fot_46A-10301_E_tif
  70
32
  10
207997.500
  20
4579281.793
  30
-14397.15
  0
VERTEX
  8
PNOA-H_AMS_1956-57_33k_ES_PAN_21mic_H50_0423_fot_46A-10301_E_tif
  70
32
  10
207997.500
  20
4579302.793
  30
-17725.75
  0
VERTEX
  8
PNOA-H_AMS_1956-57_33k_ES_PAN_21mic_H50_0423_fot_46A-10301_E_tif
  70
32
  10
208014.500
  20
4579319.793
  30
-17729.35
  0
VERTEX
  8
PNOA-H_AMS_1956-57_33k_ES_PAN_21mic_H50_0423_fot_46A-10301_E_tif
  70
32
  10
208017.000
  20
4579320.293
  30
-11381.64
  0
VERTEX
  8
PNOA-H_AMS_1956-57_33k_ES_PAN_21mic_H50_0423_fot_46A-10301_E_tif
  70
32
  10
208017.500
  20
4579322.793
  30
-17731.6
  0
VERTEX
  8
PNOA-H_AMS_1956-57_33k_ES_PAN_21mic_H50_0423_fot_46A-10301_E_tif
  70
32
  10
208029.500
  20
4579334.793
  30
-17732.949
  0
VERTEX
  8
PNOA-H_AMS_1956-57_33k_ES_PAN_21mic_H50_0423_fot_46A-10301_E_tif
  70
32
  10
208035.500
  20
4579334.793
  30
-14391.9
  0
VERTEX
  8
PNOA-H_AMS_1956-57_33k_ES_PAN_21mic_H50_0423_fot_46A-10301_E_tif
  70
32
  10
208039.500
  20
4579339.793
  30
-17732.051
  0
VERTEX
  8
PNOA-H_AMS_1956-57_33k_ES_PAN_21mic_H50_0423_fot_46A-10301_E_tif
  70
32
  10
208045.500
  20
4579339.793
  30
-14390.65
  0
VERTEX
  8
PNOA-H_AMS_1956-57_33k_ES_PAN_21mic_H50_0423_fot_46A-10301_E_tif
  70
32
  10
208049.500
  20
4579344.793
  30
-17730.25
  0
VERTEX
  8
PNOA-H_AMS_1956-57_33k_ES_PAN_21mic_H50_0423_fot_46A-10301_E_tif
  70
32
  10
208055.500
  20
4579344.793
  30
-14387.95
  0
VERTEX
  8
PNOA-H_AMS_1956-57_33k_ES_PAN_21mic_H50_0423_fot_46A-10301_E_tif
  70
32
  10
208059.500
  20
4579349.793
  30
-17728.449
  0
VERTEX
  8
PNOA-H_AMS_1956-57_33k_ES_PAN_21mic_H50_0423_fot_46A-10301_E_tif
  70
32
  10
208065.500
  20
4579349.793
  30
-14386.45
  0
VERTEX
  8
PNOA-H_AMS_1956-57_33k_ES_PAN_21mic_H50_0423_fot_46A-10301_E_tif
  70
32
  10
208069.500
  20
4579354.793
  30
-17728
  0
VERTEX
  8
PNOA-H_AMS_1956-57_33k_ES_PAN_21mic_H50_0423_fot_46A-10301_E_tif
  70
32
  10
208075.500
  20
4579354.793
  30
-14385.15
  0
VERTEX
  8
PNOA-H_AMS_1956-57_33k_ES_PAN_21mic_H50_0423_fot_46A-10301_E_tif
  70
32
  10
208084.500
  20
4579364.793
  30
-17724.85
  0
VERTEX
  8
PNOA-H_AMS_1956-57_33k_ES_PAN_21mic_H50_0423_fot_46A-10301_E_tif
  70
32
  10
208090.500
  20
4579364.793
  30
-14382.05
  0
VERTEX
  8
PNOA-H_AMS_1956-57_33k_ES_PAN_21mic_H50_0423_fot_46A-10301_E_tif
  70
32
  10
208099.500
  20
4579374.793
  30
-17723.949
  0
VERTEX
  8
PNOA-H_AMS_1956-57_33k_ES_PAN_21mic_H50_0423_fot_46A-10301_E_tif
  70
32
  10
208105.500
  20
4579374.793
  30
-14381
  0
VERTEX
  8
PNOA-H_AMS_1956-57_33k_ES_PAN_21mic_H50_0423_fot_46A-10301_E_tif
  70
32
  10
208119.500
  20
4579389.793
  30
-17723.949
  0
VERTEX
  8
PNOA-H_AMS_1956-57_33k_ES_PAN_21mic_H50_0423_fot_46A-10301_E_tif
  70
32
  10
208125.500
  20
4579389.793
  30
-14381.2
  0
VERTEX
  8
PNOA-H_AMS_1956-57_33k_ES_PAN_21mic_H50_0423_fot_46A-10301_E_tif
  70
32
  10
208159.500
  20
4579424.793
  30
-17729.35
  0
VERTEX
  8
PNOA-H_AMS_1956-57_33k_ES_PAN_21mic_H50_0423_fot_46A-10301_E_tif
  70
32
  10
208165.500
  20
4579424.793
  30
-14388.35
  0
VERTEX
  8
PNOA-H_AMS_1956-57_33k_ES_PAN_21mic_H50_0423_fot_46A-10301_E_tif
  70
32
  10
208214.500
  20
4579474.793
  30
-17738.35
  0
VERTEX
  8
PNOA-H_AMS_1956-57_33k_ES_PAN_21mic_H50_0423_fot_46A-10301_E_tif
  70
32
  10
208220.500
  20
4579474.793
  30
-14398.65
  0
VERTEX
  8
PNOA-H_AMS_1956-57_33k_ES_PAN_21mic_H50_0423_fot_46A-10301_E_tif
  70
32
  10
208229.500
  20
4579484.793
  30
-17737.9
  0
VERTEX
  8
PNOA-H_AMS_1956-57_33k_ES_PAN_21mic_H50_0423_fot_46A-10301_E_tif
  70
32
  10
208235.500
  20
4579484.793
  30
-14398
  0
VERTEX
  8
PNOA-H_AMS_1956-57_33k_ES_PAN_21mic_H50_0423_fot_46A-10301_E_tif
  70
32
  10
208244.500
  20
4579494.793
  30
-17737.449
  0
VERTEX
  8
PNOA-H_AMS_1956-57_33k_ES_PAN_21mic_H50_0423_fot_46A-10301_E_tif
  70
32
  10
208255.500
  20
4579494.793
  30
-14398.55
  0
VERTEX
  8
PNOA-H_AMS_1956-57_33k_ES_PAN_21mic_H50_0423_fot_46A-10301_E_tif
  70
32
  10
208269.500
  20
4579509.793
  30
-17742.85
  0
VERTEX
  8
PNOA-H_AMS_1956-57_33k_ES_PAN_21mic_H50_0423_fot_46A-10301_E_tif
  70
32
  10
208275.500
  20
4579509.793
  30
-14403.95
  0
VERTEX
  8
PNOA-H_AMS_1956-57_33k_ES_PAN_21mic_H50_0423_fot_46A-10301_E_tif
  70
32
  10
208279.500
  20
4579514.793
  30
-17741.5
  0
VERTEX
  8
PNOA-H_AMS_1956-57_33k_ES_PAN_21mic_H50_0423_fot_46A-10301_E_tif
  70
32
  10
208290.500
  20
4579514.793
  30
-14401.05
  0
VERTEX
  8
PNOA-H_AMS_1956-57_33k_ES_PAN_21mic_H50_0423_fot_46A-10301_E_tif
  70
32
  10
208294.500
  20
4579519.793
  30
-17738.35
  0
VERTEX
  8
PNOA-H_AMS_1956-57_33k_ES_PAN_21mic_H50_0423_fot_46A-10301_E_tif
  70
32
  10
208300.500
  20
4579519.793
  30
-14398.45
  0
VERTEX
  8
PNOA-H_AMS_1956-57_33k_ES_PAN_21mic_H50_0423_fot_46A-10301_E_tif
  70
32
  10
208304.500
  20
4579524.793
  30
-17737
  0
VERTEX
  8
PNOA-H_AMS_1956-57_33k_ES_PAN_21mic_H50_0423_fot_46A-10301_E_tif
  70
32
  10
208310.500
  20
4579524.793
  30
-14396.15
  0
VERTEX
  8
PNOA-H_AMS_1956-57_33k_ES_PAN_21mic_H50_0423_fot_46A-10301_E_tif
  70
32
  10
208314.500
  20
4579529.793
  30
-17734.75
  0
VERTEX
  8
PNOA-H_AMS_1956-57_33k_ES_PAN_21mic_H50_0423_fot_46A-10301_E_tif
  70
32
  10
208320.500
  20
4579529.793
  30
-14393.5
  0
VERTEX
  8
PNOA-H_AMS_1956-57_33k_ES_PAN_21mic_H50_0423_fot_46A-10301_E_tif
  70
32
  10
208329.500
  20
4579539.793
  30
-17732.5
  0
VERTEX
  8
PNOA-H_AMS_1956-57_33k_ES_PAN_21mic_H50_0423_fot_46A-10301_E_tif
  70
32
  10
208335.500
  20
4579539.793
  30
-14391.25
  0
VERTEX
  8
PNOA-H_AMS_1956-57_33k_ES_PAN_21mic_H50_0423_fot_46A-10301_E_tif
  70
32
  10
208339.500
  20
4579544.793
  30
-17730.699
  0
VERTEX
  8
PNOA-H_AMS_1956-57_33k_ES_PAN_21mic_H50_0423_fot_46A-10301_E_tif
  70
32
  10
208345.500
  20
4579544.793
  30
-14389.05
  0
VERTEX
  8
PNOA-H_AMS_1956-57_33k_ES_PAN_21mic_H50_0423_fot_46A-10301_E_tif
  70
32
  10
208349.500
  20
4579549.793
  30
-17729.35
  0
VERTEX
  8
PNOA-H_AMS_1956-57_33k_ES_PAN_21mic_H50_0423_fot_46A-10301_E_tif
  70
32
  10
208355.500
  20
4579549.793
  30
-14386.95
  0
VERTEX
  8
PNOA-H_AMS_1956-57_33k_ES_PAN_21mic_H50_0423_fot_46A-10301_E_tif
  70
32
  10
208364.500
  20
4579559.793
  30
-17727.1
  0
VERTEX
  8
PNOA-H_AMS_1956-57_33k_ES_PAN_21mic_H50_0423_fot_46A-10301_E_tif
  70
32
  10
208370.500
  20
4579559.793
  30
-14384.2
  0
VERTEX
  8
PNOA-H_AMS_1956-57_33k_ES_PAN_21mic_H50_0423_fot_46A-10301_E_tif
  70
32
  10
208374.500
  20
4579564.793
  30
-17725.75
  0
VERTEX
  8
PNOA-H_AMS_1956-57_33k_ES_PAN_21mic_H50_0423_fot_46A-10301_E_tif
  70
32
  10
208380.500
  20
4579564.793
  30
-14383.1
  0
VERTEX
  8
PNOA-H_AMS_1956-57_33k_ES_PAN_21mic_H50_0423_fot_46A-10301_E_tif
  70
32
  10
208384.500
  20
4579569.793
  30
-17724.85
  0
VERTEX
  8
PNOA-H_AMS_1956-57_33k_ES_PAN_21mic_H50_0423_fot_46A-10301_E_tif
  70
32
  10
208390.500
  20
4579569.793
  30
-14382.15
  0
VERTEX
  8
PNOA-H_AMS_1956-57_33k_ES_PAN_21mic_H50_0423_fot_46A-10301_E_tif
  70
32
  10
208399.500
  20
4579579.793
  30
-17724.85
  0
VERTEX
  8
PNOA-H_AMS_1956-57_33k_ES_PAN_21mic_H50_0423_fot_46A-10301_E_tif
  70
32
  10
208405.500
  20
4579579.793
  30
-14382.15
  0
VERTEX
  8
PNOA-H_AMS_1956-57_33k_ES_PAN_21mic_H50_0423_fot_46A-10301_E_tif
  70
32
  10
208419.500
  20
4579594.793
  30
-17725.301
  0
VERTEX
  8
PNOA-H_AMS_1956-57_33k_ES_PAN_21mic_H50_0423_fot_46A-10301_E_tif
  70
32
  10
208425.500
  20
4579594.793
  30
-14382.9
  0
VERTEX
  8
PNOA-H_AMS_1956-57_33k_ES_PAN_21mic_H50_0423_fot_46A-10301_E_tif
  70
32
  10
208489.500
  20
4579659.793
  30
-17738.801
  0
VERTEX
  8
PNOA-H_AMS_1956-57_33k_ES_PAN_21mic_H50_0423_fot_46A-10301_E_tif
  70
32
  10
208495.500
  20
4579659.793
  30
-14399.05
  0
VERTEX
  8
PNOA-H_AMS_1956-57_33k_ES_PAN_21mic_H50_0423_fot_46A-10301_E_tif
  70
32
  10
208504.500
  20
4579669.793
  30
-17737
  0
VERTEX
  8
PNOA-H_AMS_1956-57_33k_ES_PAN_21mic_H50_0423_fot_46A-10301_E_tif
  70
32
  10
208510.500
  20
4579669.793
  30
-14396.95
  0
VERTEX
  8
PNOA-H_AMS_1956-57_33k_ES_PAN_21mic_H50_0423_fot_46A-10301_E_tif
  70
32
  10
208514.500
  20
4579674.793
  30
-17736.551
  0
VERTEX
  8
PNOA-H_AMS_1956-57_33k_ES_PAN_21mic_H50_0423_fot_46A-10301_E_tif
  70
32
  10
208520.500
  20
4579674.793
  30
-14396.3
  0
VERTEX
  8
PNOA-H_AMS_1956-57_33k_ES_PAN_21mic_H50_0423_fot_46A-10301_E_tif
  70
32
  10
208524.500
  20
4579679.793
  30
-17735.65
  0
VERTEX
  8
PNOA-H_AMS_1956-57_33k_ES_PAN_21mic_H50_0423_fot_46A-10301_E_tif
  70
32
  10
208530.500
  20
4579679.793
  30
-14395.1
  0
VERTEX
  8
PNOA-H_AMS_1956-57_33k_ES_PAN_21mic_H50_0423_fot_46A-10301_E_tif
  70
32
  10
208539.500
  20
4579689.793
  30
-17733.85
  0
VERTEX
  8
PNOA-H_AMS_1956-57_33k_ES_PAN_21mic_H50_0423_fot_46A-10301_E_tif
  70
32
  10
208545.500
  20
4579689.793
  30
-14393
  0
VERTEX
  8
PNOA-H_AMS_1956-57_33k_ES_PAN_21mic_H50_0423_fot_46A-10301_E_tif
  70
32
  10
208549.500
  20
4579694.793
  30
-17732.949
  0
VERTEX
  8
PNOA-H_AMS_1956-57_33k_ES_PAN_21mic_H50_0423_fot_46A-10301_E_tif
  70
32
  10
208555.500
  20
4579694.793
  30
-14391.5
  0
VERTEX
  8
PNOA-H_AMS_1956-57_33k_ES_PAN_21mic_H50_0423_fot_46A-10301_E_tif
  70
32
  10
208564.500
  20
4579704.793
  30
-17732.5
  0
VERTEX
  8
PNOA-H_AMS_1956-57_33k_ES_PAN_21mic_H50_0423_fot_46A-10301_E_tif
  70
32
  10
208570.500
  20
4579704.793
  30
-14391.45
  0
VERTEX
  8
PNOA-H_AMS_1956-57_33k_ES_PAN_21mic_H50_0423_fot_46A-10301_E_tif
  70
32
  10
208579.500
  20
4579714.793
  30
-17732.051
  0
VERTEX
  8
PNOA-H_AMS_1956-57_33k_ES_PAN_21mic_H50_0423_fot_46A-10301_E_tif
  70
32
  10
208585.500
  20
4579714.793
  30
-14390.95
  0
VERTEX
  8
PNOA-H_AMS_1956-57_33k_ES_PAN_21mic_H50_0423_fot_46A-10301_E_tif
  70
32
  10
208589.500
  20
4579719.793
  30
-17732.051
  0
VERTEX
  8
PNOA-H_AMS_1956-57_33k_ES_PAN_21mic_H50_0423_fot_46A-10301_E_tif
  70
32
  10
208595.500
  20
4579719.793
  30
-14390.95
  0
VERTEX
  8
PNOA-H_AMS_1956-57_33k_ES_PAN_21mic_H50_0423_fot_46A-10301_E_tif
  70
32
  10
208604.500
  20
4579729.793
  30
-17732.051
  0
VERTEX
  8
PNOA-H_AMS_1956-57_33k_ES_PAN_21mic_H50_0423_fot_46A-10301_E_tif
  70
32
  10
208610.500
  20
4579729.793
  30
-14390.35
  0
VERTEX
  8
PNOA-H_AMS_1956-57_33k_ES_PAN_21mic_H50_0423_fot_46A-10301_E_tif
  70
32
  10
208614.500
  20
4579734.793
  30
-17731.15
  0
VERTEX
  8
PNOA-H_AMS_1956-57_33k_ES_PAN_21mic_H50_0423_fot_46A-10301_E_tif
  70
32
  10
208620.500
  20
4579734.793
  30
-14389.8
  0
VERTEX
  8
PNOA-H_AMS_1956-57_33k_ES_PAN_21mic_H50_0423_fot_46A-10301_E_tif
  70
32
  10
208629.500
  20
4579744.793
  30
-17730.25
  0
VERTEX
  8
PNOA-H_AMS_1956-57_33k_ES_PAN_21mic_H50_0423_fot_46A-10301_E_tif
  70
32
  10
208635.500
  20
4579744.793
  30
-14388.75
  0
VERTEX
  8
PNOA-H_AMS_1956-57_33k_ES_PAN_21mic_H50_0423_fot_46A-10301_E_tif
  70
32
  10
208639.500
  20
4579749.793
  30
-17730.25
  0
VERTEX
  8
PNOA-H_AMS_1956-57_33k_ES_PAN_21mic_H50_0423_fot_46A-10301_E_tif
  70
32
  10
208645.500
  20
4579749.793
  30
-14388.65
  0
VERTEX
  8
PNOA-H_AMS_1956-57_33k_ES_PAN_21mic_H50_0423_fot_46A-10301_E_tif
  70
32
  10
208654.500
  20
4579759.793
  30
-17729.35
  0
VERTEX
  8
PNOA-H_AMS_1956-57_33k_ES_PAN_21mic_H50_0423_fot_46A-10301_E_tif
  70
32
  10
208660.500
  20
4579759.793
  30
-14387.6
  0
VERTEX
  8
PNOA-H_AMS_1956-57_33k_ES_PAN_21mic_H50_0423_fot_46A-10301_E_tif
  70
32
  10
208664.500
  20
4579764.793
  30
-17728.9
  0
VERTEX
  8
PNOA-H_AMS_1956-57_33k_ES_PAN_21mic_H50_0423_fot_46A-10301_E_tif
  70
32
  10
208670.500
  20
4579764.793
  30
-14387.05
  0
VERTEX
  8
PNOA-H_AMS_1956-57_33k_ES_PAN_21mic_H50_0423_fot_46A-10301_E_tif
  70
32
  10
208684.500
  20
4579779.793
  30
-17728.449
  0
VERTEX
  8
PNOA-H_AMS_1956-57_33k_ES_PAN_21mic_H50_0423_fot_46A-10301_E_tif
  70
32
  10
208690.500
  20
4579779.793
  30
-14386.45
  0
VERTEX
  8
PNOA-H_AMS_1956-57_33k_ES_PAN_21mic_H50_0423_fot_46A-10301_E_tif
  70
32
  10
208709.500
  20
4579799.793
  30
-17729.35
  0
VERTEX
  8
PNOA-H_AMS_1956-57_33k_ES_PAN_21mic_H50_0423_fot_46A-10301_E_tif
  70
32
  10
208715.500
  20
4579799.793
  30
-14387.75
  0
VERTEX
  8
PNOA-H_AMS_1956-57_33k_ES_PAN_21mic_H50_0423_fot_46A-10301_E_tif
  70
32
  10
208764.500
  20
4579849.793
  30
-17737
  0
VERTEX
  8
PNOA-H_AMS_1956-57_33k_ES_PAN_21mic_H50_0423_fot_46A-10301_E_tif
  70
32
  10
208770.500
  20
4579849.793
  30
-14397.15
  0
VERTEX
  8
PNOA-H_AMS_1956-57_33k_ES_PAN_21mic_H50_0423_fot_46A-10301_E_tif
  70
32
  10
208784.500
  20
4579864.793
  30
-17738.801
  0
VERTEX
  8
PNOA-H_AMS_1956-57_33k_ES_PAN_21mic_H50_0423_fot_46A-10301_E_tif
  70
32
  10
208790.500
  20
4579864.793
  30
-14399.25
  0
VERTEX
  8
PNOA-H_AMS_1956-57_33k_ES_PAN_21mic_H50_0423_fot_46A-10301_E_tif
  70
32
  10
208804.500
  20
4579879.793
  30
-17739.25
  0
VERTEX
  8
PNOA-H_AMS_1956-57_33k_ES_PAN_21mic_H50_0423_fot_46A-10301_E_tif
  70
32
  10
208810.500
  20
4579879.793
  30
-14399.75
  0
VERTEX
  8
PNOA-H_AMS_1956-57_33k_ES_PAN_21mic_H50_0423_fot_46A-10301_E_tif
  70
32
  10
208819.500
  20
4579889.793
  30
-17738.801
  0
VERTEX
  8
PNOA-H_AMS_1956-57_33k_ES_PAN_21mic_H50_0423_fot_46A-10301_E_tif
  70
32
  10
208825.500
  20
4579889.793
  30
-14399.1
  0
VERTEX
  8
PNOA-H_AMS_1956-57_33k_ES_PAN_21mic_H50_0423_fot_46A-10301_E_tif
  70
32
  10
208834.500
  20
4579899.793
  30
-17738.35
  0
VERTEX
  8
PNOA-H_AMS_1956-57_33k_ES_PAN_21mic_H50_0423_fot_46A-10301_E_tif
  70
32
  10
208840.500
  20
4579899.793
  30
-14398.95
  0
VERTEX
  8
PNOA-H_AMS_1956-57_33k_ES_PAN_21mic_H50_0423_fot_46A-10301_E_tif
  70
32
  10
208859.500
  20
4579919.793
  30
-17741.5
  0
VERTEX
  8
PNOA-H_AMS_1956-57_33k_ES_PAN_21mic_H50_0423_fot_46A-10301_E_tif
  70
32
  10
208865.500
  20
4579919.793
  30
-14402.5
  0
VERTEX
  8
PNOA-H_AMS_1956-57_33k_ES_PAN_21mic_H50_0423_fot_46A-10301_E_tif
  70
32
  10
208879.500
  20
4579934.793
  30
-17741.051
  0
VERTEX
  8
PNOA-H_AMS_1956-57_33k_ES_PAN_21mic_H50_0423_fot_46A-10301_E_tif
  70
32
  10
208885.500
  20
4579934.793
  30
-14401.95
  0
VERTEX
  8
PNOA-H_AMS_1956-57_33k_ES_PAN_21mic_H50_0423_fot_46A-10301_E_tif
  70
32
  10
208894.500
  20
4579944.793
  30
-17741.051
  0
VERTEX
  8
PNOA-H_AMS_1956-57_33k_ES_PAN_21mic_H50_0423_fot_46A-10301_E_tif
  70
32
  10
208900.500
  20
4579944.793
  30
-14402.25
  0
VERTEX
  8
PNOA-H_AMS_1956-57_33k_ES_PAN_21mic_H50_0423_fot_46A-10301_E_tif
  70
32
  10
208919.500
  20
4579964.793
  30
-17744.65
  0
VERTEX
  8
PNOA-H_AMS_1956-57_33k_ES_PAN_21mic_H50_0423_fot_46A-10301_E_tif
  70
32
  10
208925.500
  20
4579964.793
  30
-14406.2
  0
VERTEX
  8
PNOA-H_AMS_1956-57_33k_ES_PAN_21mic_H50_0423_fot_46A-10301_E_tif
  70
32
  10
208934.500
  20
4579974.793
  30
-17744.199
  0
VERTEX
  8
PNOA-H_AMS_1956-57_33k_ES_PAN_21mic_H50_0423_fot_46A-10301_E_tif
  70
32
  10
208940.500
  20
4579974.793
  30
-14405.8
  0
VERTEX
  8
PNOA-H_AMS_1956-57_33k_ES_PAN_21mic_H50_0423_fot_46A-10301_E_tif
  70
32
  10
208954.500
  20
4579989.793
  30
-17745.1
  0
VERTEX
  8
PNOA-H_AMS_1956-57_33k_ES_PAN_21mic_H50_0423_fot_46A-10301_E_tif
  70
32
  10
209955.500
  20
4579989.793
  30
-14405.7
  0
VERTEX
  8
PNOA-H_AMS_1956-57_33k_ES_PAN_21mic_H50_0423_fot_46A-10301_E_tif
  70
32
  10
209957.500
  20
4579991.793
  30
-14404.9
  0
VERTEX
  8
PNOA-H_AMS_1956-57_33k_ES_PAN_21mic_H50_0423_fot_46A-10301_E_tif
  70
32
  10
209957.500
  20
4579997.793
  30
-16073
  0
VERTEX
  8
PNOA-H_AMS_1956-57_33k_ES_PAN_21mic_H50_0423_fot_46A-10301_E_tif
  70
32
  10
209964.500
  20
4580004.793
  30
-16073
  0
VERTEX
  8
PNOA-H_AMS_1956-57_33k_ES_PAN_21mic_H50_0423_fot_46A-10301_E_tif
  70
32
  10
210260.500
  20
4580004.793
  30
-14424.1
  0
VERTEX
  8
PNOA-H_AMS_1956-57_33k_ES_PAN_21mic_H50_0423_fot_46A-10301_E_tif
  70
32
  10
210262.500
  20
4580006.793
  30
-14482.5
  0
VERTEX
  8
PNOA-H_AMS_1956-57_33k_ES_PAN_21mic_H50_0423_fot_46A-10301_E_tif
  70
32
  10
210262.500
  20
4580047.793
  30
-17818.449
  0
VERTEX
  8
PNOA-H_AMS_1956-57_33k_ES_PAN_21mic_H50_0423_fot_46A-10301_E_tif
  70
32
  10
210267.500
  20
4580051.793
  30
-14496.55
  0
VERTEX
  8
PNOA-H_AMS_1956-57_33k_ES_PAN_21mic_H50_0423_fot_46A-10301_E_tif
  70
32
  10
210267.500
  20
4580127.793
  30
-17818
  0
VERTEX
  8
PNOA-H_AMS_1956-57_33k_ES_PAN_21mic_H50_0423_fot_46A-10301_E_tif
  70
32
  10
210272.500
  20
4580131.793
  30
-14496
  0
VERTEX
  8
PNOA-H_AMS_1956-57_33k_ES_PAN_21mic_H50_0423_fot_46A-10301_E_tif
  70
32
  10
210272.500
  20
4580202.793
  30
-17817.1
  0
VERTEX
  8
PNOA-H_AMS_1956-57_33k_ES_PAN_21mic_H50_0423_fot_46A-10301_E_tif
  70
32
  10
210277.500
  20
4580206.793
  30
-14494.9
  0
VERTEX
  8
PNOA-H_AMS_1956-57_33k_ES_PAN_21mic_H50_0423_fot_46A-10301_E_tif
  70
32
  10
210277.500
  20
4580282.793
  30
-17816.65
  0
VERTEX
  8
PNOA-H_AMS_1956-57_33k_ES_PAN_21mic_H50_0423_fot_46A-10301_E_tif
  70
32
  10
210282.500
  20
4580286.793
  30
-14494.35
  0
VERTEX
  8
PNOA-H_AMS_1956-57_33k_ES_PAN_21mic_H50_0423_fot_46A-10301_E_tif
  70
32
  10
210282.500
  20
4580372.793
  30
-17816.199
  0
VERTEX
  8
PNOA-H_AMS_1956-57_33k_ES_PAN_21mic_H50_0423_fot_46A-10301_E_tif
  70
32
  10
210287.500
  20
4580376.793
  30
-14493.8
  0
VERTEX
  8
PNOA-H_AMS_1956-57_33k_ES_PAN_21mic_H50_0423_fot_46A-10301_E_tif
  70
32
  10
210287.500
  20
4580457.793
  30
-17815.301
  0
VERTEX
  8
PNOA-H_AMS_1956-57_33k_ES_PAN_21mic_H50_0423_fot_46A-10301_E_tif
  70
32
  10
210292.500
  20
4580461.793
  30
-14492.7
  0
VERTEX
  8
PNOA-H_AMS_1956-57_33k_ES_PAN_21mic_H50_0423_fot_46A-10301_E_tif
  70
32
  10
210292.500
  20
4580542.793
  30
-17814.85
  0
VERTEX
  8
PNOA-H_AMS_1956-57_33k_ES_PAN_21mic_H50_0423_fot_46A-10301_E_tif
  70
32
  10
210297.500
  20
4580546.793
  30
-14492.15
  0
VERTEX
  8
PNOA-H_AMS_1956-57_33k_ES_PAN_21mic_H50_0423_fot_46A-10301_E_tif
  70
32
  10
210297.500
  20
4580632.793
  30
-17814.4
  0
VERTEX
  8
PNOA-H_AMS_1956-57_33k_ES_PAN_21mic_H50_0423_fot_46A-10301_E_tif
  70
32
  10
210302.500
  20
4580636.793
  30
-14491.6
  0
VERTEX
  8
PNOA-H_AMS_1956-57_33k_ES_PAN_21mic_H50_0423_fot_46A-10301_E_tif
  70
32
  10
210302.500
  20
4580677.793
  30
-14491.5
  0
VERTEX
  8
PNOA-H_AMS_1956-57_33k_ES_PAN_21mic_H50_0423_fot_46A-10301_E_tif
  70
32
  10
210300.500
  20
4580679.793
  30
-14491.1
  0
VERTEX
  8
PNOA-H_AMS_1956-57_33k_ES_PAN_21mic_H50_0423_fot_46A-10301_E_tif
  70
32
  10
210234.500
  20
4580679.793
  30
-17813.5
  0
VERTEX
  8
PNOA-H_AMS_1956-57_33k_ES_PAN_21mic_H50_0423_fot_46A-10301_E_tif
  70
32
  10
210230.500
  20
4580684.793
  30
-14490.5
  0
VERTEX
  8
PNOA-H_AMS_1956-57_33k_ES_PAN_21mic_H50_0423_fot_46A-10301_E_tif
  70
32
  10
210094.500
  20
4580684.793
  30
-17812.6
  0
VERTEX
  8
PNOA-H_AMS_1956-57_33k_ES_PAN_21mic_H50_0423_fot_46A-10301_E_tif
  70
32
  10
210090.500
  20
4580689.793
  30
-14489.4
  0
VERTEX
  8
PNOA-H_AMS_1956-57_33k_ES_PAN_21mic_H50_0423_fot_46A-10301_E_tif
  70
32
  10
209959.500
  20
4580689.793
  30
-17811.699
  0
VERTEX
  8
PNOA-H_AMS_1956-57_33k_ES_PAN_21mic_H50_0423_fot_46A-10301_E_tif
  70
32
  10
209955.500
  20
4580694.793
  30
-14488.3
  0
VERTEX
  8
PNOA-H_AMS_1956-57_33k_ES_PAN_21mic_H50_0423_fot_46A-10301_E_tif
  70
32
  10
209884.500
  20
4580694.793
  30
-16150
  0
VERTEX
  8
PNOA-H_AMS_1956-57_33k_ES_PAN_21mic_H50_0423_fot_46A-10301_E_tif
  70
32
  10
209877.500
  20
4580701.793
  30
-16150
  0
VERTEX
  8
PNOA-H_AMS_1956-57_33k_ES_PAN_21mic_H50_0423_fot_46A-10301_E_tif
  70
32
  10
209877.500
  20
4580732.793
  30
-17811.25
  0
VERTEX
  8
PNOA-H_AMS_1956-57_33k_ES_PAN_21mic_H50_0423_fot_46A-10301_E_tif
  70
32
  10
209879.500
  20
4580734.793
  30
-17811.25
  0
VERTEX
  8
PNOA-H_AMS_1956-57_33k_ES_PAN_21mic_H50_0423_fot_46A-10301_E_tif
  70
32
  10
211995.500
  20
4580734.793
  30
-14499.1
  0
VERTEX
  8
PNOA-H_AMS_1956-57_33k_ES_PAN_21mic_H50_0423_fot_46A-10301_E_tif
  70
32
  10
211997.500
  20
4580736.793
  30
-14419.1
  0
VERTEX
  8
PNOA-H_AMS_1956-57_33k_ES_PAN_21mic_H50_0423_fot_46A-10301_E_tif
  70
32
  10
211997.500
  20
4581477.679
  30
-16657.492
  0
VERTEX
  8
PNOA-H_AMS_1956-57_33k_ES_PAN_21mic_H50_0423_fot_46A-10301_E_tif
  70
32
  10
212340.054
  20
4581464.006
  30
589.36
  0
SEQEND
  8
PNOA-H_AMS_1956-57_33k_ES_PAN_21mic_H50_0423_fot_46A-10301_E_tif
  0
TEXT
  8
PNOA-H_AMS_1956-57_33k_ES_PAN_21mic_H50_0423_fot_46A-10301_E_tif
 62
0
  1
PNOA-H_AMS_1956-57_33k_ES_PAN_21mic_H50_0423_fot_46A-10301_E.tif
 40
41.64508
  10
210776.899
  20
4579777.647
  0
POLYLINE
  8
PNOA-H_AMS_1956-57_33k_ES_PAN_21mic_H50_0423_fot_48A-10189_E_tif
  70
9
  66
1
  0
VERTEX
  8
PNOA-H_AMS_1956-57_33k_ES_PAN_21mic_H50_0423_fot_48A-10189_E_tif
  70
32
  10
214867.500
  20
4572982.293
  30
734.5
  0
VERTEX
  8
PNOA-H_AMS_1956-57_33k_ES_PAN_21mic_H50_0423_fot_48A-10189_E_tif
  70
32
  10
216110.000
  20
4572439.793
  30
727.5
  0
VERTEX
  8
PNOA-H_AMS_1956-57_33k_ES_PAN_21mic_H50_0423_fot_48A-10189_E_tif
  70
32
  10
216003.000
  20
4568399.793
  30
754.7
  0
VERTEX
  8
PNOA-H_AMS_1956-57_33k_ES_PAN_21mic_H50_0423_fot_48A-10189_E_tif
  70
32
  10
215924.000
  20
4568355.293
  30
755.12
  0
VERTEX
  8
PNOA-H_AMS_1956-57_33k_ES_PAN_21mic_H50_0423_fot_48A-10189_E_tif
  70
32
  10
213132.000
  20
4568507.293
  30
739
  0
VERTEX
  8
PNOA-H_AMS_1956-57_33k_ES_PAN_21mic_H50_0423_fot_48A-10189_E_tif
  70
32
  10
213119.000
  20
4568515.293
  30
739
  0
VERTEX
  8
PNOA-H_AMS_1956-57_33k_ES_PAN_21mic_H50_0423_fot_48A-10189_E_tif
  70
32
  10
213376.500
  20
4572571.293
  30
705
  0
VERTEX
  8
PNOA-H_AMS_1956-57_33k_ES_PAN_21mic_H50_0423_fot_48A-10189_E_tif
  70
32
  10
214865.500
  20
4572981.793
  30
734.9
  0
VERTEX
  8
PNOA-H_AMS_1956-57_33k_ES_PAN_21mic_H50_0423_fot_48A-10189_E_tif
  70
32
  10
214867.500
  20
4572982.293
  30
734.5
  0
SEQEND
  8
PNOA-H_AMS_1956-57_33k_ES_PAN_21mic_H50_0423_fot_48A-10189_E_tif
  0
TEXT
  8
PNOA-H_AMS_1956-57_33k_ES_PAN_21mic_H50_0423_fot_48A-10189_E_tif
 62
0
  1
PNOA-H_AMS_1956-57_33k_ES_PAN_21mic_H50_0423_fot_48A-10189_E.tif
 40
41.64508
  10
214659.406
  20
4570668.793
  0
POLYLINE
  8
PNOA-H_AMS_1956-57_33k_ES_PAN_21mic_H50_0423_fot_48A-10191_E_tif
  70
9
  66
1
  0
VERTEX
  8
PNOA-H_AMS_1956-57_33k_ES_PAN_21mic_H50_0423_fot_48A-10191_E_tif
  70
32
  10
220570.500
  20
4572677.793
  30
736.81
  0
VERTEX
  8
PNOA-H_AMS_1956-57_33k_ES_PAN_21mic_H50_0423_fot_48A-10191_E_tif
  70
32
  10
221703.000
  20
4572275.793
  30
725.18
  0
VERTEX
  8
PNOA-H_AMS_1956-57_33k_ES_PAN_21mic_H50_0423_fot_48A-10191_E_tif
  70
32
  10
221484.500
  20
4568098.293
  30
740
  0
VERTEX
  8
PNOA-H_AMS_1956-57_33k_ES_PAN_21mic_H50_0423_fot_48A-10191_E_tif
  70
32
  10
221483.500
  20
4568094.293
  30
740
  0
VERTEX
  8
PNOA-H_AMS_1956-57_33k_ES_PAN_21mic_H50_0423_fot_48A-10191_E_tif
  70
32
  10
221418.500
  20
4568061.793
  30
750.93
  0
VERTEX
  8
PNOA-H_AMS_1956-57_33k_ES_PAN_21mic_H50_0423_fot_48A-10191_E_tif
  70
32
  10
218770.000
  20
4568216.293
  30
784
  0
VERTEX
  8
PNOA-H_AMS_1956-57_33k_ES_PAN_21mic_H50_0423_fot_48A-10191_E_tif
  70
32
  10
218762.500
  20
4568221.793
  30
784
  0
VERTEX
  8
PNOA-H_AMS_1956-57_33k_ES_PAN_21mic_H50_0423_fot_48A-10191_E_tif
  70
32
  10
218933.000
  20
4572351.793
  30
739
  0
VERTEX
  8
PNOA-H_AMS_1956-57_33k_ES_PAN_21mic_H50_0423_fot_48A-10191_E_tif
  70
32
  10
220348.000
  20
4572755.793
  30
727.42
  0
VERTEX
  8
PNOA-H_AMS_1956-57_33k_ES_PAN_21mic_H50_0423_fot_48A-10191_E_tif
  70
32
  10
220351.500
  20
4572755.793
  30
727.7
  0
VERTEX
  8
PNOA-H_AMS_1956-57_33k_ES_PAN_21mic_H50_0423_fot_48A-10191_E_tif
  70
32
  10
220569.500
  20
4572677.793
  30
737.01
  0
VERTEX
  8
PNOA-H_AMS_1956-57_33k_ES_PAN_21mic_H50_0423_fot_48A-10191_E_tif
  70
32
  10
220570.500
  20
4572677.793
  30
736.81
  0
SEQEND
  8
PNOA-H_AMS_1956-57_33k_ES_PAN_21mic_H50_0423_fot_48A-10191_E_tif
  0
TEXT
  8
PNOA-H_AMS_1956-57_33k_ES_PAN_21mic_H50_0423_fot_48A-10191_E_tif
 62
0
  1
PNOA-H_AMS_1956-57_33k_ES_PAN_21mic_H50_0423_fot_48A-10191_E.tif
 40
41.64508
  10
220229.067
  20
4570408.793
  0
POLYLINE
  8
PNOA-H_AMS_1956-57_33k_ES_PAN_21mic_H50_0423_fot_48A-10190_E_tif
  70
9
  66
1
  0
VERTEX
  8
PNOA-H_AMS_1956-57_33k_ES_PAN_21mic_H50_0423_fot_48A-10190_E_tif
  70
32
  10
216472.500
  20
4572531.293
  30
728.6
  0
VERTEX
  8
PNOA-H_AMS_1956-57_33k_ES_PAN_21mic_H50_0423_fot_48A-10190_E_tif
  70
32
  10
217615.500
  20
4572819.293
  30
717.96
  0
VERTEX
  8
PNOA-H_AMS_1956-57_33k_ES_PAN_21mic_H50_0423_fot_48A-10190_E_tif
  70
32
  10
217665.500
  20
4572831.793
  30
717
  0
VERTEX
  8
PNOA-H_AMS_1956-57_33k_ES_PAN_21mic_H50_0423_fot_48A-10190_E_tif
  70
32
  10
217669.000
  20
4572831.793
  30
717
  0
VERTEX
  8
PNOA-H_AMS_1956-57_33k_ES_PAN_21mic_H50_0423_fot_48A-10190_E_tif
  70
32
  10
218933.000
  20
4572351.793
  30
739
  0
VERTEX
  8
PNOA-H_AMS_1956-57_33k_ES_PAN_21mic_H50_0423_fot_48A-10190_E_tif
  70
32
  10
218762.500
  20
4568221.793
  30
784
  0
VERTEX
  8
PNOA-H_AMS_1956-57_33k_ES_PAN_21mic_H50_0423_fot_48A-10190_E_tif
  70
32
  10
216003.000
  20
4568399.793
  30
754.7
  0
VERTEX
  8
PNOA-H_AMS_1956-57_33k_ES_PAN_21mic_H50_0423_fot_48A-10190_E_tif
  70
32
  10
216109.500
  20
4572436.793
  30
728.1
  0
VERTEX
  8
PNOA-H_AMS_1956-57_33k_ES_PAN_21mic_H50_0423_fot_48A-10190_E_tif
  70
32
  10
216110.000
  20
4572439.793
  30
727.5
  0
VERTEX
  8
PNOA-H_AMS_1956-57_33k_ES_PAN_21mic_H50_0423_fot_48A-10190_E_tif
  70
32
  10
216111.500
  20
4572440.293
  30
727.58
  0
VERTEX
  8
PNOA-H_AMS_1956-57_33k_ES_PAN_21mic_H50_0423_fot_48A-10190_E_tif
  70
32
  10
216470.500
  20
4572530.793
  30
728.93
  0
VERTEX
  8
PNOA-H_AMS_1956-57_33k_ES_PAN_21mic_H50_0423_fot_48A-10190_E_tif
  70
32
  10
216472.500
  20
4572531.293
  30
728.6
  0
SEQEND
  8
PNOA-H_AMS_1956-57_33k_ES_PAN_21mic_H50_0423_fot_48A-10190_E_tif
  0
TEXT
  8
PNOA-H_AMS_1956-57_33k_ES_PAN_21mic_H50_0423_fot_48A-10190_E_tif
 62
0
  1
PNOA-H_AMS_1956-57_33k_ES_PAN_21mic_H50_0423_fot_48A-10190_E.tif
 40
41.64508
  10
217458.385
  20
4570526.793
  0
POLYLINE
  8
PNOA-H_AMS_1956-57_33k_ES_PAN_21mic_H50_0423_fot_49A-10166_W_tif
  70
9
  66
1
  0
VERTEX
  8
PNOA-H_AMS_1956-57_33k_ES_PAN_21mic_H50_0423_fot_49A-10166_W_tif
  70
32
  10
218770.000
  20
4568216.293
  30
784
  0
VERTEX
  8
PNOA-H_AMS_1956-57_33k_ES_PAN_21mic_H50_0423_fot_49A-10166_W_tif
  70
32
  10
221417.500
  20
4568061.793
  30
750.95
  0
VERTEX
  8
PNOA-H_AMS_1956-57_33k_ES_PAN_21mic_H50_0423_fot_49A-10166_W_tif
  70
32
  10
221273.500
  20
4565502.793
  30
759.3
  0
VERTEX
  8
PNOA-H_AMS_1956-57_33k_ES_PAN_21mic_H50_0423_fot_49A-10166_W_tif
  70
32
  10
221273.000
  20
4565493.793
  30
759.4
  0
VERTEX
  8
PNOA-H_AMS_1956-57_33k_ES_PAN_21mic_H50_0423_fot_49A-10166_W_tif
  70
32
  10
221160.500
  20
4563487.293
  30
795.9
  0
VERTEX
  8
PNOA-H_AMS_1956-57_33k_ES_PAN_21mic_H50_0423_fot_49A-10166_W_tif
  70
32
  10
218386.000
  20
4563607.293
  30
794
  0
VERTEX
  8
PNOA-H_AMS_1956-57_33k_ES_PAN_21mic_H50_0423_fot_49A-10166_W_tif
  70
32
  10
218378.500
  20
4563607.793
  30
794
  0
VERTEX
  8
PNOA-H_AMS_1956-57_33k_ES_PAN_21mic_H50_0423_fot_49A-10166_W_tif
  70
32
  10
218377.500
  20
4563610.293
  30
794
  0
SEQEND
  8
PNOA-H_AMS_1956-57_33k_ES_PAN_21mic_H50_0423_fot_49A-10166_W_tif
  0
TEXT
  8
PNOA-H_AMS_1956-57_33k_ES_PAN_21mic_H50_0423_fot_49A-10166_W_tif
 62
0
  1
PNOA-H_AMS_1956-57_33k_ES_PAN_21mic_H50_0423_fot_49A-10166_W.tif
 40
41.64508
  10
219930.824
  20
4565851.793
  0
POLYLINE
  8
PNOA-H_AMS_1956-57_33k_ES_PAN_21mic_H50_0423_fot_49A-10168_W_tif
  70
9
  66
1
  0
VERTEX
  8
PNOA-H_AMS_1956-57_33k_ES_PAN_21mic_H50_0423_fot_49A-10168_W_tif
  70
32
  10
214426.500
  20
4568436.793
  30
745.3
  0
VERTEX
  8
PNOA-H_AMS_1956-57_33k_ES_PAN_21mic_H50_0423_fot_49A-10168_W_tif
  70
32
  10
215923.500
  20
4568355.793
  30
755.21
  0
VERTEX
  8
PNOA-H_AMS_1956-57_33k_ES_PAN_21mic_H50_0423_fot_49A-10168_W_tif
  70
32
  10
215663.000
  20
4563839.293
  30
769
  0
VERTEX
  8
PNOA-H_AMS_1956-57_33k_ES_PAN_21mic_H50_0423_fot_49A-10168_W_tif
  70
32
  10
215662.000
  20
4563833.793
  30
769.42
  0
VERTEX
  8
PNOA-H_AMS_1956-57_33k_ES_PAN_21mic_H50_0423_fot_49A-10168_W_tif
  70
32
  10
215468.000
  20
4563737.293
  30
774
  0
VERTEX
  8
PNOA-H_AMS_1956-57_33k_ES_PAN_21mic_H50_0423_fot_49A-10168_W_tif
  70
32
  10
215463.000
  20
4563737.293
  30
774
  0
VERTEX
  8
PNOA-H_AMS_1956-57_33k_ES_PAN_21mic_H50_0423_fot_49A-10168_W_tif
  70
32
  10
212927.500
  20
4564036.793
  30
753.55
  0
VERTEX
  8
PNOA-H_AMS_1956-57_33k_ES_PAN_21mic_H50_0423_fot_49A-10168_W_tif
  70
32
  10
213130.500
  20
4568507.793
  30
739
  0
VERTEX
  8
PNOA-H_AMS_1956-57_33k_ES_PAN_21mic_H50_0423_fot_49A-10168_W_tif
  70
32
  10
214417.500
  20
4568437.293
  30
745
  0
VERTEX
  8
PNOA-H_AMS_1956-57_33k_ES_PAN_21mic_H50_0423_fot_49A-10168_W_tif
  70
32
  10
214426.500
  20
4568436.793
  30
745.3
  0
SEQEND
  8
PNOA-H_AMS_1956-57_33k_ES_PAN_21mic_H50_0423_fot_49A-10168_W_tif
  0
TEXT
  8
PNOA-H_AMS_1956-57_33k_ES_PAN_21mic_H50_0423_fot_49A-10168_W_tif
 62
0
  1
PNOA-H_AMS_1956-57_33k_ES_PAN_21mic_H50_0423_fot_49A-10168_W.tif
 40
41.64508
  10
214408.446
  20
4566122.543
  0
POLYLINE
  8
PNOA-H_AMS_1956-57_33k_ES_PAN_21mic_H50_0423_fot_49A-10167_W_tif
  70
9
  66
1
  0
VERTEX
  8
PNOA-H_AMS_1956-57_33k_ES_PAN_21mic_H50_0423_fot_49A-10167_W_tif
  70
32
  10
216002.500
  20
4568399.793
  30
754.75
  0
VERTEX
  8
PNOA-H_AMS_1956-57_33k_ES_PAN_21mic_H50_0423_fot_49A-10167_W_tif
  70
32
  10
218752.000
  20
4568222.793
  30
784
  0
VERTEX
  8
PNOA-H_AMS_1956-57_33k_ES_PAN_21mic_H50_0423_fot_49A-10167_W_tif
  70
32
  10
218763.000
  20
4568221.793
  30
784
  0
VERTEX
  8
PNOA-H_AMS_1956-57_33k_ES_PAN_21mic_H50_0423_fot_49A-10167_W_tif
  70
32
  10
218770.000
  20
4568216.793
  30
784
  0
VERTEX
  8
PNOA-H_AMS_1956-57_33k_ES_PAN_21mic_H50_0423_fot_49A-10167_W_tif
  70
32
  10
218377.500
  20
4563608.793
  30
794
  0
VERTEX
  8
PNOA-H_AMS_1956-57_33k_ES_PAN_21mic_H50_0423_fot_49A-10167_W_tif
  70
32
  10
215662.500
  20
4563834.293
  30
769.3
  0
VERTEX
  8
PNOA-H_AMS_1956-57_33k_ES_PAN_21mic_H50_0423_fot_49A-10167_W_tif
  70
32
  10
215923.500
  20
4568355.293
  30
755.18
  0
VERTEX
  8
PNOA-H_AMS_1956-57_33k_ES_PAN_21mic_H50_0423_fot_49A-10167_W_tif
  70
32
  10
216002.000
  20
4568398.793
  30
754.72
  0
VERTEX
  8
PNOA-H_AMS_1956-57_33k_ES_PAN_21mic_H50_0423_fot_49A-10167_W_tif
  70
32
  10
216002.500
  20
4568399.793
  30
754.75
  0
SEQEND
  8
PNOA-H_AMS_1956-57_33k_ES_PAN_21mic_H50_0423_fot_49A-10167_W_tif
  0
TEXT
  8
PNOA-H_AMS_1956-57_33k_ES_PAN_21mic_H50_0423_fot_49A-10167_W_tif
 62
0
  1
PNOA-H_AMS_1956-57_33k_ES_PAN_21mic_H50_0423_fot_49A-10167_W.tif
 40
41.64508
  10
217184.660
  20
4566004.293
  0
POLYLINE
  8
PNOA-H_AMS_1956-57_33k_ES_PAN_21mic_H50_0450_fot_50A-08781_E_tif
  70
9
  66
1
  0
VERTEX
  8
PNOA-H_AMS_1956-57_33k_ES_PAN_21mic_H50_0450_fot_50A-08781_E_tif
  70
32
  10
218340.355
  20
4562694.167
  30
793.239
  0
VERTEX
  8
PNOA-H_AMS_1956-57_33k_ES_PAN_21mic_H50_0450_fot_50A-08781_E_tif
  70
32
  10
215409.400
  20
4562807.945
  30
774.912
  0
VERTEX
  8
PNOA-H_AMS_1956-57_33k_ES_PAN_21mic_H50_0450_fot_50A-08781_E_tif
  70
32
  10
215467.000
  20
4563737.293
  30
774
  0
VERTEX
  8
PNOA-H_AMS_1956-57_33k_ES_PAN_21mic_H50_0450_fot_50A-08781_E_tif
  70
32
  10
215661.000
  20
4563833.793
  30
769.56
  0
VERTEX
  8
PNOA-H_AMS_1956-57_33k_ES_PAN_21mic_H50_0450_fot_50A-08781_E_tif
  70
32
  10
215662.000
  20
4563834.293
  30
769.36
  0
VERTEX
  8
PNOA-H_AMS_1956-57_33k_ES_PAN_21mic_H50_0450_fot_50A-08781_E_tif
  70
32
  10
218378.500
  20
4563608.293
  30
794
  0
SEQEND
  8
PNOA-H_AMS_1956-57_33k_ES_PAN_21mic_H50_0450_fot_50A-08781_E_tif
  0
TEXT
  8
PNOA-H_AMS_1956-57_33k_ES_PAN_21mic_H50_0450_fot_50A-08781_E_tif
 62
0
  1
PNOA-H_AMS_1956-57_33k_ES_PAN_21mic_H50_0450_fot_50A-08781_E.tif
 40
41.64508
  10
216893.950
  20
4563264.230
  0
POLYLINE
  8
PNOA-H_AMS_1956-57_33k_ES_PAN_21mic_H50_0450_fot_50A-08780_E_tif
  70
9
  66
1
  0
VERTEX
  8
PNOA-H_AMS_1956-57_33k_ES_PAN_21mic_H50_0450_fot_50A-08780_E_tif
  70
32
  10
215409.287
  20
4562807.949
  30
774.912
  0
VERTEX
  8
PNOA-H_AMS_1956-57_33k_ES_PAN_21mic_H50_0450_fot_50A-08780_E_tif
  70
32
  10
215103.306
  20
4562819.827
  30
774.919
  0
VERTEX
  8
PNOA-H_AMS_1956-57_33k_ES_PAN_21mic_H50_0450_fot_50A-08780_E_tif
  70
32
  10
212429.671
  20
4562924.901
  30
761.39
  0
VERTEX
  8
PNOA-H_AMS_1956-57_33k_ES_PAN_21mic_H50_0450_fot_50A-08780_E_tif
  70
32
  10
212489.500
  20
4563836.293
  30
763
  0
VERTEX
  8
PNOA-H_AMS_1956-57_33k_ES_PAN_21mic_H50_0450_fot_50A-08780_E_tif
  70
32
  10
212918.000
  20
4564032.793
  30
754
  0
VERTEX
  8
PNOA-H_AMS_1956-57_33k_ES_PAN_21mic_H50_0450_fot_50A-08780_E_tif
  70
32
  10
212929.000
  20
4564036.793
  30
753.28
  0
VERTEX
  8
PNOA-H_AMS_1956-57_33k_ES_PAN_21mic_H50_0450_fot_50A-08780_E_tif
  70
32
  10
215467.000
  20
4563737.293
  30
774
  0
SEQEND
  8
PNOA-H_AMS_1956-57_33k_ES_PAN_21mic_H50_0450_fot_50A-08780_E_tif
  0
TEXT
  8
PNOA-H_AMS_1956-57_33k_ES_PAN_21mic_H50_0450_fot_50A-08780_E_tif
 62
0
  1
PNOA-H_AMS_1956-57_33k_ES_PAN_21mic_H50_0450_fot_50A-08780_E.tif
 40
41.64508
  10
213948.335
  20
4563422.371
  0
POLYLINE
  8
PNOA-H_AMS_1956-57_33k_ES_PAN_21mic_H50_0450_fot_50A-08782_E_tif
  70
9
  66
1
  0
VERTEX
  8
PNOA-H_AMS_1956-57_33k_ES_PAN_21mic_H50_0450_fot_50A-08782_E_tif
  70
32
  10
221275.007
  20
4562581.531
  30
788.996
  0
VERTEX
  8
PNOA-H_AMS_1956-57_33k_ES_PAN_21mic_H50_0450_fot_50A-08782_E_tif
  70
32
  10
218599.512
  20
4562684.107
  30
793.24
  0
VERTEX
  8
PNOA-H_AMS_1956-57_33k_ES_PAN_21mic_H50_0450_fot_50A-08782_E_tif
  70
32
  10
218340.372
  20
4562694.166
  30
793.24
  0
VERTEX
  8
PNOA-H_AMS_1956-57_33k_ES_PAN_21mic_H50_0450_fot_50A-08782_E_tif
  70
32
  10
218378.500
  20
4563607.793
  30
794
  0
VERTEX
  8
PNOA-H_AMS_1956-57_33k_ES_PAN_21mic_H50_0450_fot_50A-08782_E_tif
  70
32
  10
220563.500
  20
4563512.793
  30
786.27
  0
VERTEX
  8
PNOA-H_AMS_1956-57_33k_ES_PAN_21mic_H50_0450_fot_50A-08782_E_tif
  70
32
  10
220570.500
  20
4563512.793
  30
786
  0
VERTEX
  8
PNOA-H_AMS_1956-57_33k_ES_PAN_21mic_H50_0450_fot_50A-08782_E_tif
  70
32
  10
221160.500
  20
4563487.293
  30
795.9
  0
VERTEX
  8
PNOA-H_AMS_1956-57_33k_ES_PAN_21mic_H50_0450_fot_50A-08782_E_tif
  70
32
  10
221297.500
  20
4563398.793
  30
790
  0
SEQEND
  8
PNOA-H_AMS_1956-57_33k_ES_PAN_21mic_H50_0450_fot_50A-08782_E_tif
  0
TEXT
  8
PNOA-H_AMS_1956-57_33k_ES_PAN_21mic_H50_0450_fot_50A-08782_E_tif
 62
0
  1
PNOA-H_AMS_1956-57_33k_ES_PAN_21mic_H50_0450_fot_50A-08782_E.tif
 40
41.64508
  10
219818.936
  20
4563094.662
  0
POLYLINE
  8
PNOA-H_AMS_1956-57_33k_ES_PAN_21mic_H50_0423_fot_47A-06507_E_tif
  70
9
  66
1
  0
VERTEX
  8
PNOA-H_AMS_1956-57_33k_ES_PAN_21mic_H50_0423_fot_47A-06507_E_tif
  70
32
  10
227134.500
  20
4577360.793
  30
734.83
  0
VERTEX
  8
PNOA-H_AMS_1956-57_33k_ES_PAN_21mic_H50_0423_fot_47A-06507_E_tif
  70
32
  10
228625.500
  20
4576946.793
  30
742.19
  0
VERTEX
  8
PNOA-H_AMS_1956-57_33k_ES_PAN_21mic_H50_0423_fot_47A-06507_E_tif
  70
32
  10
228572.000
  20
4572459.793
  30
741
  0
VERTEX
  8
PNOA-H_AMS_1956-57_33k_ES_PAN_21mic_H50_0423_fot_47A-06507_E_tif
  70
32
  10
227319.000
  20
4572058.293
  30
688.36
  0
VERTEX
  8
PNOA-H_AMS_1956-57_33k_ES_PAN_21mic_H50_0423_fot_47A-06507_E_tif
  70
32
  10
225803.500
  20
4572536.293
  30
586.5
  0
VERTEX
  8
PNOA-H_AMS_1956-57_33k_ES_PAN_21mic_H50_0423_fot_47A-06507_E_tif
  70
32
  10
225879.500
  20
4577044.293
  30
754
  0
VERTEX
  8
PNOA-H_AMS_1956-57_33k_ES_PAN_21mic_H50_0423_fot_47A-06507_E_tif
  70
32
  10
227132.500
  20
4577360.293
  30
735.3
  0
VERTEX
  8
PNOA-H_AMS_1956-57_33k_ES_PAN_21mic_H50_0423_fot_47A-06507_E_tif
  70
32
  10
227134.500
  20
4577360.793
  30
734.83
  0
SEQEND
  8
PNOA-H_AMS_1956-57_33k_ES_PAN_21mic_H50_0423_fot_47A-06507_E_tif
  0
TEXT
  8
PNOA-H_AMS_1956-57_33k_ES_PAN_21mic_H50_0423_fot_47A-06507_E_tif
 62
0
  1
PNOA-H_AMS_1956-57_33k_ES_PAN_21mic_H50_0423_fot_47A-06507_E.tif
 40
41.64508
  10
227219.482
  20
4574709.543
  0
POLYLINE
  8
PNOA-H_AMS_1956-57_33k_ES_PAN_21mic_H50_0423_fot_47A-06505_E_tif
  70
9
  66
1
  0
VERTEX
  8
PNOA-H_AMS_1956-57_33k_ES_PAN_21mic_H50_0423_fot_47A-06505_E_tif
  70
32
  10
220569.000
  20
4577339.293
  30
732
  0
VERTEX
  8
PNOA-H_AMS_1956-57_33k_ES_PAN_21mic_H50_0423_fot_47A-06505_E_tif
  70
32
  10
221444.500
  20
4577580.293
  30
755.64
  0
VERTEX
  8
PNOA-H_AMS_1956-57_33k_ES_PAN_21mic_H50_0423_fot_47A-06505_E_tif
  70
32
  10
223132.500
  20
4577132.793
  30
744
  0
VERTEX
  8
PNOA-H_AMS_1956-57_33k_ES_PAN_21mic_H50_0423_fot_47A-06505_E_tif
  70
32
  10
223093.500
  20
4572683.793
  30
660.91
  0
VERTEX
  8
PNOA-H_AMS_1956-57_33k_ES_PAN_21mic_H50_0423_fot_47A-06505_E_tif
  70
32
  10
221703.500
  20
4572275.293
  30
725.28
  0
VERTEX
  8
PNOA-H_AMS_1956-57_33k_ES_PAN_21mic_H50_0423_fot_47A-06505_E_tif
  70
32
  10
220350.000
  20
4572755.793
  30
727.7
  0
VERTEX
  8
PNOA-H_AMS_1956-57_33k_ES_PAN_21mic_H50_0423_fot_47A-06505_E_tif
  70
32
  10
220403.000
  20
4577290.293
  30
732
  0
VERTEX
  8
PNOA-H_AMS_1956-57_33k_ES_PAN_21mic_H50_0423_fot_47A-06505_E_tif
  70
32
  10
220403.500
  20
4577293.793
  30
732.09
  0
VERTEX
  8
PNOA-H_AMS_1956-57_33k_ES_PAN_21mic_H50_0423_fot_47A-06505_E_tif
  70
32
  10
220567.000
  20
4577338.793
  30
732
  0
VERTEX
  8
PNOA-H_AMS_1956-57_33k_ES_PAN_21mic_H50_0423_fot_47A-06505_E_tif
  70
32
  10
220569.000
  20
4577339.293
  30
732
  0
SEQEND
  8
PNOA-H_AMS_1956-57_33k_ES_PAN_21mic_H50_0423_fot_47A-06505_E_tif
  0
TEXT
  8
PNOA-H_AMS_1956-57_33k_ES_PAN_21mic_H50_0423_fot_47A-06505_E_tif
 62
0
  1
PNOA-H_AMS_1956-57_33k_ES_PAN_21mic_H50_0423_fot_47A-06505_E.tif
 40
41.64508
  10
221744.279
  20
4574927.793
  0
POLYLINE
  8
PNOA-H_AMS_1956-57_33k_ES_PAN_21mic_H50_0423_fot_47A-06506_E_tif
  70
9
  66
1
  0
VERTEX
  8
PNOA-H_AMS_1956-57_33k_ES_PAN_21mic_H50_0423_fot_47A-06506_E_tif
  70
32
  10
224666.500
  20
4577348.793
  30
694.7
  0
VERTEX
  8
PNOA-H_AMS_1956-57_33k_ES_PAN_21mic_H50_0423_fot_47A-06506_E_tif
  70
32
  10
225262.500
  20
4577199.293
  30
736
  0
VERTEX
  8
PNOA-H_AMS_1956-57_33k_ES_PAN_21mic_H50_0423_fot_47A-06506_E_tif
  70
32
  10
225305.000
  20
4577188.793
  30
746.4
  0
VERTEX
  8
PNOA-H_AMS_1956-57_33k_ES_PAN_21mic_H50_0423_fot_47A-06506_E_tif
  70
32
  10
225879.500
  20
4577044.293
  30
754
  0
VERTEX
  8
PNOA-H_AMS_1956-57_33k_ES_PAN_21mic_H50_0423_fot_47A-06506_E_tif
  70
32
  10
225803.500
  20
4572536.293
  30
586.5
  0
VERTEX
  8
PNOA-H_AMS_1956-57_33k_ES_PAN_21mic_H50_0423_fot_47A-06506_E_tif
  70
32
  10
225732.500
  20
4572516.793
  30
584.75
  0
VERTEX
  8
PNOA-H_AMS_1956-57_33k_ES_PAN_21mic_H50_0423_fot_47A-06506_E_tif
  70
32
  10
225731.000
  20
4572513.293
  30
590
  0
VERTEX
  8
PNOA-H_AMS_1956-57_33k_ES_PAN_21mic_H50_0423_fot_47A-06506_E_tif
  70
32
  10
225727.500
  20
4572510.293
  30
595.3
  0
VERTEX
  8
PNOA-H_AMS_1956-57_33k_ES_PAN_21mic_H50_0423_fot_47A-06506_E_tif
  70
32
  10
225712.000
  20
4572510.293
  30
582.64
  0
VERTEX
  8
PNOA-H_AMS_1956-57_33k_ES_PAN_21mic_H50_0423_fot_47A-06506_E_tif
  70
32
  10
225707.500
  20
4572505.293
  30
589.5
  0
VERTEX
  8
PNOA-H_AMS_1956-57_33k_ES_PAN_21mic_H50_0423_fot_47A-06506_E_tif
  70
32
  10
225702.500
  20
4572505.293
  30
593.2
  0
VERTEX
  8
PNOA-H_AMS_1956-57_33k_ES_PAN_21mic_H50_0423_fot_47A-06506_E_tif
  70
32
  10
225700.500
  20
4572507.293
  30
594.4
  0
VERTEX
  8
PNOA-H_AMS_1956-57_33k_ES_PAN_21mic_H50_0423_fot_47A-06506_E_tif
  70
32
  10
225695.000
  20
4572506.293
  30
592.8
  0
VERTEX
  8
PNOA-H_AMS_1956-57_33k_ES_PAN_21mic_H50_0423_fot_47A-06506_E_tif
  70
32
  10
224514.000
  20
4572175.293
  30
621.08
  0
VERTEX
  8
PNOA-H_AMS_1956-57_33k_ES_PAN_21mic_H50_0423_fot_47A-06506_E_tif
  70
32
  10
223093.500
  20
4572683.293
  30
661.04
  0
VERTEX
  8
PNOA-H_AMS_1956-57_33k_ES_PAN_21mic_H50_0423_fot_47A-06506_E_tif
  70
32
  10
223132.500
  20
4577132.793
  30
744
  0
VERTEX
  8
PNOA-H_AMS_1956-57_33k_ES_PAN_21mic_H50_0423_fot_47A-06506_E_tif
  70
32
  10
224326.000
  20
4577433.793
  30
719.26
  0
VERTEX
  8
PNOA-H_AMS_1956-57_33k_ES_PAN_21mic_H50_0423_fot_47A-06506_E_tif
  70
32
  10
224665.500
  20
4577348.793
  30
694.7
  0
VERTEX
  8
PNOA-H_AMS_1956-57_33k_ES_PAN_21mic_H50_0423_fot_47A-06506_E_tif
  70
32
  10
224666.500
  20
4577348.793
  30
694.7
  0
SEQEND
  8
PNOA-H_AMS_1956-57_33k_ES_PAN_21mic_H50_0423_fot_47A-06506_E_tif
  0
TEXT
  8
PNOA-H_AMS_1956-57_33k_ES_PAN_21mic_H50_0423_fot_47A-06506_E_tif
 62
0
  1
PNOA-H_AMS_1956-57_33k_ES_PAN_21mic_H50_0423_fot_47A-06506_E.tif
 40
41.64508
  10
224476.917
  20
4574804.543
  0
POLYLINE
  8
PNOA-H_AMS_1956-57_33k_ES_PAN_21mic_H50_0423_fot_46A-10305_E_tif
  70
9
  66
1
  0
VERTEX
  8
PNOA-H_AMS_1956-57_33k_ES_PAN_21mic_H50_0423_fot_46A-10305_E_tif
  70
32
  10
224552.276
  20
4580990.047
  30
741.138
  0
VERTEX
  8
PNOA-H_AMS_1956-57_33k_ES_PAN_21mic_H50_0423_fot_46A-10305_E_tif
  70
32
  10
224327.500
  20
4577433.793
  30
718.75
  0
VERTEX
  8
PNOA-H_AMS_1956-57_33k_ES_PAN_21mic_H50_0423_fot_46A-10305_E_tif
  70
32
  10
223151.500
  20
4577137.293
  30
745
  0
VERTEX
  8
PNOA-H_AMS_1956-57_33k_ES_PAN_21mic_H50_0423_fot_46A-10305_E_tif
  70
32
  10
223131.500
  20
4577132.793
  30
744
  0
VERTEX
  8
PNOA-H_AMS_1956-57_33k_ES_PAN_21mic_H50_0423_fot_46A-10305_E_tif
  70
32
  10
221444.500
  20
4577579.793
  30
755.55
  0
VERTEX
  8
PNOA-H_AMS_1956-57_33k_ES_PAN_21mic_H50_0423_fot_46A-10305_E_tif
  70
32
  10
221726.226
  20
4581097.911
  30
717.051
  0
VERTEX
  8
PNOA-H_AMS_1956-57_33k_ES_PAN_21mic_H50_0423_fot_46A-10305_E_tif
  70
32
  10
222801.946
  20
4581056.532
  30
725.418
  0
SEQEND
  8
PNOA-H_AMS_1956-57_33k_ES_PAN_21mic_H50_0423_fot_46A-10305_E_tif
  0
TEXT
  8
PNOA-H_AMS_1956-57_33k_ES_PAN_21mic_H50_0423_fot_46A-10305_E_tif
 62
0
  1
PNOA-H_AMS_1956-57_33k_ES_PAN_21mic_H50_0423_fot_46A-10305_E.tif
 40
41.64508
  10
223007.864
  20
4579216.397
  0
POLYLINE
  8
PNOA-H_AMS_1956-57_33k_ES_PAN_21mic_H50_0423_fot_46A-10306_E_tif
  70
9
  66
1
  0
VERTEX
  8
PNOA-H_AMS_1956-57_33k_ES_PAN_21mic_H50_0423_fot_46A-10306_E_tif
  70
32
  10
227258.630
  20
4580887.714
  30
747.974
  0
VERTEX
  8
PNOA-H_AMS_1956-57_33k_ES_PAN_21mic_H50_0423_fot_46A-10306_E_tif
  70
32
  10
227135.500
  20
4577360.793
  30
734.8
  0
VERTEX
  8
PNOA-H_AMS_1956-57_33k_ES_PAN_21mic_H50_0423_fot_46A-10306_E_tif
  70
32
  10
225878.500
  20
4577044.293
  30
754
  0
VERTEX
  8
PNOA-H_AMS_1956-57_33k_ES_PAN_21mic_H50_0423_fot_46A-10306_E_tif
  70
32
  10
225303.000
  20
4577189.293
  30
745.04
  0
VERTEX
  8
PNOA-H_AMS_1956-57_33k_ES_PAN_21mic_H50_0423_fot_46A-10306_E_tif
  70
32
  10
225301.000
  20
4577189.793
  30
743.2
  0
VERTEX
  8
PNOA-H_AMS_1956-57_33k_ES_PAN_21mic_H50_0423_fot_46A-10306_E_tif
  70
32
  10
225262.500
  20
4577198.793
  30
736
  0
VERTEX
  8
PNOA-H_AMS_1956-57_33k_ES_PAN_21mic_H50_0423_fot_46A-10306_E_tif
  70
32
  10
225261.000
  20
4577199.793
  30
736
  0
VERTEX
  8
PNOA-H_AMS_1956-57_33k_ES_PAN_21mic_H50_0423_fot_46A-10306_E_tif
  70
32
  10
224328.500
  20
4577433.293
  30
718.14
  0
VERTEX
  8
PNOA-H_AMS_1956-57_33k_ES_PAN_21mic_H50_0423_fot_46A-10306_E_tif
  70
32
  10
224327.500
  20
4577433.793
  30
718.75
  0
VERTEX
  8
PNOA-H_AMS_1956-57_33k_ES_PAN_21mic_H50_0423_fot_46A-10306_E_tif
  70
32
  10
224328.000
  20
4577446.793
  30
720.56
  0
VERTEX
  8
PNOA-H_AMS_1956-57_33k_ES_PAN_21mic_H50_0423_fot_46A-10306_E_tif
  70
32
  10
224552.216
  20
4580990.049
  30
741.368
  0
VERTEX
  8
PNOA-H_AMS_1956-57_33k_ES_PAN_21mic_H50_0423_fot_46A-10306_E_tif
  70
32
  10
226289.205
  20
4580924.070
  30
750.145
  0
SEQEND
  8
PNOA-H_AMS_1956-57_33k_ES_PAN_21mic_H50_0423_fot_46A-10306_E_tif
  0
TEXT
  8
PNOA-H_AMS_1956-57_33k_ES_PAN_21mic_H50_0423_fot_46A-10306_E_tif
 62
0
  1
PNOA-H_AMS_1956-57_33k_ES_PAN_21mic_H50_0423_fot_46A-10306_E.tif
 40
41.64508
  10
225817.958
  20
4579172.147
  0
POLYLINE
  8
PNOA-H_AMS_1956-57_33k_ES_PAN_21mic_H50_0423_fot_48A-10192_E_tif
  70
9
  66
1
  0
VERTEX
  8
PNOA-H_AMS_1956-57_33k_ES_PAN_21mic_H50_0423_fot_48A-10192_E_tif
  70
32
  10
223093.000
  20
4572683.793
  30
660.98
  0
VERTEX
  8
PNOA-H_AMS_1956-57_33k_ES_PAN_21mic_H50_0423_fot_48A-10192_E_tif
  70
32
  10
224513.500
  20
4572175.793
  30
620.99
  0
VERTEX
  8
PNOA-H_AMS_1956-57_33k_ES_PAN_21mic_H50_0423_fot_48A-10192_E_tif
  70
32
  10
224203.500
  20
4567899.293
  30
718
  0
VERTEX
  8
PNOA-H_AMS_1956-57_33k_ES_PAN_21mic_H50_0423_fot_48A-10192_E_tif
  70
32
  10
224203.000
  20
4567893.793
  30
718
  0
VERTEX
  8
PNOA-H_AMS_1956-57_33k_ES_PAN_21mic_H50_0423_fot_48A-10192_E_tif
  70
32
  10
224184.500
  20
4567884.293
  30
716.94
  0
VERTEX
  8
PNOA-H_AMS_1956-57_33k_ES_PAN_21mic_H50_0423_fot_48A-10192_E_tif
  70
32
  10
221484.000
  20
4568094.793
  30
740
  0
VERTEX
  8
PNOA-H_AMS_1956-57_33k_ES_PAN_21mic_H50_0423_fot_48A-10192_E_tif
  70
32
  10
221703.000
  20
4572275.293
  30
725.24
  0
VERTEX
  8
PNOA-H_AMS_1956-57_33k_ES_PAN_21mic_H50_0423_fot_48A-10192_E_tif
  70
32
  10
223091.000
  20
4572683.293
  30
661.44
  0
VERTEX
  8
PNOA-H_AMS_1956-57_33k_ES_PAN_21mic_H50_0423_fot_48A-10192_E_tif
  70
32
  10
223093.000
  20
4572683.793
  30
660.98
  0
SEQEND
  8
PNOA-H_AMS_1956-57_33k_ES_PAN_21mic_H50_0423_fot_48A-10192_E_tif
  0
TEXT
  8
PNOA-H_AMS_1956-57_33k_ES_PAN_21mic_H50_0423_fot_48A-10192_E_tif
 62
0
  1
PNOA-H_AMS_1956-57_33k_ES_PAN_21mic_H50_0423_fot_48A-10192_E.tif
 40
41.64508
  10
222987.527
  20
4570284.043
  0
POLYLINE
  8
PNOA-H_AMS_1956-57_33k_ES_PAN_21mic_H50_0423_fot_48A-10193_E_tif
  70
9
  66
1
  0
VERTEX
  8
PNOA-H_AMS_1956-57_33k_ES_PAN_21mic_H50_0423_fot_48A-10193_E_tif
  70
32
  10
224666.000
  20
4572218.293
  30
579.16
  0
VERTEX
  8
PNOA-H_AMS_1956-57_33k_ES_PAN_21mic_H50_0423_fot_48A-10193_E_tif
  70
32
  10
225695.000
  20
4572506.293
  30
592.8
  0
VERTEX
  8
PNOA-H_AMS_1956-57_33k_ES_PAN_21mic_H50_0423_fot_48A-10193_E_tif
  70
32
  10
225700.500
  20
4572507.293
  30
594.4
  0
VERTEX
  8
PNOA-H_AMS_1956-57_33k_ES_PAN_21mic_H50_0423_fot_48A-10193_E_tif
  70
32
  10
225702.500
  20
4572505.293
  30
593.2
  0
VERTEX
  8
PNOA-H_AMS_1956-57_33k_ES_PAN_21mic_H50_0423_fot_48A-10193_E_tif
  70
32
  10
225707.500
  20
4572505.293
  30
589.5
  0
VERTEX
  8
PNOA-H_AMS_1956-57_33k_ES_PAN_21mic_H50_0423_fot_48A-10193_E_tif
  70
32
  10
225712.000
  20
4572510.293
  30
582.64
  0
VERTEX
  8
PNOA-H_AMS_1956-57_33k_ES_PAN_21mic_H50_0423_fot_48A-10193_E_tif
  70
32
  10
225727.500
  20
4572510.293
  30
595.3
  0
VERTEX
  8
PNOA-H_AMS_1956-57_33k_ES_PAN_21mic_H50_0423_fot_48A-10193_E_tif
  70
32
  10
225731.000
  20
4572513.293
  30
590
  0
VERTEX
  8
PNOA-H_AMS_1956-57_33k_ES_PAN_21mic_H50_0423_fot_48A-10193_E_tif
  70
32
  10
225732.500
  20
4572516.793
  30
584.75
  0
VERTEX
  8
PNOA-H_AMS_1956-57_33k_ES_PAN_21mic_H50_0423_fot_48A-10193_E_tif
  70
32
  10
225804.000
  20
4572536.293
  30
586.6
  0
VERTEX
  8
PNOA-H_AMS_1956-57_33k_ES_PAN_21mic_H50_0423_fot_48A-10193_E_tif
  70
32
  10
227319.000
  20
4572058.293
  30
688.36
  0
VERTEX
  8
PNOA-H_AMS_1956-57_33k_ES_PAN_21mic_H50_0423_fot_48A-10193_E_tif
  70
32
  10
227077.000
  20
4567807.793
  30
763
  0
VERTEX
  8
PNOA-H_AMS_1956-57_33k_ES_PAN_21mic_H50_0423_fot_48A-10193_E_tif
  70
32
  10
226882.000
  20
4567710.793
  30
762
  0
VERTEX
  8
PNOA-H_AMS_1956-57_33k_ES_PAN_21mic_H50_0423_fot_48A-10193_E_tif
  70
32
  10
224203.000
  20
4567893.793
  30
718
  0
VERTEX
  8
PNOA-H_AMS_1956-57_33k_ES_PAN_21mic_H50_0423_fot_48A-10193_E_tif
  70
32
  10
224513.500
  20
4572175.293
  30
621.22
  0
VERTEX
  8
PNOA-H_AMS_1956-57_33k_ES_PAN_21mic_H50_0423_fot_48A-10193_E_tif
  70
32
  10
224664.000
  20
4572217.793
  30
580.3
  0
VERTEX
  8
PNOA-H_AMS_1956-57_33k_ES_PAN_21mic_H50_0423_fot_48A-10193_E_tif
  70
32
  10
224666.000
  20
4572218.293
  30
579.16
  0
SEQEND
  8
PNOA-H_AMS_1956-57_33k_ES_PAN_21mic_H50_0423_fot_48A-10193_E_tif
  0
TEXT
  8
PNOA-H_AMS_1956-57_33k_ES_PAN_21mic_H50_0423_fot_48A-10193_E_tif
 62
0
  1
PNOA-H_AMS_1956-57_33k_ES_PAN_21mic_H50_0423_fot_48A-10193_E.tif
 40
41.64508
  10
225786.775
  20
4570123.543
  0
POLYLINE
  8
PNOA-H_AMS_1956-57_33k_ES_PAN_21mic_H50_0423_fot_49A-10164_W_tif
  70
9
  66
1
  0
VERTEX
  8
PNOA-H_AMS_1956-57_33k_ES_PAN_21mic_H50_0423_fot_49A-10164_W_tif
  70
32
  10
224666.500
  20
4567862.293
  30
710.3
  0
VERTEX
  8
PNOA-H_AMS_1956-57_33k_ES_PAN_21mic_H50_0423_fot_49A-10164_W_tif
  70
32
  10
226882.000
  20
4567710.793
  30
762
  0
VERTEX
  8
PNOA-H_AMS_1956-57_33k_ES_PAN_21mic_H50_0423_fot_49A-10164_W_tif
  70
32
  10
226698.500
  20
4563388.793
  30
767
  0
VERTEX
  8
PNOA-H_AMS_1956-57_33k_ES_PAN_21mic_H50_0423_fot_49A-10164_W_tif
  70
32
  10
226698.000
  20
4563383.293
  30
767.8
  0
VERTEX
  8
PNOA-H_AMS_1956-57_33k_ES_PAN_21mic_H50_0423_fot_49A-10164_W_tif
  70
32
  10
226695.000
  20
4563382.793
  30
767.9
  0
VERTEX
  8
PNOA-H_AMS_1956-57_33k_ES_PAN_21mic_H50_0423_fot_49A-10164_W_tif
  70
32
  10
224304.500
  20
4563196.793
  30
779
  0
VERTEX
  8
PNOA-H_AMS_1956-57_33k_ES_PAN_21mic_H50_0423_fot_49A-10164_W_tif
  70
32
  10
224298.500
  20
4563196.793
  30
779
  0
VERTEX
  8
PNOA-H_AMS_1956-57_33k_ES_PAN_21mic_H50_0423_fot_49A-10164_W_tif
  70
32
  10
224293.500
  20
4563199.793
  30
779
  0
VERTEX
  8
PNOA-H_AMS_1956-57_33k_ES_PAN_21mic_H50_0423_fot_49A-10164_W_tif
  70
32
  10
223892.000
  20
4563454.793
  30
782
  0
VERTEX
  8
PNOA-H_AMS_1956-57_33k_ES_PAN_21mic_H50_0423_fot_49A-10164_W_tif
  70
32
  10
224183.500
  20
4567883.793
  30
716.79
  0
VERTEX
  8
PNOA-H_AMS_1956-57_33k_ES_PAN_21mic_H50_0423_fot_49A-10164_W_tif
  70
32
  10
224202.000
  20
4567893.793
  30
718
  0
VERTEX
  8
PNOA-H_AMS_1956-57_33k_ES_PAN_21mic_H50_0423_fot_49A-10164_W_tif
  70
32
  10
224209.000
  20
4567893.793
  30
718
  0
VERTEX
  8
PNOA-H_AMS_1956-57_33k_ES_PAN_21mic_H50_0423_fot_49A-10164_W_tif
  70
32
  10
224663.000
  20
4567862.293
  30
710
  0
VERTEX
  8
PNOA-H_AMS_1956-57_33k_ES_PAN_21mic_H50_0423_fot_49A-10164_W_tif
  70
32
  10
224666.500
  20
4567862.293
  30
710.3
  0
SEQEND
  8
PNOA-H_AMS_1956-57_33k_ES_PAN_21mic_H50_0423_fot_49A-10164_W_tif
  0
TEXT
  8
PNOA-H_AMS_1956-57_33k_ES_PAN_21mic_H50_0423_fot_49A-10164_W_tif
 62
0
  1
PNOA-H_AMS_1956-57_33k_ES_PAN_21mic_H50_0423_fot_49A-10164_W.tif
 40
41.64508
  10
225409.824
  20
4565545.293
  0
POLYLINE
  8
PNOA-H_AMS_1956-57_33k_ES_PAN_21mic_H50_0423_fot_49A-10165_W_tif
  70
9
  66
1
  0
VERTEX
  8
PNOA-H_AMS_1956-57_33k_ES_PAN_21mic_H50_0423_fot_49A-10165_W_tif
  70
32
  10
221483.500
  20
4568094.793
  30
740
  0
VERTEX
  8
PNOA-H_AMS_1956-57_33k_ES_PAN_21mic_H50_0423_fot_49A-10165_W_tif
  70
32
  10
224184.000
  20
4567884.293
  30
716.88
  0
VERTEX
  8
PNOA-H_AMS_1956-57_33k_ES_PAN_21mic_H50_0423_fot_49A-10165_W_tif
  70
32
  10
223892.000
  20
4563454.793
  30
782
  0
VERTEX
  8
PNOA-H_AMS_1956-57_33k_ES_PAN_21mic_H50_0423_fot_49A-10165_W_tif
  70
32
  10
221297.500
  20
4563398.293
  30
790
  0
VERTEX
  8
PNOA-H_AMS_1956-57_33k_ES_PAN_21mic_H50_0423_fot_49A-10165_W_tif
  70
32
  10
221160.500
  20
4563486.793
  30
795.91
  0
VERTEX
  8
PNOA-H_AMS_1956-57_33k_ES_PAN_21mic_H50_0423_fot_49A-10165_W_tif
  70
32
  10
221417.000
  20
4568057.793
  30
750.64
  0
VERTEX
  8
PNOA-H_AMS_1956-57_33k_ES_PAN_21mic_H50_0423_fot_49A-10165_W_tif
  70
32
  10
221417.500
  20
4568061.793
  30
750.95
  0
VERTEX
  8
PNOA-H_AMS_1956-57_33k_ES_PAN_21mic_H50_0423_fot_49A-10165_W_tif
  70
32
  10
221482.500
  20
4568094.293
  30
740
  0
VERTEX
  8
PNOA-H_AMS_1956-57_33k_ES_PAN_21mic_H50_0423_fot_49A-10165_W_tif
  70
32
  10
221483.500
  20
4568094.793
  30
740
  0
SEQEND
  8
PNOA-H_AMS_1956-57_33k_ES_PAN_21mic_H50_0423_fot_49A-10165_W_tif
  0
TEXT
  8
PNOA-H_AMS_1956-57_33k_ES_PAN_21mic_H50_0423_fot_49A-10165_W_tif
 62
0
  1
PNOA-H_AMS_1956-57_33k_ES_PAN_21mic_H50_0423_fot_49A-10165_W.tif
 40
41.64508
  10
222665.191
  20
4565746.543
  0
POLYLINE
  8
PNOA-H_AMS_1956-57_33k_ES_PAN_21mic_H50_0450_fot_50A-08783_E_tif
  70
9
  66
1
  0
VERTEX
  8
PNOA-H_AMS_1956-57_33k_ES_PAN_21mic_H50_0450_fot_50A-08783_E_tif
  70
32
  10
224282.202
  20
4562467.288
  30
782.593
  0
VERTEX
  8
PNOA-H_AMS_1956-57_33k_ES_PAN_21mic_H50_0450_fot_50A-08783_E_tif
  70
32
  10
222095.698
  20
4562550.066
  30
788.985
  0
VERTEX
  8
PNOA-H_AMS_1956-57_33k_ES_PAN_21mic_H50_0450_fot_50A-08783_E_tif
  70
32
  10
221275.018
  20
4562581.530
  30
788.996
  0
VERTEX
  8
PNOA-H_AMS_1956-57_33k_ES_PAN_21mic_H50_0450_fot_50A-08783_E_tif
  70
32
  10
221297.500
  20
4563398.293
  30
790
  0
VERTEX
  8
PNOA-H_AMS_1956-57_33k_ES_PAN_21mic_H50_0450_fot_50A-08783_E_tif
  70
32
  10
223847.000
  20
4563454.293
  30
784
  0
VERTEX
  8
PNOA-H_AMS_1956-57_33k_ES_PAN_21mic_H50_0450_fot_50A-08783_E_tif
  70
32
  10
223870.000
  20
4563454.793
  30
782.5
  0
VERTEX
  8
PNOA-H_AMS_1956-57_33k_ES_PAN_21mic_H50_0450_fot_50A-08783_E_tif
  70
32
  10
223894.000
  20
4563454.293
  30
782
  0
VERTEX
  8
PNOA-H_AMS_1956-57_33k_ES_PAN_21mic_H50_0450_fot_50A-08783_E_tif
  70
32
  10
224299.000
  20
4563196.793
  30
779
  0
SEQEND
  8
PNOA-H_AMS_1956-57_33k_ES_PAN_21mic_H50_0450_fot_50A-08783_E_tif
  0
TEXT
  8
PNOA-H_AMS_1956-57_33k_ES_PAN_21mic_H50_0450_fot_50A-08783_E_tif
 62
0
  1
PNOA-H_AMS_1956-57_33k_ES_PAN_21mic_H50_0450_fot_50A-08783_E.tif
 40
41.64508
  10
222787.009
  20
4562961.041
  0
POLYLINE
  8
PNOA-H_AMS_1956-57_33k_ES_PAN_21mic_H50_0450_fot_50A-08784_E_tif
  70
9
  66
1
  0
VERTEX
  8
PNOA-H_AMS_1956-57_33k_ES_PAN_21mic_H50_0450_fot_50A-08784_E_tif
  70
32
  10
227324.220
  20
4562352.953
  30
765.721
  0
VERTEX
  8
PNOA-H_AMS_1956-57_33k_ES_PAN_21mic_H50_0450_fot_50A-08784_E_tif
  70
32
  10
225591.864
  20
4562417.706
  30
773.113
  0
VERTEX
  8
PNOA-H_AMS_1956-57_33k_ES_PAN_21mic_H50_0450_fot_50A-08784_E_tif
  70
32
  10
224282.204
  20
4562467.288
  30
782.593
  0
VERTEX
  8
PNOA-H_AMS_1956-57_33k_ES_PAN_21mic_H50_0450_fot_50A-08784_E_tif
  70
32
  10
224299.000
  20
4563196.793
  30
779
  0
VERTEX
  8
PNOA-H_AMS_1956-57_33k_ES_PAN_21mic_H50_0450_fot_50A-08784_E_tif
  70
32
  10
224658.000
  20
4563224.793
  30
777
  0
VERTEX
  8
PNOA-H_AMS_1956-57_33k_ES_PAN_21mic_H50_0450_fot_50A-08784_E_tif
  70
32
  10
224664.500
  20
4563225.293
  30
777
  0
VERTEX
  8
PNOA-H_AMS_1956-57_33k_ES_PAN_21mic_H50_0450_fot_50A-08784_E_tif
  70
32
  10
226698.500
  20
4563383.293
  30
767.8
  0
VERTEX
  8
PNOA-H_AMS_1956-57_33k_ES_PAN_21mic_H50_0450_fot_50A-08784_E_tif
  70
32
  10
227337.500
  20
4563034.293
  30
758.5
  0
SEQEND
  8
PNOA-H_AMS_1956-57_33k_ES_PAN_21mic_H50_0450_fot_50A-08784_E_tif
  0
TEXT
  8
PNOA-H_AMS_1956-57_33k_ES_PAN_21mic_H50_0450_fot_50A-08784_E_tif
 62
0
  1
PNOA-H_AMS_1956-57_33k_ES_PAN_21mic_H50_0450_fot_50A-08784_E.tif
 40
41.64508
  10
225809.852
  20
4562868.123
  0
POLYLINE
  8
PNOA-H_AMS_1956-57_33k_ES_PAN_21mic_H50_0424_fot_47A-06509_E_tif
  70
9
  66
1
  0
VERTEX
  8
PNOA-H_AMS_1956-57_33k_ES_PAN_21mic_H50_0424_fot_47A-06509_E_tif
  70
32
  10
233130.164
  20
4577033.084
  30
749.198
  0
VERTEX
  8
PNOA-H_AMS_1956-57_33k_ES_PAN_21mic_H50_0424_fot_47A-06509_E_tif
  70
32
  10
233093.573
  20
4576037.613
  30
753.651
  0
VERTEX
  8
PNOA-H_AMS_1956-57_33k_ES_PAN_21mic_H50_0424_fot_47A-06509_E_tif
  70
32
  10
233008.579
  20
4573724.334
  30
772.325
  0
VERTEX
  8
PNOA-H_AMS_1956-57_33k_ES_PAN_21mic_H50_0424_fot_47A-06509_E_tif
  70
32
  10
232941.537
  20
4571898.911
  30
767.404
  0
VERTEX
  8
PNOA-H_AMS_1956-57_33k_ES_PAN_21mic_H50_0424_fot_47A-06509_E_tif
  70
32
  10
232884.500
  20
4571883.293
  30
767.2
  0
VERTEX
  8
PNOA-H_AMS_1956-57_33k_ES_PAN_21mic_H50_0424_fot_47A-06509_E_tif
  70
32
  10
231399.000
  20
4572369.793
  30
755.4
  0
VERTEX
  8
PNOA-H_AMS_1956-57_33k_ES_PAN_21mic_H50_0424_fot_47A-06509_E_tif
  70
32
  10
231501.000
  20
4576844.793
  30
753.4
  0
VERTEX
  8
PNOA-H_AMS_1956-57_33k_ES_PAN_21mic_H50_0424_fot_47A-06509_E_tif
  70
32
  10
232645.500
  20
4577168.293
  30
735.18
  0
VERTEX
  8
PNOA-H_AMS_1956-57_33k_ES_PAN_21mic_H50_0424_fot_47A-06509_E_tif
  70
32
  10
232654.500
  20
4577166.793
  30
735.1
  0
VERTEX
  8
PNOA-H_AMS_1956-57_33k_ES_PAN_21mic_H50_0424_fot_47A-06509_E_tif
  70
32
  10
232857.500
  20
4577109.293
  30
743.7
  0
VERTEX
  8
PNOA-H_AMS_1956-57_33k_ES_PAN_21mic_H50_0424_fot_47A-06509_E_tif
  70
32
  10
232858.500
  20
4577109.293
  30
743.82
  0
SEQEND
  8
PNOA-H_AMS_1956-57_33k_ES_PAN_21mic_H50_0424_fot_47A-06509_E_tif
  0
TEXT
  8
PNOA-H_AMS_1956-57_33k_ES_PAN_21mic_H50_0424_fot_47A-06509_E_tif
 62
0
  1
PNOA-H_AMS_1956-57_33k_ES_PAN_21mic_H50_0424_fot_47A-06509_E.tif
 40
41.64508
  10
232864.932
  20
4574525.793
  0
POLYLINE
  8
PNOA-H_AMS_1956-57_33k_ES_PAN_21mic_H50_0423_fot_47A-06508_E_tif
  70
9
  66
1
  0
VERTEX
  8
PNOA-H_AMS_1956-57_33k_ES_PAN_21mic_H50_0423_fot_47A-06508_E_tif
  70
32
  10
228761.000
  20
4576983.793
  30
744
  0
VERTEX
  8
PNOA-H_AMS_1956-57_33k_ES_PAN_21mic_H50_0423_fot_47A-06508_E_tif
  70
32
  10
229881.500
  20
4577285.793
  30
758
  0
VERTEX
  8
PNOA-H_AMS_1956-57_33k_ES_PAN_21mic_H50_0423_fot_47A-06508_E_tif
  70
32
  10
231501.000
  20
4576844.793
  30
753.4
  0
VERTEX
  8
PNOA-H_AMS_1956-57_33k_ES_PAN_21mic_H50_0423_fot_47A-06508_E_tif
  70
32
  10
231399.000
  20
4572369.293
  30
755.32
  0
VERTEX
  8
PNOA-H_AMS_1956-57_33k_ES_PAN_21mic_H50_0423_fot_47A-06508_E_tif
  70
32
  10
230091.500
  20
4572000.293
  30
717.7
  0
VERTEX
  8
PNOA-H_AMS_1956-57_33k_ES_PAN_21mic_H50_0423_fot_47A-06508_E_tif
  70
32
  10
230088.000
  20
4571999.793
  30
718
  0
VERTEX
  8
PNOA-H_AMS_1956-57_33k_ES_PAN_21mic_H50_0423_fot_47A-06508_E_tif
  70
32
  10
230079.500
  20
4572002.293
  30
718
  0
VERTEX
  8
PNOA-H_AMS_1956-57_33k_ES_PAN_21mic_H50_0423_fot_47A-06508_E_tif
  70
32
  10
228572.000
  20
4572459.793
  30
741
  0
VERTEX
  8
PNOA-H_AMS_1956-57_33k_ES_PAN_21mic_H50_0423_fot_47A-06508_E_tif
  70
32
  10
228625.000
  20
4576943.293
  30
742.8
  0
VERTEX
  8
PNOA-H_AMS_1956-57_33k_ES_PAN_21mic_H50_0423_fot_47A-06508_E_tif
  70
32
  10
228625.500
  20
4576946.793
  30
742.19
  0
VERTEX
  8
PNOA-H_AMS_1956-57_33k_ES_PAN_21mic_H50_0423_fot_47A-06508_E_tif
  70
32
  10
228627.500
  20
4576947.793
  30
742.55
  0
VERTEX
  8
PNOA-H_AMS_1956-57_33k_ES_PAN_21mic_H50_0423_fot_47A-06508_E_tif
  70
32
  10
228759.000
  20
4576983.293
  30
744
  0
VERTEX
  8
PNOA-H_AMS_1956-57_33k_ES_PAN_21mic_H50_0423_fot_47A-06508_E_tif
  70
32
  10
228761.000
  20
4576983.793
  30
744
  0
SEQEND
  8
PNOA-H_AMS_1956-57_33k_ES_PAN_21mic_H50_0423_fot_47A-06508_E_tif
  0
TEXT
  8
PNOA-H_AMS_1956-57_33k_ES_PAN_21mic_H50_0423_fot_47A-06508_E_tif
 62
0
  1
PNOA-H_AMS_1956-57_33k_ES_PAN_21mic_H50_0423_fot_47A-06508_E.tif
 40
41.64508
  10
230024.310
  20
4574642.793
  0
POLYLINE
  8
PNOA-H_AMS_1956-57_33k_ES_PAN_21mic_H50_0423_fot_46A-10308_E_tif
  70
9
  66
1
  0
VERTEX
  8
PNOA-H_AMS_1956-57_33k_ES_PAN_21mic_H50_0423_fot_46A-10308_E_tif
  70
32
  10
232924.972
  20
4580676.728
  30
776.879
  0
VERTEX
  8
PNOA-H_AMS_1956-57_33k_ES_PAN_21mic_H50_0423_fot_46A-10308_E_tif
  70
32
  10
232647.500
  20
4577168.293
  30
735.1
  0
VERTEX
  8
PNOA-H_AMS_1956-57_33k_ES_PAN_21mic_H50_0423_fot_46A-10308_E_tif
  70
32
  10
231503.000
  20
4576844.793
  30
753.2
  0
VERTEX
  8
PNOA-H_AMS_1956-57_33k_ES_PAN_21mic_H50_0423_fot_46A-10308_E_tif
  70
32
  10
231499.500
  20
4576844.793
  30
753.55
  0
VERTEX
  8
PNOA-H_AMS_1956-57_33k_ES_PAN_21mic_H50_0423_fot_46A-10308_E_tif
  70
32
  10
231482.500
  20
4576849.293
  30
754
  0
VERTEX
  8
PNOA-H_AMS_1956-57_33k_ES_PAN_21mic_H50_0423_fot_46A-10308_E_tif
  70
32
  10
229880.500
  20
4577285.793
  30
758
  0
VERTEX
  8
PNOA-H_AMS_1956-57_33k_ES_PAN_21mic_H50_0423_fot_46A-10308_E_tif
  70
32
  10
230072.726
  20
4580782.321
  30
767.311
  0
SEQEND
  8
PNOA-H_AMS_1956-57_33k_ES_PAN_21mic_H50_0423_fot_46A-10308_E_tif
  0
TEXT
  8
PNOA-H_AMS_1956-57_33k_ES_PAN_21mic_H50_0423_fot_46A-10308_E_tif
 62
0
  1
PNOA-H_AMS_1956-57_33k_ES_PAN_21mic_H50_0423_fot_46A-10308_E.tif
 40
41.64508
  10
231379.356
  20
4578937.397
  0
POLYLINE
  8
PNOA-H_AMS_1956-57_33k_ES_PAN_21mic_H50_0424_fot_46A-10309_E_tif
  70
9
  66
1
  0
VERTEX
  8
PNOA-H_AMS_1956-57_33k_ES_PAN_21mic_H50_0424_fot_46A-10309_E_tif
  70
32
  10
233130.153
  20
4577032.801
  30
745.829
  0
VERTEX
  8
PNOA-H_AMS_1956-57_33k_ES_PAN_21mic_H50_0424_fot_46A-10309_E_tif
  70
32
  10
232647.500
  20
4577168.293
  30
735.1
  0
VERTEX
  8
PNOA-H_AMS_1956-57_33k_ES_PAN_21mic_H50_0424_fot_46A-10309_E_tif
  70
32
  10
232924.753
  20
4580676.736
  30
776.585
  0
VERTEX
  8
PNOA-H_AMS_1956-57_33k_ES_PAN_21mic_H50_0424_fot_46A-10309_E_tif
  70
32
  10
233263.668
  20
4580664.190
  30
782.774
  0
VERTEX
  8
PNOA-H_AMS_1956-57_33k_ES_PAN_21mic_H50_0424_fot_46A-10309_E_tif
  70
32
  10
233178.603
  20
4578350.899
  30
749.49
  0
SEQEND
  8
PNOA-H_AMS_1956-57_33k_ES_PAN_21mic_H50_0424_fot_46A-10309_E_tif
  0
TEXT
  8
PNOA-H_AMS_1956-57_33k_ES_PAN_21mic_H50_0424_fot_46A-10309_E_tif
 62
0
  1
PNOA-H_AMS_1956-57_33k_ES_PAN_21mic_H50_0424_fot_46A-10309_E.tif
 40
41.64508
  10
232955.584
  20
4578854.769
  0
POLYLINE
  8
PNOA-H_AMS_1956-57_33k_ES_PAN_21mic_H50_0423_fot_46A-10307_E_tif
  70
9
  66
1
  0
VERTEX
  8
PNOA-H_AMS_1956-57_33k_ES_PAN_21mic_H50_0423_fot_46A-10307_E_tif
  70
32
  10
227037.500
  20
4577754.293
  30
743.5
  0
VERTEX
  8
PNOA-H_AMS_1956-57_33k_ES_PAN_21mic_H50_0423_fot_46A-10307_E_tif
  70
32
  10
227047.500
  20
4577754.293
  30
724.1
  0
VERTEX
  8
PNOA-H_AMS_1956-57_33k_ES_PAN_21mic_H50_0423_fot_46A-10307_E_tif
  70
32
  10
227052.000
  20
4577749.793
  30
720.8
  0
VERTEX
  8
PNOA-H_AMS_1956-57_33k_ES_PAN_21mic_H50_0423_fot_46A-10307_E_tif
  70
32
  10
227052.000
  20
4577744.793
  30
721
  0
VERTEX
  8
PNOA-H_AMS_1956-57_33k_ES_PAN_21mic_H50_0423_fot_46A-10307_E_tif
  70
32
  10
227047.500
  20
4577740.293
  30
721
  0
VERTEX
  8
PNOA-H_AMS_1956-57_33k_ES_PAN_21mic_H50_0423_fot_46A-10307_E_tif
  70
32
  10
227037.500
  20
4577740.293
  30
720.8
  0
VERTEX
  8
PNOA-H_AMS_1956-57_33k_ES_PAN_21mic_H50_0423_fot_46A-10307_E_tif
  70
32
  10
227033.000
  20
4577744.793
  30
723.1
  0
VERTEX
  8
PNOA-H_AMS_1956-57_33k_ES_PAN_21mic_H50_0423_fot_46A-10307_E_tif
  70
32
  10
227033.000
  20
4577749.793
  30
731.2
  0
VERTEX
  8
PNOA-H_AMS_1956-57_33k_ES_PAN_21mic_H50_0423_fot_46A-10307_E_tif
  70
32
  10
227037.000
  20
4577753.293
  30
745.2
  0
VERTEX
  8
PNOA-H_AMS_1956-57_33k_ES_PAN_21mic_H50_0423_fot_46A-10307_E_tif
  70
32
  10
227037.500
  20
4577754.293
  30
743.5
  0
SEQEND
  8
PNOA-H_AMS_1956-57_33k_ES_PAN_21mic_H50_0423_fot_46A-10307_E_tif
  0
TEXT
  8
PNOA-H_AMS_1956-57_33k_ES_PAN_21mic_H50_0423_fot_46A-10307_E_tif
 62
0
  1
PNOA-H_AMS_1956-57_33k_ES_PAN_21mic_H50_0423_fot_46A-10307_E.tif
 40
41.64508
  10
227042.500
  20
4577747.293
  0
POLYLINE
  8
PNOA-H_AMS_1956-57_33k_ES_PAN_21mic_H50_0423_fot_46A-10307_E_tif
  70
9
  66
1
  0
VERTEX
  8
PNOA-H_AMS_1956-57_33k_ES_PAN_21mic_H50_0423_fot_46A-10307_E_tif
  70
32
  10
230073.118
  20
4580782.306
  30
767.32
  0
VERTEX
  8
PNOA-H_AMS_1956-57_33k_ES_PAN_21mic_H50_0423_fot_46A-10307_E_tif
  70
32
  10
229880.500
  20
4577285.793
  30
758
  0
VERTEX
  8
PNOA-H_AMS_1956-57_33k_ES_PAN_21mic_H50_0423_fot_46A-10307_E_tif
  70
32
  10
228626.000
  20
4576946.793
  30
742.28
  0
VERTEX
  8
PNOA-H_AMS_1956-57_33k_ES_PAN_21mic_H50_0423_fot_46A-10307_E_tif
  70
32
  10
227140.000
  20
4577359.293
  30
735.4
  0
VERTEX
  8
PNOA-H_AMS_1956-57_33k_ES_PAN_21mic_H50_0423_fot_46A-10307_E_tif
  70
32
  10
227135.500
  20
4577360.793
  30
734.8
  0
VERTEX
  8
PNOA-H_AMS_1956-57_33k_ES_PAN_21mic_H50_0423_fot_46A-10307_E_tif
  70
32
  10
227135.500
  20
4577368.293
  30
731.3
  0
VERTEX
  8
PNOA-H_AMS_1956-57_33k_ES_PAN_21mic_H50_0423_fot_46A-10307_E_tif
  70
32
  10
227258.579
  20
4580887.716
  30
747.561
  0
VERTEX
  8
PNOA-H_AMS_1956-57_33k_ES_PAN_21mic_H50_0423_fot_46A-10307_E_tif
  70
32
  10
229776.446
  20
4580793.290
  30
765.808
  0
SEQEND
  8
PNOA-H_AMS_1956-57_33k_ES_PAN_21mic_H50_0423_fot_46A-10307_E_tif
  0
TEXT
  8
PNOA-H_AMS_1956-57_33k_ES_PAN_21mic_H50_0423_fot_46A-10307_E_tif
 62
0
  1
PNOA-H_AMS_1956-57_33k_ES_PAN_21mic_H50_0423_fot_46A-10307_E.tif
 40
41.64508
  10
228583.226
  20
4578988.397
  0
POLYLINE
  8
PNOA-H_AMS_1956-57_33k_ES_PAN_21mic_H50_0423_fot_46A-10306_E_tif
  70
9
  66
1
  0
VERTEX
  8
PNOA-H_AMS_1956-57_33k_ES_PAN_21mic_H50_0423_fot_46A-10306_E_tif
  70
32
  10
227047.500
  20
4577754.293
  30
724.1
  0
VERTEX
  8
PNOA-H_AMS_1956-57_33k_ES_PAN_21mic_H50_0423_fot_46A-10306_E_tif
  70
32
  10
227048.000
  20
4577753.293
  30
723.28
  0
VERTEX
  8
PNOA-H_AMS_1956-57_33k_ES_PAN_21mic_H50_0423_fot_46A-10306_E_tif
  70
32
  10
227052.000
  20
4577749.793
  30
720.8
  0
VERTEX
  8
PNOA-H_AMS_1956-57_33k_ES_PAN_21mic_H50_0423_fot_46A-10306_E_tif
  70
32
  10
227052.000
  20
4577744.793
  30
721
  0
VERTEX
  8
PNOA-H_AMS_1956-57_33k_ES_PAN_21mic_H50_0423_fot_46A-10306_E_tif
  70
32
  10
227047.500
  20
4577740.293
  30
721
  0
VERTEX
  8
PNOA-H_AMS_1956-57_33k_ES_PAN_21mic_H50_0423_fot_46A-10306_E_tif
  70
32
  10
227037.500
  20
4577740.293
  30
720.8
  0
VERTEX
  8
PNOA-H_AMS_1956-57_33k_ES_PAN_21mic_H50_0423_fot_46A-10306_E_tif
  70
32
  10
227033.000
  20
4577744.793
  30
723.1
  0
VERTEX
  8
PNOA-H_AMS_1956-57_33k_ES_PAN_21mic_H50_0423_fot_46A-10306_E_tif
  70
32
  10
227033.000
  20
4577749.793
  30
731.2
  0
VERTEX
  8
PNOA-H_AMS_1956-57_33k_ES_PAN_21mic_H50_0423_fot_46A-10306_E_tif
  70
32
  10
227037.500
  20
4577754.293
  30
743.5
  0
VERTEX
  8
PNOA-H_AMS_1956-57_33k_ES_PAN_21mic_H50_0423_fot_46A-10306_E_tif
  70
32
  10
227047.500
  20
4577754.293
  30
724.1
  0
SEQEND
  8
PNOA-H_AMS_1956-57_33k_ES_PAN_21mic_H50_0423_fot_46A-10306_E_tif
  0
TEXT
  8
PNOA-H_AMS_1956-57_33k_ES_PAN_21mic_H50_0423_fot_46A-10306_E_tif
 62
0
  1
PNOA-H_AMS_1956-57_33k_ES_PAN_21mic_H50_0423_fot_46A-10306_E.tif
 40
41.64508
  10
227042.500
  20
4577747.293
  0
POLYLINE
  8
PNOA-H_AMS_1956-57_33k_ES_PAN_21mic_H50_0423_fot_48A-10194_E_tif
  70
9
  66
1
  0
VERTEX
  8
PNOA-H_AMS_1956-57_33k_ES_PAN_21mic_H50_0423_fot_48A-10194_E_tif
  70
32
  10
229532.000
  20
4567541.793
  30
729
  0
VERTEX
  8
PNOA-H_AMS_1956-57_33k_ES_PAN_21mic_H50_0423_fot_48A-10194_E_tif
  70
32
  10
229511.000
  20
4567530.793
  30
728.76
  0
VERTEX
  8
PNOA-H_AMS_1956-57_33k_ES_PAN_21mic_H50_0423_fot_48A-10194_E_tif
  70
32
  10
229507.000
  20
4567530.793
  30
728.1
  0
VERTEX
  8
PNOA-H_AMS_1956-57_33k_ES_PAN_21mic_H50_0423_fot_48A-10194_E_tif
  70
32
  10
227077.000
  20
4567807.793
  30
763
  0
VERTEX
  8
PNOA-H_AMS_1956-57_33k_ES_PAN_21mic_H50_0423_fot_48A-10194_E_tif
  70
32
  10
227318.500
  20
4572057.293
  30
688.3
  0
VERTEX
  8
PNOA-H_AMS_1956-57_33k_ES_PAN_21mic_H50_0423_fot_48A-10194_E_tif
  70
32
  10
227319.000
  20
4572058.793
  30
688.44
  0
VERTEX
  8
PNOA-H_AMS_1956-57_33k_ES_PAN_21mic_H50_0423_fot_48A-10194_E_tif
  70
32
  10
227322.000
  20
4572059.793
  30
688.5
  0
VERTEX
  8
PNOA-H_AMS_1956-57_33k_ES_PAN_21mic_H50_0423_fot_48A-10194_E_tif
  70
32
  10
228571.500
  20
4572459.793
  30
741
  0
VERTEX
  8
PNOA-H_AMS_1956-57_33k_ES_PAN_21mic_H50_0423_fot_48A-10194_E_tif
  70
32
  10
230088.500
  20
4571999.793
  30
718
  0
VERTEX
  8
PNOA-H_AMS_1956-57_33k_ES_PAN_21mic_H50_0423_fot_48A-10194_E_tif
  70
32
  10
229901.500
  20
4567725.293
  30
747
  0
VERTEX
  8
PNOA-H_AMS_1956-57_33k_ES_PAN_21mic_H50_0423_fot_48A-10194_E_tif
  70
32
  10
229533.000
  20
4567541.793
  30
729
  0
VERTEX
  8
PNOA-H_AMS_1956-57_33k_ES_PAN_21mic_H50_0423_fot_48A-10194_E_tif
  70
32
  10
229532.000
  20
4567541.793
  30
729
  0
SEQEND
  8
PNOA-H_AMS_1956-57_33k_ES_PAN_21mic_H50_0423_fot_48A-10194_E_tif
  0
TEXT
  8
PNOA-H_AMS_1956-57_33k_ES_PAN_21mic_H50_0423_fot_48A-10194_E_tif
 62
0
  1
PNOA-H_AMS_1956-57_33k_ES_PAN_21mic_H50_0423_fot_48A-10194_E.tif
 40
41.64508
  10
228601.062
  20
4569995.293
  0
POLYLINE
  8
PNOA-H_AMS_1956-57_33k_ES_PAN_21mic_H50_0423_fot_48A-10195_E_tif
  70
9
  66
1
  0
VERTEX
  8
PNOA-H_AMS_1956-57_33k_ES_PAN_21mic_H50_0423_fot_48A-10195_E_tif
  70
32
  10
230088.500
  20
4571999.793
  30
718
  0
VERTEX
  8
PNOA-H_AMS_1956-57_33k_ES_PAN_21mic_H50_0423_fot_48A-10195_E_tif
  70
32
  10
231399.500
  20
4572369.793
  30
755.45
  0
VERTEX
  8
PNOA-H_AMS_1956-57_33k_ES_PAN_21mic_H50_0423_fot_48A-10195_E_tif
  70
32
  10
232856.500
  20
4571891.793
  30
769
  0
VERTEX
  8
PNOA-H_AMS_1956-57_33k_ES_PAN_21mic_H50_0423_fot_48A-10195_E_tif
  70
32
  10
232858.500
  20
4571891.293
  30
769
  0
VERTEX
  8
PNOA-H_AMS_1956-57_33k_ES_PAN_21mic_H50_0423_fot_48A-10195_E_tif
  70
32
  10
232882.500
  20
4571883.793
  30
767.3
  0
VERTEX
  8
PNOA-H_AMS_1956-57_33k_ES_PAN_21mic_H50_0423_fot_48A-10195_E_tif
  70
32
  10
232883.500
  20
4571883.293
  30
767.2
  0
VERTEX
  8
PNOA-H_AMS_1956-57_33k_ES_PAN_21mic_H50_0423_fot_48A-10195_E_tif
  70
32
  10
232883.500
  20
4571880.793
  30
767
  0
VERTEX
  8
PNOA-H_AMS_1956-57_33k_ES_PAN_21mic_H50_0423_fot_48A-10195_E_tif
  70
32
  10
232646.000
  20
4567638.293
  30
732
  0
VERTEX
  8
PNOA-H_AMS_1956-57_33k_ES_PAN_21mic_H50_0423_fot_48A-10195_E_tif
  70
32
  10
232338.000
  20
4567486.293
  30
650.4
  0
VERTEX
  8
PNOA-H_AMS_1956-57_33k_ES_PAN_21mic_H50_0423_fot_48A-10195_E_tif
  70
32
  10
232333.500
  20
4567484.293
  30
651.6
  0
VERTEX
  8
PNOA-H_AMS_1956-57_33k_ES_PAN_21mic_H50_0423_fot_48A-10195_E_tif
  70
32
  10
232328.500
  20
4567484.293
  30
653.3
  0
VERTEX
  8
PNOA-H_AMS_1956-57_33k_ES_PAN_21mic_H50_0423_fot_48A-10195_E_tif
  70
32
  10
229901.500
  20
4567725.293
  30
747
  0
SEQEND
  8
PNOA-H_AMS_1956-57_33k_ES_PAN_21mic_H50_0423_fot_48A-10195_E_tif
  0
TEXT
  8
PNOA-H_AMS_1956-57_33k_ES_PAN_21mic_H50_0423_fot_48A-10195_E_tif
 62
0
  1
PNOA-H_AMS_1956-57_33k_ES_PAN_21mic_H50_0423_fot_48A-10195_E.tif
 40
41.64508
  10
231385.974
  20
4569927.043
  0
POLYLINE
  8
PNOA-H_AMS_1956-57_33k_ES_PAN_21mic_H50_0424_fot_48A-10196_E_tif
  70
9
  66
1
  0
VERTEX
  8
PNOA-H_AMS_1956-57_33k_ES_PAN_21mic_H50_0424_fot_48A-10196_E_tif
  70
32
  10
232784.477
  20
4567620.270
  30
734.067
  0
VERTEX
  8
PNOA-H_AMS_1956-57_33k_ES_PAN_21mic_H50_0424_fot_48A-10196_E_tif
  70
32
  10
232646.000
  20
4567638.793
  30
732
  0
VERTEX
  8
PNOA-H_AMS_1956-57_33k_ES_PAN_21mic_H50_0424_fot_48A-10196_E_tif
  70
32
  10
232883.500
  20
4571883.293
  30
767.2
  0
VERTEX
  8
PNOA-H_AMS_1956-57_33k_ES_PAN_21mic_H50_0424_fot_48A-10196_E_tif
  70
32
  10
232941.546
  20
4571899.163
  30
767.407
  0
VERTEX
  8
PNOA-H_AMS_1956-57_33k_ES_PAN_21mic_H50_0424_fot_48A-10196_E_tif
  70
32
  10
232923.620
  20
4571411.060
  30
763.315
  0
VERTEX
  8
PNOA-H_AMS_1956-57_33k_ES_PAN_21mic_H50_0424_fot_48A-10196_E_tif
  70
32
  10
232838.696
  20
4569097.792
  30
744.151
  0
SEQEND
  8
PNOA-H_AMS_1956-57_33k_ES_PAN_21mic_H50_0424_fot_48A-10196_E_tif
  0
TEXT
  8
PNOA-H_AMS_1956-57_33k_ES_PAN_21mic_H50_0424_fot_48A-10196_E_tif
 62
0
  1
PNOA-H_AMS_1956-57_33k_ES_PAN_21mic_H50_0424_fot_48A-10196_E.tif
 40
41.64508
  10
232793.773
  20
4569759.717
  0
POLYLINE
  8
PNOA-H_AMS_1956-57_33k_ES_PAN_21mic_H50_0423_fot_49A-10162_W_tif
  70
9
  66
1
  0
VERTEX
  8
PNOA-H_AMS_1956-57_33k_ES_PAN_21mic_H50_0423_fot_49A-10162_W_tif
  70
32
  10
229900.000
  20
4567724.793
  30
747
  0
VERTEX
  8
PNOA-H_AMS_1956-57_33k_ES_PAN_21mic_H50_0423_fot_49A-10162_W_tif
  70
32
  10
229901.000
  20
4567725.293
  30
747
  0
VERTEX
  8
PNOA-H_AMS_1956-57_33k_ES_PAN_21mic_H50_0423_fot_49A-10162_W_tif
  70
32
  10
232333.000
  20
4567484.293
  30
651.8
  0
VERTEX
  8
PNOA-H_AMS_1956-57_33k_ES_PAN_21mic_H50_0423_fot_49A-10162_W_tif
  70
32
  10
232174.500
  20
4563331.293
  30
755
  0
VERTEX
  8
PNOA-H_AMS_1956-57_33k_ES_PAN_21mic_H50_0423_fot_49A-10162_W_tif
  70
32
  10
230367.000
  20
4562969.793
  30
776
  0
VERTEX
  8
PNOA-H_AMS_1956-57_33k_ES_PAN_21mic_H50_0423_fot_49A-10162_W_tif
  70
32
  10
229520.000
  20
4563380.793
  30
770.3
  0
VERTEX
  8
PNOA-H_AMS_1956-57_33k_ES_PAN_21mic_H50_0423_fot_49A-10162_W_tif
  70
32
  10
229510.500
  20
4567530.793
  30
728.73
  0
SEQEND
  8
PNOA-H_AMS_1956-57_33k_ES_PAN_21mic_H50_0423_fot_49A-10162_W_tif
  0
TEXT
  8
PNOA-H_AMS_1956-57_33k_ES_PAN_21mic_H50_0423_fot_49A-10162_W_tif
 62
0
  1
PNOA-H_AMS_1956-57_33k_ES_PAN_21mic_H50_0423_fot_49A-10162_W.tif
 40
41.64508
  10
230883.474
  20
4565347.543
  0
POLYLINE
  8
PNOA-H_AMS_1956-57_33k_ES_PAN_21mic_H50_0423_fot_49A-10163_W_tif
  70
9
  66
1
  0
VERTEX
  8
PNOA-H_AMS_1956-57_33k_ES_PAN_21mic_H50_0423_fot_49A-10163_W_tif
  70
32
  10
227076.000
  20
4567807.793
  30
763
  0
VERTEX
  8
PNOA-H_AMS_1956-57_33k_ES_PAN_21mic_H50_0423_fot_49A-10163_W_tif
  70
32
  10
229510.500
  20
4567530.793
  30
728.73
  0
VERTEX
  8
PNOA-H_AMS_1956-57_33k_ES_PAN_21mic_H50_0423_fot_49A-10163_W_tif
  70
32
  10
229520.000
  20
4563380.793
  30
770.3
  0
VERTEX
  8
PNOA-H_AMS_1956-57_33k_ES_PAN_21mic_H50_0423_fot_49A-10163_W_tif
  70
32
  10
227337.000
  20
4563034.293
  30
758.6
  0
VERTEX
  8
PNOA-H_AMS_1956-57_33k_ES_PAN_21mic_H50_0423_fot_49A-10163_W_tif
  70
32
  10
226698.000
  20
4563383.293
  30
767.8
  0
VERTEX
  8
PNOA-H_AMS_1956-57_33k_ES_PAN_21mic_H50_0423_fot_49A-10163_W_tif
  70
32
  10
226881.500
  20
4567708.293
  30
762
  0
VERTEX
  8
PNOA-H_AMS_1956-57_33k_ES_PAN_21mic_H50_0423_fot_49A-10163_W_tif
  70
32
  10
226882.000
  20
4567711.293
  30
762
  0
VERTEX
  8
PNOA-H_AMS_1956-57_33k_ES_PAN_21mic_H50_0423_fot_49A-10163_W_tif
  70
32
  10
227075.000
  20
4567807.293
  30
763
  0
VERTEX
  8
PNOA-H_AMS_1956-57_33k_ES_PAN_21mic_H50_0423_fot_49A-10163_W_tif
  70
32
  10
227076.000
  20
4567807.793
  30
763
  0
SEQEND
  8
PNOA-H_AMS_1956-57_33k_ES_PAN_21mic_H50_0423_fot_49A-10163_W_tif
  0
TEXT
  8
PNOA-H_AMS_1956-57_33k_ES_PAN_21mic_H50_0423_fot_49A-10163_W_tif
 62
0
  1
PNOA-H_AMS_1956-57_33k_ES_PAN_21mic_H50_0423_fot_49A-10163_W.tif
 40
41.64508
  10
228149.893
  20
4565421.043
  0
POLYLINE
  8
PNOA-H_AMS_1956-57_33k_ES_PAN_21mic_H50_0424_fot_49A-10161_W_tif
  70
9
  66
1
  0
VERTEX
  8
PNOA-H_AMS_1956-57_33k_ES_PAN_21mic_H50_0424_fot_49A-10161_W_tif
  70
32
  10
232784.477
  20
4567620.290
  30
734.035
  0
VERTEX
  8
PNOA-H_AMS_1956-57_33k_ES_PAN_21mic_H50_0424_fot_49A-10161_W_tif
  70
32
  10
232753.808
  20
4566784.530
  30
668.91
  0
VERTEX
  8
PNOA-H_AMS_1956-57_33k_ES_PAN_21mic_H50_0424_fot_49A-10161_W_tif
  70
32
  10
232668.956
  20
4564471.274
  30
726.286
  0
VERTEX
  8
PNOA-H_AMS_1956-57_33k_ES_PAN_21mic_H50_0424_fot_49A-10161_W_tif
  70
32
  10
232620.365
  20
4563146.057
  30
756.238
  0
VERTEX
  8
PNOA-H_AMS_1956-57_33k_ES_PAN_21mic_H50_0424_fot_49A-10161_W_tif
  70
32
  10
232174.500
  20
4563330.793
  30
755
  0
VERTEX
  8
PNOA-H_AMS_1956-57_33k_ES_PAN_21mic_H50_0424_fot_49A-10161_W_tif
  70
32
  10
232332.500
  20
4567483.293
  30
652
  0
VERTEX
  8
PNOA-H_AMS_1956-57_33k_ES_PAN_21mic_H50_0424_fot_49A-10161_W_tif
  70
32
  10
232336.500
  20
4567486.293
  30
650.7
  0
VERTEX
  8
PNOA-H_AMS_1956-57_33k_ES_PAN_21mic_H50_0424_fot_49A-10161_W_tif
  70
32
  10
232645.000
  20
4567638.293
  30
732
  0
VERTEX
  8
PNOA-H_AMS_1956-57_33k_ES_PAN_21mic_H50_0424_fot_49A-10161_W_tif
  70
32
  10
232646.000
  20
4567638.793
  30
732
  0
SEQEND
  8
PNOA-H_AMS_1956-57_33k_ES_PAN_21mic_H50_0424_fot_49A-10161_W_tif
  0
TEXT
  8
PNOA-H_AMS_1956-57_33k_ES_PAN_21mic_H50_0424_fot_49A-10161_W_tif
 62
0
  1
PNOA-H_AMS_1956-57_33k_ES_PAN_21mic_H50_0424_fot_49A-10161_W.tif
 40
41.64508
  10
232479.489
  20
4565392.425
  0
POLYLINE
  8
PNOA-H_AMS_1956-57_33k_ES_PAN_21mic_H50_0450_fot_50A-08785_E_tif
  70
9
  66
1
  0
VERTEX
  8
PNOA-H_AMS_1956-57_33k_ES_PAN_21mic_H50_0450_fot_50A-08785_E_tif
  70
32
  10
230343.357
  20
4562240.705
  30
781.345
  0
VERTEX
  8
PNOA-H_AMS_1956-57_33k_ES_PAN_21mic_H50_0450_fot_50A-08785_E_tif
  70
32
  10
229088.011
  20
4562287.025
  30
766.909
  0
VERTEX
  8
PNOA-H_AMS_1956-57_33k_ES_PAN_21mic_H50_0450_fot_50A-08785_E_tif
  70
32
  10
227324.166
  20
4562352.955
  30
765.705
  0
VERTEX
  8
PNOA-H_AMS_1956-57_33k_ES_PAN_21mic_H50_0450_fot_50A-08785_E_tif
  70
32
  10
227337.500
  20
4563034.293
  30
758.5
  0
VERTEX
  8
PNOA-H_AMS_1956-57_33k_ES_PAN_21mic_H50_0450_fot_50A-08785_E_tif
  70
32
  10
229514.000
  20
4563380.293
  30
770
  0
VERTEX
  8
PNOA-H_AMS_1956-57_33k_ES_PAN_21mic_H50_0450_fot_50A-08785_E_tif
  70
32
  10
229517.500
  20
4563380.793
  30
770.15
  0
VERTEX
  8
PNOA-H_AMS_1956-57_33k_ES_PAN_21mic_H50_0450_fot_50A-08785_E_tif
  70
32
  10
229521.000
  20
4563380.793
  30
770.44
  0
VERTEX
  8
PNOA-H_AMS_1956-57_33k_ES_PAN_21mic_H50_0450_fot_50A-08785_E_tif
  70
32
  10
229527.500
  20
4563377.793
  30
771
  0
VERTEX
  8
PNOA-H_AMS_1956-57_33k_ES_PAN_21mic_H50_0450_fot_50A-08785_E_tif
  70
32
  10
230367.500
  20
4562969.793
  30
776
  0
SEQEND
  8
PNOA-H_AMS_1956-57_33k_ES_PAN_21mic_H50_0450_fot_50A-08785_E_tif
  0
TEXT
  8
PNOA-H_AMS_1956-57_33k_ES_PAN_21mic_H50_0450_fot_50A-08785_E_tif
 62
0
  1
PNOA-H_AMS_1956-57_33k_ES_PAN_21mic_H50_0450_fot_50A-08785_E.tif
 40
41.64508
  10
228845.833
  20
4562810.749
  0
POLYLINE
  8
PNOA-H_AMS_1956-57_33k_ES_PAN_21mic_H50_0450_fot_50A-08786_E_tif
  70
9
  66
1
  0
VERTEX
  8
PNOA-H_AMS_1956-57_33k_ES_PAN_21mic_H50_0450_fot_50A-08786_E_tif
  70
32
  10
232620.380
  20
4563146.443
  30
756.204
  0
VERTEX
  8
PNOA-H_AMS_1956-57_33k_ES_PAN_21mic_H50_0450_fot_50A-08786_E_tif
  70
32
  10
232584.138
  20
4562158.024
  30
763.808
  0
VERTEX
  8
PNOA-H_AMS_1956-57_33k_ES_PAN_21mic_H50_0450_fot_50A-08786_E_tif
  70
32
  10
230342.958
  20
4562240.719
  30
781.343
  0
VERTEX
  8
PNOA-H_AMS_1956-57_33k_ES_PAN_21mic_H50_0450_fot_50A-08786_E_tif
  70
32
  10
230367.000
  20
4562969.293
  30
776
  0
VERTEX
  8
PNOA-H_AMS_1956-57_33k_ES_PAN_21mic_H50_0450_fot_50A-08786_E_tif
  70
32
  10
230368.000
  20
4562970.293
  30
776
  0
VERTEX
  8
PNOA-H_AMS_1956-57_33k_ES_PAN_21mic_H50_0450_fot_50A-08786_E_tif
  70
32
  10
230805.500
  20
4563057.793
  30
765
  0
VERTEX
  8
PNOA-H_AMS_1956-57_33k_ES_PAN_21mic_H50_0450_fot_50A-08786_E_tif
  70
32
  10
230808.000
  20
4563058.293
  30
765
  0
VERTEX
  8
PNOA-H_AMS_1956-57_33k_ES_PAN_21mic_H50_0450_fot_50A-08786_E_tif
  70
32
  10
232174.500
  20
4563331.293
  30
755
  0
SEQEND
  8
PNOA-H_AMS_1956-57_33k_ES_PAN_21mic_H50_0450_fot_50A-08786_E_tif
  0
TEXT
  8
PNOA-H_AMS_1956-57_33k_ES_PAN_21mic_H50_0450_fot_50A-08786_E_tif
 62
0
  1
PNOA-H_AMS_1956-57_33k_ES_PAN_21mic_H50_0450_fot_50A-08786_E.tif
 40
41.64508
  10
231481.669
  20
4562744.659
  0
POLYLINE
  8
PNOA-H_AMS_1956-57_33k_ES_PAN_21mic_H50_0422_fot_47A-06498_E_tif
  70
9
  66
1
  0
VERTEX
  8
PNOA-H_AMS_1956-57_33k_ES_PAN_21mic_H50_0422_fot_47A-06498_E_tif
  70
32
  10
205406.000
  20
4579507.793
  30
-2885.2
  0
VERTEX
  8
PNOA-H_AMS_1956-57_33k_ES_PAN_21mic_H50_0422_fot_47A-06498_E_tif
  70
32
  10
205407.000
  20
4579508.293
  30
-6205.4
  0
VERTEX
  8
PNOA-H_AMS_1956-57_33k_ES_PAN_21mic_H50_0422_fot_47A-06498_E_tif
  70
32
  10
205411.000
  20
4579507.793
  30
-8861.56
  0
VERTEX
  8
PNOA-H_AMS_1956-57_33k_ES_PAN_21mic_H50_0422_fot_47A-06498_E_tif
  70
32
  10
205410.500
  20
4579502.793
  30
102.98
  0
VERTEX
  8
PNOA-H_AMS_1956-57_33k_ES_PAN_21mic_H50_0422_fot_47A-06498_E_tif
  70
32
  10
205406.500
  20
4579502.793
  30
435
  0
VERTEX
  8
PNOA-H_AMS_1956-57_33k_ES_PAN_21mic_H50_0422_fot_47A-06498_E_tif
  70
32
  10
205404.500
  20
4579504.293
  30
435
  0
SEQEND
  8
PNOA-H_AMS_1956-57_33k_ES_PAN_21mic_H50_0422_fot_47A-06498_E_tif
  0
TEXT
  8
PNOA-H_AMS_1956-57_33k_ES_PAN_21mic_H50_0422_fot_47A-06498_E_tif
 62
0
  1
PNOA-H_AMS_1956-57_33k_ES_PAN_21mic_H50_0422_fot_47A-06498_E.tif
 40
41.64508
  10
205407.905
  20
4579505.543
  0
POLYLINE
  8
PNOA-H_AMS_1956-57_33k_ES_PAN_21mic_H50_0422_fot_47A-06498_E_tif
  70
9
  66
1
  0
VERTEX
  8
PNOA-H_AMS_1956-57_33k_ES_PAN_21mic_H50_0422_fot_47A-06498_E_tif
  70
32
  10
205460.000
  20
4579502.793
  30
-2885.2
  0
VERTEX
  8
PNOA-H_AMS_1956-57_33k_ES_PAN_21mic_H50_0422_fot_47A-06498_E_tif
  70
32
  10
205461.000
  20
4579503.293
  30
-6205.4
  0
VERTEX
  8
PNOA-H_AMS_1956-57_33k_ES_PAN_21mic_H50_0422_fot_47A-06498_E_tif
  70
32
  10
205466.000
  20
4579502.793
  30
-8861.56
  0
VERTEX
  8
PNOA-H_AMS_1956-57_33k_ES_PAN_21mic_H50_0422_fot_47A-06498_E_tif
  70
32
  10
205465.500
  20
4579497.793
  30
102.98
  0
VERTEX
  8
PNOA-H_AMS_1956-57_33k_ES_PAN_21mic_H50_0422_fot_47A-06498_E_tif
  70
32
  10
205459.500
  20
4579498.293
  30
435
  0
VERTEX
  8
PNOA-H_AMS_1956-57_33k_ES_PAN_21mic_H50_0422_fot_47A-06498_E_tif
  70
32
  10
205458.500
  20
4579500.793
  30
435
  0
SEQEND
  8
PNOA-H_AMS_1956-57_33k_ES_PAN_21mic_H50_0422_fot_47A-06498_E_tif
  0
TEXT
  8
PNOA-H_AMS_1956-57_33k_ES_PAN_21mic_H50_0422_fot_47A-06498_E_tif
 62
0
  1
PNOA-H_AMS_1956-57_33k_ES_PAN_21mic_H50_0422_fot_47A-06498_E.tif
 40
41.64508
  10
205462.188
  20
4579500.543
  0
POLYLINE
  8
PNOA-H_AMS_1956-57_33k_ES_PAN_21mic_H50_0422_fot_47A-06498_E_tif
  70
9
  66
1
  0
VERTEX
  8
PNOA-H_AMS_1956-57_33k_ES_PAN_21mic_H50_0422_fot_47A-06498_E_tif
  70
32
  10
205514.500
  20
4579497.793
  30
-2885.2
  0
VERTEX
  8
PNOA-H_AMS_1956-57_33k_ES_PAN_21mic_H50_0422_fot_47A-06498_E_tif
  70
32
  10
205515.500
  20
4579498.293
  30
-6205.4
  0
VERTEX
  8
PNOA-H_AMS_1956-57_33k_ES_PAN_21mic_H50_0422_fot_47A-06498_E_tif
  70
32
  10
205521.000
  20
4579497.793
  30
-8861.56
  0
VERTEX
  8
PNOA-H_AMS_1956-57_33k_ES_PAN_21mic_H50_0422_fot_47A-06498_E_tif
  70
32
  10
205520.500
  20
4579492.793
  30
102.98
  0
VERTEX
  8
PNOA-H_AMS_1956-57_33k_ES_PAN_21mic_H50_0422_fot_47A-06498_E_tif
  70
32
  10
205514.000
  20
4579493.293
  30
435
  0
VERTEX
  8
PNOA-H_AMS_1956-57_33k_ES_PAN_21mic_H50_0422_fot_47A-06498_E_tif
  70
32
  10
205513.000
  20
4579495.793
  30
435
  0
SEQEND
  8
PNOA-H_AMS_1956-57_33k_ES_PAN_21mic_H50_0422_fot_47A-06498_E_tif
  0
TEXT
  8
PNOA-H_AMS_1956-57_33k_ES_PAN_21mic_H50_0422_fot_47A-06498_E_tif
 62
0
  1
PNOA-H_AMS_1956-57_33k_ES_PAN_21mic_H50_0422_fot_47A-06498_E.tif
 40
41.64508
  10
205516.938
  20
4579495.543
  0
POLYLINE
  8
PNOA-H_AMS_1956-57_33k_ES_PAN_21mic_H50_0422_fot_47A-06498_E_tif
  70
9
  66
1
  0
VERTEX
  8
PNOA-H_AMS_1956-57_33k_ES_PAN_21mic_H50_0422_fot_47A-06498_E_tif
  70
32
  10
205569.000
  20
4579492.793
  30
-2885.2
  0
VERTEX
  8
PNOA-H_AMS_1956-57_33k_ES_PAN_21mic_H50_0422_fot_47A-06498_E_tif
  70
32
  10
205570.000
  20
4579493.293
  30
-6205.4
  0
VERTEX
  8
PNOA-H_AMS_1956-57_33k_ES_PAN_21mic_H50_0422_fot_47A-06498_E_tif
  70
32
  10
205575.500
  20
4579493.293
  30
-8861.56
  0
VERTEX
  8
PNOA-H_AMS_1956-57_33k_ES_PAN_21mic_H50_0422_fot_47A-06498_E_tif
  70
32
  10
205575.500
  20
4579487.793
  30
102.08
  0
VERTEX
  8
PNOA-H_AMS_1956-57_33k_ES_PAN_21mic_H50_0422_fot_47A-06498_E_tif
  70
32
  10
205568.500
  20
4579488.293
  30
434.2
  0
VERTEX
  8
PNOA-H_AMS_1956-57_33k_ES_PAN_21mic_H50_0422_fot_47A-06498_E_tif
  70
32
  10
205567.500
  20
4579490.793
  30
434.7
  0
SEQEND
  8
PNOA-H_AMS_1956-57_33k_ES_PAN_21mic_H50_0422_fot_47A-06498_E_tif
  0
TEXT
  8
PNOA-H_AMS_1956-57_33k_ES_PAN_21mic_H50_0422_fot_47A-06498_E_tif
 62
0
  1
PNOA-H_AMS_1956-57_33k_ES_PAN_21mic_H50_0422_fot_47A-06498_E.tif
 40
41.64508
  10
205571.550
  20
4579490.543
  0
POLYLINE
  8
PNOA-H_AMS_1956-57_33k_ES_PAN_21mic_H50_0422_fot_47A-06498_E_tif
  70
9
  66
1
  0
VERTEX
  8
PNOA-H_AMS_1956-57_33k_ES_PAN_21mic_H50_0422_fot_47A-06498_E_tif
  70
32
  10
205631.500
  20
4579487.793
  30
-2886.1
  0
VERTEX
  8
PNOA-H_AMS_1956-57_33k_ES_PAN_21mic_H50_0422_fot_47A-06498_E_tif
  70
32
  10
205632.500
  20
4579488.293
  30
-6206.2
  0
VERTEX
  8
PNOA-H_AMS_1956-57_33k_ES_PAN_21mic_H50_0422_fot_47A-06498_E_tif
  70
32
  10
205636.000
  20
4579487.793
  30
-8862.28
  0
VERTEX
  8
PNOA-H_AMS_1956-57_33k_ES_PAN_21mic_H50_0422_fot_47A-06498_E_tif
  70
32
  10
205635.500
  20
4579482.793
  30
101.99
  0
VERTEX
  8
PNOA-H_AMS_1956-57_33k_ES_PAN_21mic_H50_0422_fot_47A-06498_E_tif
  70
32
  10
205632.000
  20
4579482.793
  30
434
  0
VERTEX
  8
PNOA-H_AMS_1956-57_33k_ES_PAN_21mic_H50_0422_fot_47A-06498_E_tif
  70
32
  10
205630.000
  20
4579484.293
  30
434
  0
SEQEND
  8
PNOA-H_AMS_1956-57_33k_ES_PAN_21mic_H50_0422_fot_47A-06498_E_tif
  0
TEXT
  8
PNOA-H_AMS_1956-57_33k_ES_PAN_21mic_H50_0422_fot_47A-06498_E_tif
 62
0
  1
PNOA-H_AMS_1956-57_33k_ES_PAN_21mic_H50_0422_fot_47A-06498_E.tif
 40
41.64508
  10
205633.155
  20
4579485.543
  0
POLYLINE
  8
PNOA-H_AMS_1956-57_33k_ES_PAN_21mic_H50_0423_fot_47A-06500_E_tif
  70
9
  66
1
  0
VERTEX
  8
PNOA-H_AMS_1956-57_33k_ES_PAN_21mic_H50_0423_fot_47A-06500_E_tif
  70
32
  10
207434.500
  20
4579329.793
  30
-16170.5
  0
VERTEX
  8
PNOA-H_AMS_1956-57_33k_ES_PAN_21mic_H50_0423_fot_47A-06500_E_tif
  70
32
  10
207439.500
  20
4579324.793
  30
-14510.85
  0
VERTEX
  8
PNOA-H_AMS_1956-57_33k_ES_PAN_21mic_H50_0423_fot_47A-06500_E_tif
  70
32
  10
207490.500
  20
4579324.793
  30
-17830.15
  0
VERTEX
  8
PNOA-H_AMS_1956-57_33k_ES_PAN_21mic_H50_0423_fot_47A-06500_E_tif
  70
32
  10
207494.500
  20
4579319.793
  30
-14510.85
  0
VERTEX
  8
PNOA-H_AMS_1956-57_33k_ES_PAN_21mic_H50_0423_fot_47A-06500_E_tif
  70
32
  10
207550.500
  20
4579319.793
  30
-17830.15
  0
VERTEX
  8
PNOA-H_AMS_1956-57_33k_ES_PAN_21mic_H50_0423_fot_47A-06500_E_tif
  70
32
  10
207554.500
  20
4579314.793
  30
-14511.35
  0
VERTEX
  8
PNOA-H_AMS_1956-57_33k_ES_PAN_21mic_H50_0423_fot_47A-06500_E_tif
  70
32
  10
207615.500
  20
4579314.793
  30
-17830.6
  0
VERTEX
  8
PNOA-H_AMS_1956-57_33k_ES_PAN_21mic_H50_0423_fot_47A-06500_E_tif
  70
32
  10
207619.500
  20
4579309.793
  30
-14511.4
  0
VERTEX
  8
PNOA-H_AMS_1956-57_33k_ES_PAN_21mic_H50_0423_fot_47A-06500_E_tif
  70
32
  10
207670.500
  20
4579309.793
  30
-17830.6
  0
VERTEX
  8
PNOA-H_AMS_1956-57_33k_ES_PAN_21mic_H50_0423_fot_47A-06500_E_tif
  70
32
  10
207674.500
  20
4579304.793
  30
-14511.4
  0
VERTEX
  8
PNOA-H_AMS_1956-57_33k_ES_PAN_21mic_H50_0423_fot_47A-06500_E_tif
  70
32
  10
207730.500
  20
4579304.793
  30
-17831.051
  0
VERTEX
  8
PNOA-H_AMS_1956-57_33k_ES_PAN_21mic_H50_0423_fot_47A-06500_E_tif
  70
32
  10
207734.500
  20
4579299.793
  30
-14511.95
  0
VERTEX
  8
PNOA-H_AMS_1956-57_33k_ES_PAN_21mic_H50_0423_fot_47A-06500_E_tif
  70
32
  10
207745.000
  20
4579299.793
  30
-16171.5
  0
VERTEX
  8
PNOA-H_AMS_1956-57_33k_ES_PAN_21mic_H50_0423_fot_47A-06500_E_tif
  70
32
  10
207746.000
  20
4579298.293
  30
-6214.2
  0
VERTEX
  8
PNOA-H_AMS_1956-57_33k_ES_PAN_21mic_H50_0423_fot_47A-06500_E_tif
  70
32
  10
207734.500
  20
4579298.293
  30
-5550.38
  0
VERTEX
  8
PNOA-H_AMS_1956-57_33k_ES_PAN_21mic_H50_0423_fot_47A-06500_E_tif
  70
32
  10
207732.000
  20
4579299.293
  30
-4886.56
  0
VERTEX
  8
PNOA-H_AMS_1956-57_33k_ES_PAN_21mic_H50_0423_fot_47A-06500_E_tif
  70
32
  10
207730.500
  20
4579303.293
  30
-8869.48
  0
VERTEX
  8
PNOA-H_AMS_1956-57_33k_ES_PAN_21mic_H50_0423_fot_47A-06500_E_tif
  70
32
  10
207674.500
  20
4579303.293
  30
-5549.56
  0
VERTEX
  8
PNOA-H_AMS_1956-57_33k_ES_PAN_21mic_H50_0423_fot_47A-06500_E_tif
  70
32
  10
207672.000
  20
4579304.293
  30
-4885.72
  0
VERTEX
  8
PNOA-H_AMS_1956-57_33k_ES_PAN_21mic_H50_0423_fot_47A-06500_E_tif
  70
32
  10
207670.500
  20
4579308.293
  30
-8868.76
  0
VERTEX
  8
PNOA-H_AMS_1956-57_33k_ES_PAN_21mic_H50_0423_fot_47A-06500_E_tif
  70
32
  10
207619.500
  20
4579308.293
  30
-5549.56
  0
VERTEX
  8
PNOA-H_AMS_1956-57_33k_ES_PAN_21mic_H50_0423_fot_47A-06500_E_tif
  70
32
  10
207617.000
  20
4579309.293
  30
-4885.72
  0
VERTEX
  8
PNOA-H_AMS_1956-57_33k_ES_PAN_21mic_H50_0423_fot_47A-06500_E_tif
  70
32
  10
207615.500
  20
4579313.293
  30
-8868.76
  0
VERTEX
  8
PNOA-H_AMS_1956-57_33k_ES_PAN_21mic_H50_0423_fot_47A-06500_E_tif
  70
32
  10
207554.500
  20
4579313.293
  30
-5549.54
  0
VERTEX
  8
PNOA-H_AMS_1956-57_33k_ES_PAN_21mic_H50_0423_fot_47A-06500_E_tif
  70
32
  10
207552.000
  20
4579314.293
  30
-4885.48
  0
VERTEX
  8
PNOA-H_AMS_1956-57_33k_ES_PAN_21mic_H50_0423_fot_47A-06500_E_tif
  70
32
  10
207550.500
  20
4579318.293
  30
-8868.04
  0
VERTEX
  8
PNOA-H_AMS_1956-57_33k_ES_PAN_21mic_H50_0423_fot_47A-06500_E_tif
  70
32
  10
207494.500
  20
4579318.293
  30
-5548.74
  0
VERTEX
  8
PNOA-H_AMS_1956-57_33k_ES_PAN_21mic_H50_0423_fot_47A-06500_E_tif
  70
32
  10
207492.000
  20
4579319.293
  30
-4884.88
  0
VERTEX
  8
PNOA-H_AMS_1956-57_33k_ES_PAN_21mic_H50_0423_fot_47A-06500_E_tif
  70
32
  10
207490.500
  20
4579323.293
  30
-8868.04
  0
VERTEX
  8
PNOA-H_AMS_1956-57_33k_ES_PAN_21mic_H50_0423_fot_47A-06500_E_tif
  70
32
  10
207439.500
  20
4579323.293
  30
-5548.74
  0
VERTEX
  8
PNOA-H_AMS_1956-57_33k_ES_PAN_21mic_H50_0423_fot_47A-06500_E_tif
  70
32
  10
207437.000
  20
4579324.293
  30
-4884.88
  0
VERTEX
  8
PNOA-H_AMS_1956-57_33k_ES_PAN_21mic_H50_0423_fot_47A-06500_E_tif
  70
32
  10
207435.500
  20
4579328.293
  30
-8868.04
  0
VERTEX
  8
PNOA-H_AMS_1956-57_33k_ES_PAN_21mic_H50_0423_fot_47A-06500_E_tif
  70
32
  10
207433.000
  20
4579327.793
  30
-2893.3
  0
VERTEX
  8
PNOA-H_AMS_1956-57_33k_ES_PAN_21mic_H50_0423_fot_47A-06500_E_tif
  70
32
  10
207434.000
  20
4579328.793
  30
-9531.9
  0
VERTEX
  8
PNOA-H_AMS_1956-57_33k_ES_PAN_21mic_H50_0423_fot_47A-06500_E_tif
  70
32
  10
207434.500
  20
4579329.793
  30
-16170.5
  0
SEQEND
  8
PNOA-H_AMS_1956-57_33k_ES_PAN_21mic_H50_0423_fot_47A-06500_E_tif
  0
TEXT
  8
PNOA-H_AMS_1956-57_33k_ES_PAN_21mic_H50_0423_fot_47A-06500_E_tif
 62
0
  1
PNOA-H_AMS_1956-57_33k_ES_PAN_21mic_H50_0423_fot_47A-06500_E.tif
 40
41.64508
  10
207584.362
  20
4579314.043
  0
POLYLINE
  8
PNOA-H_AMS_1956-57_33k_ES_PAN_21mic_H50_0423_fot_47A-06500_E_tif
  70
9
  66
1
  0
VERTEX
  8
PNOA-H_AMS_1956-57_33k_ES_PAN_21mic_H50_0423_fot_47A-06500_E_tif
  70
32
  10
207890.500
  20
4579289.793
  30
-16172
  0
VERTEX
  8
PNOA-H_AMS_1956-57_33k_ES_PAN_21mic_H50_0423_fot_47A-06500_E_tif
  70
32
  10
207915.500
  20
4579289.793
  30
-17831.5
  0
VERTEX
  8
PNOA-H_AMS_1956-57_33k_ES_PAN_21mic_H50_0423_fot_47A-06500_E_tif
  70
32
  10
207919.500
  20
4579284.793
  30
-14512.5
  0
VERTEX
  8
PNOA-H_AMS_1956-57_33k_ES_PAN_21mic_H50_0423_fot_47A-06500_E_tif
  70
32
  10
207975.500
  20
4579284.793
  30
-17831.949
  0
VERTEX
  8
PNOA-H_AMS_1956-57_33k_ES_PAN_21mic_H50_0423_fot_47A-06500_E_tif
  70
32
  10
207979.500
  20
4579279.793
  30
-14513.05
  0
VERTEX
  8
PNOA-H_AMS_1956-57_33k_ES_PAN_21mic_H50_0423_fot_47A-06500_E_tif
  70
32
  10
207995.500
  20
4579279.793
  30
-14489.95
  0
VERTEX
  8
PNOA-H_AMS_1956-57_33k_ES_PAN_21mic_H50_0423_fot_47A-06500_E_tif
  70
32
  10
207997.000
  20
4579281.793
  30
-17407.34
  0
VERTEX
  8
PNOA-H_AMS_1956-57_33k_ES_PAN_21mic_H50_0423_fot_47A-06500_E_tif
  70
32
  10
207998.500
  20
4579281.793
  30
-8376.77
  0
VERTEX
  8
PNOA-H_AMS_1956-57_33k_ES_PAN_21mic_H50_0423_fot_47A-06500_E_tif
  70
32
  10
207998.500
  20
4579278.293
  30
-1408.06
  0
VERTEX
  8
PNOA-H_AMS_1956-57_33k_ES_PAN_21mic_H50_0423_fot_47A-06500_E_tif
  70
32
  10
207997.500
  20
4579277.293
  30
537
  0
VERTEX
  8
PNOA-H_AMS_1956-57_33k_ES_PAN_21mic_H50_0423_fot_47A-06500_E_tif
  70
32
  10
207995.000
  20
4579277.293
  30
422
  0
VERTEX
  8
PNOA-H_AMS_1956-57_33k_ES_PAN_21mic_H50_0423_fot_47A-06500_E_tif
  70
32
  10
207995.000
  20
4579278.293
  30
-6215.8
  0
VERTEX
  8
PNOA-H_AMS_1956-57_33k_ES_PAN_21mic_H50_0423_fot_47A-06500_E_tif
  70
32
  10
207979.000
  20
4579278.293
  30
-4888.24
  0
VERTEX
  8
PNOA-H_AMS_1956-57_33k_ES_PAN_21mic_H50_0423_fot_47A-06500_E_tif
  70
32
  10
207976.500
  20
4579279.793
  30
-4556.35
  0
VERTEX
  8
PNOA-H_AMS_1956-57_33k_ES_PAN_21mic_H50_0423_fot_47A-06500_E_tif
  70
32
  10
207975.500
  20
4579283.293
  30
-8870.92
  0
VERTEX
  8
PNOA-H_AMS_1956-57_33k_ES_PAN_21mic_H50_0423_fot_47A-06500_E_tif
  70
32
  10
207919.000
  20
4579283.293
  30
-4887.4
  0
VERTEX
  8
PNOA-H_AMS_1956-57_33k_ES_PAN_21mic_H50_0423_fot_47A-06500_E_tif
  70
32
  10
207916.500
  20
4579284.793
  30
-4555.5
  0
VERTEX
  8
PNOA-H_AMS_1956-57_33k_ES_PAN_21mic_H50_0423_fot_47A-06500_E_tif
  70
32
  10
207915.500
  20
4579288.293
  30
-8870.2
  0
VERTEX
  8
PNOA-H_AMS_1956-57_33k_ES_PAN_21mic_H50_0423_fot_47A-06500_E_tif
  70
32
  10
207890.000
  20
4579288.793
  30
-9534
  0
VERTEX
  8
PNOA-H_AMS_1956-57_33k_ES_PAN_21mic_H50_0423_fot_47A-06500_E_tif
  70
32
  10
207890.500
  20
4579289.793
  30
-16172
  0
SEQEND
  8
PNOA-H_AMS_1956-57_33k_ES_PAN_21mic_H50_0423_fot_47A-06500_E_tif
  0
TEXT
  8
PNOA-H_AMS_1956-57_33k_ES_PAN_21mic_H50_0423_fot_47A-06500_E_tif
 62
0
  1
PNOA-H_AMS_1956-57_33k_ES_PAN_21mic_H50_0423_fot_47A-06500_E.tif
 40
41.64508
  10
207947.542
  20
4579283.543
  0
POLYLINE
  8
PNOA-H_AMS_1956-57_33k_ES_PAN_21mic_H50_0423_fot_47A-06499_E_tif
  70
9
  66
1
  0
VERTEX
  8
PNOA-H_AMS_1956-57_33k_ES_PAN_21mic_H50_0423_fot_47A-06499_E_tif
  70
32
  10
205406.000
  20
4579507.793
  30
-2885.2
  0
VERTEX
  8
PNOA-H_AMS_1956-57_33k_ES_PAN_21mic_H50_0423_fot_47A-06499_E_tif
  70
32
  10
205410.500
  20
4579508.293
  30
-8861.56
  0
VERTEX
  8
PNOA-H_AMS_1956-57_33k_ES_PAN_21mic_H50_0423_fot_47A-06499_E_tif
  70
32
  10
205411.000
  20
4579504.293
  30
-2221.16
  0
VERTEX
  8
PNOA-H_AMS_1956-57_33k_ES_PAN_21mic_H50_0423_fot_47A-06499_E_tif
  70
32
  10
205410.500
  20
4579502.793
  30
102.98
  0
VERTEX
  8
PNOA-H_AMS_1956-57_33k_ES_PAN_21mic_H50_0423_fot_47A-06499_E_tif
  70
32
  10
205406.500
  20
4579502.793
  30
435
  0
VERTEX
  8
PNOA-H_AMS_1956-57_33k_ES_PAN_21mic_H50_0423_fot_47A-06499_E_tif
  70
32
  10
205404.500
  20
4579504.293
  30
435
  0
SEQEND
  8
PNOA-H_AMS_1956-57_33k_ES_PAN_21mic_H50_0423_fot_47A-06499_E_tif
  0
TEXT
  8
PNOA-H_AMS_1956-57_33k_ES_PAN_21mic_H50_0423_fot_47A-06499_E_tif
 62
0
  1
PNOA-H_AMS_1956-57_33k_ES_PAN_21mic_H50_0423_fot_47A-06499_E.tif
 40
41.64508
  10
205407.940
  20
4579505.543
  0
POLYLINE
  8
PNOA-H_AMS_1956-57_33k_ES_PAN_21mic_H50_0423_fot_47A-06499_E_tif
  70
9
  66
1
  0
VERTEX
  8
PNOA-H_AMS_1956-57_33k_ES_PAN_21mic_H50_0423_fot_47A-06499_E_tif
  70
32
  10
205460.000
  20
4579502.793
  30
-2885.2
  0
VERTEX
  8
PNOA-H_AMS_1956-57_33k_ES_PAN_21mic_H50_0423_fot_47A-06499_E_tif
  70
32
  10
205465.500
  20
4579503.293
  30
-8861.56
  0
VERTEX
  8
PNOA-H_AMS_1956-57_33k_ES_PAN_21mic_H50_0423_fot_47A-06499_E_tif
  70
32
  10
205466.000
  20
4579499.293
  30
-2221.16
  0
VERTEX
  8
PNOA-H_AMS_1956-57_33k_ES_PAN_21mic_H50_0423_fot_47A-06499_E_tif
  70
32
  10
205465.500
  20
4579497.793
  30
102.98
  0
VERTEX
  8
PNOA-H_AMS_1956-57_33k_ES_PAN_21mic_H50_0423_fot_47A-06499_E_tif
  70
32
  10
205460.500
  20
4579497.793
  30
435
  0
VERTEX
  8
PNOA-H_AMS_1956-57_33k_ES_PAN_21mic_H50_0423_fot_47A-06499_E_tif
  70
32
  10
205458.500
  20
4579499.293
  30
435
  0
SEQEND
  8
PNOA-H_AMS_1956-57_33k_ES_PAN_21mic_H50_0423_fot_47A-06499_E_tif
  0
TEXT
  8
PNOA-H_AMS_1956-57_33k_ES_PAN_21mic_H50_0423_fot_47A-06499_E_tif
 62
0
  1
PNOA-H_AMS_1956-57_33k_ES_PAN_21mic_H50_0423_fot_47A-06499_E.tif
 40
41.64508
  10
205462.440
  20
4579500.543
  0
POLYLINE
  8
PNOA-H_AMS_1956-57_33k_ES_PAN_21mic_H50_0423_fot_47A-06499_E_tif
  70
9
  66
1
  0
VERTEX
  8
PNOA-H_AMS_1956-57_33k_ES_PAN_21mic_H50_0423_fot_47A-06499_E_tif
  70
32
  10
205514.500
  20
4579497.793
  30
-2885.2
  0
VERTEX
  8
PNOA-H_AMS_1956-57_33k_ES_PAN_21mic_H50_0423_fot_47A-06499_E_tif
  70
32
  10
205520.500
  20
4579498.293
  30
-8861.56
  0
VERTEX
  8
PNOA-H_AMS_1956-57_33k_ES_PAN_21mic_H50_0423_fot_47A-06499_E_tif
  70
32
  10
205521.000
  20
4579494.293
  30
-2221.16
  0
VERTEX
  8
PNOA-H_AMS_1956-57_33k_ES_PAN_21mic_H50_0423_fot_47A-06499_E_tif
  70
32
  10
205520.500
  20
4579492.793
  30
102.98
  0
VERTEX
  8
PNOA-H_AMS_1956-57_33k_ES_PAN_21mic_H50_0423_fot_47A-06499_E_tif
  70
32
  10
205515.000
  20
4579492.793
  30
435
  0
VERTEX
  8
PNOA-H_AMS_1956-57_33k_ES_PAN_21mic_H50_0423_fot_47A-06499_E_tif
  70
32
  10
205513.000
  20
4579494.293
  30
435
  0
SEQEND
  8
PNOA-H_AMS_1956-57_33k_ES_PAN_21mic_H50_0423_fot_47A-06499_E_tif
  0
TEXT
  8
PNOA-H_AMS_1956-57_33k_ES_PAN_21mic_H50_0423_fot_47A-06499_E_tif
 62
0
  1
PNOA-H_AMS_1956-57_33k_ES_PAN_21mic_H50_0423_fot_47A-06499_E.tif
 40
41.64508
  10
205517.190
  20
4579495.543
  0
POLYLINE
  8
PNOA-H_AMS_1956-57_33k_ES_PAN_21mic_H50_0423_fot_47A-06499_E_tif
  70
9
  66
1
  0
VERTEX
  8
PNOA-H_AMS_1956-57_33k_ES_PAN_21mic_H50_0423_fot_47A-06499_E_tif
  70
32
  10
205568.000
  20
4579491.793
  30
434.9
  0
VERTEX
  8
PNOA-H_AMS_1956-57_33k_ES_PAN_21mic_H50_0423_fot_47A-06499_E_tif
  70
32
  10
205570.000
  20
4579493.293
  30
-6205.4
  0
VERTEX
  8
PNOA-H_AMS_1956-57_33k_ES_PAN_21mic_H50_0423_fot_47A-06499_E_tif
  70
32
  10
205575.500
  20
4579493.293
  30
-8861.56
  0
VERTEX
  8
PNOA-H_AMS_1956-57_33k_ES_PAN_21mic_H50_0423_fot_47A-06499_E_tif
  70
32
  10
205576.000
  20
4579489.293
  30
-2221.76
  0
VERTEX
  8
PNOA-H_AMS_1956-57_33k_ES_PAN_21mic_H50_0423_fot_47A-06499_E_tif
  70
32
  10
205575.500
  20
4579487.793
  30
102.08
  0
VERTEX
  8
PNOA-H_AMS_1956-57_33k_ES_PAN_21mic_H50_0423_fot_47A-06499_E_tif
  70
32
  10
205569.500
  20
4579487.793
  30
434.1
  0
VERTEX
  8
PNOA-H_AMS_1956-57_33k_ES_PAN_21mic_H50_0423_fot_47A-06499_E_tif
  70
32
  10
205567.500
  20
4579489.293
  30
434.4
  0
SEQEND
  8
PNOA-H_AMS_1956-57_33k_ES_PAN_21mic_H50_0423_fot_47A-06499_E_tif
  0
TEXT
  8
PNOA-H_AMS_1956-57_33k_ES_PAN_21mic_H50_0423_fot_47A-06499_E_tif
 62
0
  1
PNOA-H_AMS_1956-57_33k_ES_PAN_21mic_H50_0423_fot_47A-06499_E.tif
 40
41.64508
  10
205571.797
  20
4579490.543
  0
POLYLINE
  8
PNOA-H_AMS_1956-57_33k_ES_PAN_21mic_H50_0423_fot_47A-06499_E_tif
  70
9
  66
1
  0
VERTEX
  8
PNOA-H_AMS_1956-57_33k_ES_PAN_21mic_H50_0423_fot_47A-06499_E_tif
  70
32
  10
205631.500
  20
4579487.793
  30
-2886.1
  0
VERTEX
  8
PNOA-H_AMS_1956-57_33k_ES_PAN_21mic_H50_0423_fot_47A-06499_E_tif
  70
32
  10
205635.500
  20
4579488.293
  30
-8862.28
  0
VERTEX
  8
PNOA-H_AMS_1956-57_33k_ES_PAN_21mic_H50_0423_fot_47A-06499_E_tif
  70
32
  10
205636.000
  20
4579484.293
  30
-2222.08
  0
VERTEX
  8
PNOA-H_AMS_1956-57_33k_ES_PAN_21mic_H50_0423_fot_47A-06499_E_tif
  70
32
  10
205635.500
  20
4579482.793
  30
101.99
  0
VERTEX
  8
PNOA-H_AMS_1956-57_33k_ES_PAN_21mic_H50_0423_fot_47A-06499_E_tif
  70
32
  10
205632.000
  20
4579482.793
  30
434
  0
VERTEX
  8
PNOA-H_AMS_1956-57_33k_ES_PAN_21mic_H50_0423_fot_47A-06499_E_tif
  70
32
  10
205630.000
  20
4579484.293
  30
434
  0
SEQEND
  8
PNOA-H_AMS_1956-57_33k_ES_PAN_21mic_H50_0423_fot_47A-06499_E_tif
  0
TEXT
  8
PNOA-H_AMS_1956-57_33k_ES_PAN_21mic_H50_0423_fot_47A-06499_E_tif
 62
0
  1
PNOA-H_AMS_1956-57_33k_ES_PAN_21mic_H50_0423_fot_47A-06499_E.tif
 40
41.64508
  10
205633.190
  20
4579485.543
  0
POLYLINE
  8
PNOA-H_AMS_1956-57_33k_ES_PAN_21mic_H50_0423_fot_47A-06499_E_tif
  70
9
  66
1
  0
VERTEX
  8
PNOA-H_AMS_1956-57_33k_ES_PAN_21mic_H50_0423_fot_47A-06499_E_tif
  70
32
  10
207889.500
  20
4579288.293
  30
-6215
  0
VERTEX
  8
PNOA-H_AMS_1956-57_33k_ES_PAN_21mic_H50_0423_fot_47A-06499_E_tif
  70
32
  10
207915.500
  20
4579288.293
  30
-8870.2
  0
VERTEX
  8
PNOA-H_AMS_1956-57_33k_ES_PAN_21mic_H50_0423_fot_47A-06499_E_tif
  70
32
  10
207916.500
  20
4579284.793
  30
-4555.5
  0
VERTEX
  8
PNOA-H_AMS_1956-57_33k_ES_PAN_21mic_H50_0423_fot_47A-06499_E_tif
  70
32
  10
207919.000
  20
4579283.293
  30
-4887.4
  0
VERTEX
  8
PNOA-H_AMS_1956-57_33k_ES_PAN_21mic_H50_0423_fot_47A-06499_E_tif
  70
32
  10
207975.500
  20
4579283.293
  30
-8870.92
  0
VERTEX
  8
PNOA-H_AMS_1956-57_33k_ES_PAN_21mic_H50_0423_fot_47A-06499_E_tif
  70
32
  10
207976.500
  20
4579279.793
  30
-4556.35
  0
VERTEX
  8
PNOA-H_AMS_1956-57_33k_ES_PAN_21mic_H50_0423_fot_47A-06499_E_tif
  70
32
  10
207979.000
  20
4579278.293
  30
-4888.24
  0
VERTEX
  8
PNOA-H_AMS_1956-57_33k_ES_PAN_21mic_H50_0423_fot_47A-06499_E_tif
  70
32
  10
207995.000
  20
4579278.293
  30
-6215.8
  0
VERTEX
  8
PNOA-H_AMS_1956-57_33k_ES_PAN_21mic_H50_0423_fot_47A-06499_E_tif
  70
32
  10
207997.500
  20
4579199.793
  30
534.75
  0
VERTEX
  8
PNOA-H_AMS_1956-57_33k_ES_PAN_21mic_H50_0423_fot_47A-06499_E_tif
  70
32
  10
207998.500
  20
4579093.793
  30
580.11
  0
VERTEX
  8
PNOA-H_AMS_1956-57_33k_ES_PAN_21mic_H50_0423_fot_47A-06499_E_tif
  70
32
  10
208002.000
  20
4579089.793
  30
651
  0
VERTEX
  8
PNOA-H_AMS_1956-57_33k_ES_PAN_21mic_H50_0423_fot_47A-06499_E_tif
  70
32
  10
208002.000
  20
4578983.793
  30
634.48
  0
VERTEX
  8
PNOA-H_AMS_1956-57_33k_ES_PAN_21mic_H50_0423_fot_47A-06499_E_tif
  70
32
  10
207998.000
  20
4578984.293
  30
544.88
  0
VERTEX
  8
PNOA-H_AMS_1956-57_33k_ES_PAN_21mic_H50_0423_fot_47A-06499_E_tif
  70
32
  10
207995.500
  20
4578987.793
  30
432.61
  0
VERTEX
  8
PNOA-H_AMS_1956-57_33k_ES_PAN_21mic_H50_0423_fot_47A-06499_E_tif
  70
32
  10
207995.000
  20
4578995.293
  30
410
  0
VERTEX
  8
PNOA-H_AMS_1956-57_33k_ES_PAN_21mic_H50_0423_fot_47A-06499_E_tif
  70
32
  10
207990.500
  20
4579160.793
  30
417
  0
VERTEX
  8
PNOA-H_AMS_1956-57_33k_ES_PAN_21mic_H50_0423_fot_47A-06499_E_tif
  70
32
  10
207946.000
  20
4579162.293
  30
417
  0
VERTEX
  8
PNOA-H_AMS_1956-57_33k_ES_PAN_21mic_H50_0423_fot_47A-06499_E_tif
  70
32
  10
207823.000
  20
4579169.293
  30
419
  0
VERTEX
  8
PNOA-H_AMS_1956-57_33k_ES_PAN_21mic_H50_0423_fot_47A-06499_E_tif
  70
32
  10
207823.000
  20
4579185.793
  30
419.7
  0
VERTEX
  8
PNOA-H_AMS_1956-57_33k_ES_PAN_21mic_H50_0423_fot_47A-06499_E_tif
  70
32
  10
207819.000
  20
4579188.793
  30
420
  0
VERTEX
  8
PNOA-H_AMS_1956-57_33k_ES_PAN_21mic_H50_0423_fot_47A-06499_E_tif
  70
32
  10
207818.000
  20
4579190.793
  30
420
  0
VERTEX
  8
PNOA-H_AMS_1956-57_33k_ES_PAN_21mic_H50_0423_fot_47A-06499_E_tif
  70
32
  10
207818.000
  20
4579200.793
  30
420
  0
VERTEX
  8
PNOA-H_AMS_1956-57_33k_ES_PAN_21mic_H50_0423_fot_47A-06499_E_tif
  70
32
  10
207813.000
  20
4579205.793
  30
420
  0
VERTEX
  8
PNOA-H_AMS_1956-57_33k_ES_PAN_21mic_H50_0423_fot_47A-06499_E_tif
  70
32
  10
207813.000
  20
4579228.793
  30
421
  0
VERTEX
  8
PNOA-H_AMS_1956-57_33k_ES_PAN_21mic_H50_0423_fot_47A-06499_E_tif
  70
32
  10
207814.000
  20
4579230.793
  30
421
  0
VERTEX
  8
PNOA-H_AMS_1956-57_33k_ES_PAN_21mic_H50_0423_fot_47A-06499_E_tif
  70
32
  10
207826.500
  20
4579243.293
  30
422
  0
VERTEX
  8
PNOA-H_AMS_1956-57_33k_ES_PAN_21mic_H50_0423_fot_47A-06499_E_tif
  70
32
  10
207833.500
  20
4579244.293
  30
422
  0
VERTEX
  8
PNOA-H_AMS_1956-57_33k_ES_PAN_21mic_H50_0423_fot_47A-06499_E_tif
  70
32
  10
207851.500
  20
4579263.293
  30
422
  0
VERTEX
  8
PNOA-H_AMS_1956-57_33k_ES_PAN_21mic_H50_0423_fot_47A-06499_E_tif
  70
32
  10
207858.500
  20
4579264.293
  30
422
  0
VERTEX
  8
PNOA-H_AMS_1956-57_33k_ES_PAN_21mic_H50_0423_fot_47A-06499_E_tif
  70
32
  10
207872.500
  20
4579278.793
  30
423
  0
VERTEX
  8
PNOA-H_AMS_1956-57_33k_ES_PAN_21mic_H50_0423_fot_47A-06499_E_tif
  70
32
  10
207878.500
  20
4579279.293
  30
423
  0
VERTEX
  8
PNOA-H_AMS_1956-57_33k_ES_PAN_21mic_H50_0423_fot_47A-06499_E_tif
  70
32
  10
207882.500
  20
4579283.793
  30
423
  0
VERTEX
  8
PNOA-H_AMS_1956-57_33k_ES_PAN_21mic_H50_0423_fot_47A-06499_E_tif
  70
32
  10
207888.000
  20
4579284.293
  30
423
  0
VERTEX
  8
PNOA-H_AMS_1956-57_33k_ES_PAN_21mic_H50_0423_fot_47A-06499_E_tif
  70
32
  10
207889.500
  20
4579286.293
  30
423
  0
VERTEX
  8
PNOA-H_AMS_1956-57_33k_ES_PAN_21mic_H50_0423_fot_47A-06499_E_tif
  70
32
  10
207889.500
  20
4579288.293
  30
-6215
  0
SEQEND
  8
PNOA-H_AMS_1956-57_33k_ES_PAN_21mic_H50_0423_fot_47A-06499_E_tif
  0
TEXT
  8
PNOA-H_AMS_1956-57_33k_ES_PAN_21mic_H50_0423_fot_47A-06499_E_tif
 62
0
  1
PNOA-H_AMS_1956-57_33k_ES_PAN_21mic_H50_0423_fot_47A-06499_E.tif
 40
41.64508
  10
207907.500
  20
4579226.389
  0
POLYLINE
  8
PNOA-H_AMS_1956-57_33k_ES_PAN_21mic_H50_0423_fot_46A-10301_E_tif
  70
9
  66
1
  0
VERTEX
  8
PNOA-H_AMS_1956-57_33k_ES_PAN_21mic_H50_0423_fot_46A-10301_E_tif
  70
32
  10
207434.000
  20
4579328.293
  30
-6212.6
  0
VERTEX
  8
PNOA-H_AMS_1956-57_33k_ES_PAN_21mic_H50_0423_fot_46A-10301_E_tif
  70
32
  10
207435.500
  20
4579328.293
  30
-8868.04
  0
VERTEX
  8
PNOA-H_AMS_1956-57_33k_ES_PAN_21mic_H50_0423_fot_46A-10301_E_tif
  70
32
  10
207437.000
  20
4579324.293
  30
-4884.88
  0
VERTEX
  8
PNOA-H_AMS_1956-57_33k_ES_PAN_21mic_H50_0423_fot_46A-10301_E_tif
  70
32
  10
207439.500
  20
4579323.293
  30
-5548.74
  0
VERTEX
  8
PNOA-H_AMS_1956-57_33k_ES_PAN_21mic_H50_0423_fot_46A-10301_E_tif
  70
32
  10
207490.500
  20
4579323.293
  30
-8868.04
  0
VERTEX
  8
PNOA-H_AMS_1956-57_33k_ES_PAN_21mic_H50_0423_fot_46A-10301_E_tif
  70
32
  10
207492.000
  20
4579319.293
  30
-4884.88
  0
VERTEX
  8
PNOA-H_AMS_1956-57_33k_ES_PAN_21mic_H50_0423_fot_46A-10301_E_tif
  70
32
  10
207494.500
  20
4579318.293
  30
-5548.74
  0
VERTEX
  8
PNOA-H_AMS_1956-57_33k_ES_PAN_21mic_H50_0423_fot_46A-10301_E_tif
  70
32
  10
207550.500
  20
4579318.293
  30
-8868.04
  0
VERTEX
  8
PNOA-H_AMS_1956-57_33k_ES_PAN_21mic_H50_0423_fot_46A-10301_E_tif
  70
32
  10
207552.000
  20
4579314.293
  30
-4885.48
  0
VERTEX
  8
PNOA-H_AMS_1956-57_33k_ES_PAN_21mic_H50_0423_fot_46A-10301_E_tif
  70
32
  10
207554.500
  20
4579313.293
  30
-5549.54
  0
VERTEX
  8
PNOA-H_AMS_1956-57_33k_ES_PAN_21mic_H50_0423_fot_46A-10301_E_tif
  70
32
  10
207615.500
  20
4579313.293
  30
-8868.76
  0
VERTEX
  8
PNOA-H_AMS_1956-57_33k_ES_PAN_21mic_H50_0423_fot_46A-10301_E_tif
  70
32
  10
207617.000
  20
4579309.293
  30
-4885.72
  0
VERTEX
  8
PNOA-H_AMS_1956-57_33k_ES_PAN_21mic_H50_0423_fot_46A-10301_E_tif
  70
32
  10
207619.500
  20
4579308.293
  30
-5549.56
  0
VERTEX
  8
PNOA-H_AMS_1956-57_33k_ES_PAN_21mic_H50_0423_fot_46A-10301_E_tif
  70
32
  10
207670.500
  20
4579308.293
  30
-8868.76
  0
VERTEX
  8
PNOA-H_AMS_1956-57_33k_ES_PAN_21mic_H50_0423_fot_46A-10301_E_tif
  70
32
  10
207672.000
  20
4579304.293
  30
-4885.72
  0
VERTEX
  8
PNOA-H_AMS_1956-57_33k_ES_PAN_21mic_H50_0423_fot_46A-10301_E_tif
  70
32
  10
207674.500
  20
4579303.293
  30
-5549.56
  0
VERTEX
  8
PNOA-H_AMS_1956-57_33k_ES_PAN_21mic_H50_0423_fot_46A-10301_E_tif
  70
32
  10
207730.500
  20
4579303.293
  30
-8869.48
  0
VERTEX
  8
PNOA-H_AMS_1956-57_33k_ES_PAN_21mic_H50_0423_fot_46A-10301_E_tif
  70
32
  10
207732.000
  20
4579299.293
  30
-4886.56
  0
VERTEX
  8
PNOA-H_AMS_1956-57_33k_ES_PAN_21mic_H50_0423_fot_46A-10301_E_tif
  70
32
  10
207734.500
  20
4579298.293
  30
-5550.38
  0
VERTEX
  8
PNOA-H_AMS_1956-57_33k_ES_PAN_21mic_H50_0423_fot_46A-10301_E_tif
  70
32
  10
207746.000
  20
4579298.293
  30
-6214.2
  0
VERTEX
  8
PNOA-H_AMS_1956-57_33k_ES_PAN_21mic_H50_0423_fot_46A-10301_E_tif
  70
32
  10
207745.000
  20
4579299.793
  30
-16171.5
  0
VERTEX
  8
PNOA-H_AMS_1956-57_33k_ES_PAN_21mic_H50_0423_fot_46A-10301_E_tif
  70
32
  10
207790.500
  20
4579299.793
  30
-17831.051
  0
VERTEX
  8
PNOA-H_AMS_1956-57_33k_ES_PAN_21mic_H50_0423_fot_46A-10301_E_tif
  70
32
  10
207794.500
  20
4579294.793
  30
-14511.95
  0
VERTEX
  8
PNOA-H_AMS_1956-57_33k_ES_PAN_21mic_H50_0423_fot_46A-10301_E_tif
  70
32
  10
207850.500
  20
4579294.793
  30
-17831.5
  0
VERTEX
  8
PNOA-H_AMS_1956-57_33k_ES_PAN_21mic_H50_0423_fot_46A-10301_E_tif
  70
32
  10
207854.500
  20
4579289.793
  30
-14512.5
  0
VERTEX
  8
PNOA-H_AMS_1956-57_33k_ES_PAN_21mic_H50_0423_fot_46A-10301_E_tif
  70
32
  10
207890.500
  20
4579289.793
  30
-16172
  0
VERTEX
  8
PNOA-H_AMS_1956-57_33k_ES_PAN_21mic_H50_0423_fot_46A-10301_E_tif
  70
32
  10
207888.000
  20
4579284.293
  30
423
  0
VERTEX
  8
PNOA-H_AMS_1956-57_33k_ES_PAN_21mic_H50_0423_fot_46A-10301_E_tif
  70
32
  10
207882.500
  20
4579283.793
  30
423
  0
VERTEX
  8
PNOA-H_AMS_1956-57_33k_ES_PAN_21mic_H50_0423_fot_46A-10301_E_tif
  70
32
  10
207878.500
  20
4579279.293
  30
423
  0
VERTEX
  8
PNOA-H_AMS_1956-57_33k_ES_PAN_21mic_H50_0423_fot_46A-10301_E_tif
  70
32
  10
207872.500
  20
4579278.793
  30
423
  0
VERTEX
  8
PNOA-H_AMS_1956-57_33k_ES_PAN_21mic_H50_0423_fot_46A-10301_E_tif
  70
32
  10
207858.500
  20
4579264.293
  30
422
  0
VERTEX
  8
PNOA-H_AMS_1956-57_33k_ES_PAN_21mic_H50_0423_fot_46A-10301_E_tif
  70
32
  10
207851.500
  20
4579263.293
  30
422
  0
VERTEX
  8
PNOA-H_AMS_1956-57_33k_ES_PAN_21mic_H50_0423_fot_46A-10301_E_tif
  70
32
  10
207833.500
  20
4579244.293
  30
422
  0
VERTEX
  8
PNOA-H_AMS_1956-57_33k_ES_PAN_21mic_H50_0423_fot_46A-10301_E_tif
  70
32
  10
207826.500
  20
4579243.293
  30
422
  0
VERTEX
  8
PNOA-H_AMS_1956-57_33k_ES_PAN_21mic_H50_0423_fot_46A-10301_E_tif
  70
32
  10
207814.000
  20
4579230.793
  30
421
  0
VERTEX
  8
PNOA-H_AMS_1956-57_33k_ES_PAN_21mic_H50_0423_fot_46A-10301_E_tif
  70
32
  10
207813.000
  20
4579228.793
  30
421
  0
VERTEX
  8
PNOA-H_AMS_1956-57_33k_ES_PAN_21mic_H50_0423_fot_46A-10301_E_tif
  70
32
  10
207813.000
  20
4579205.793
  30
420
  0
VERTEX
  8
PNOA-H_AMS_1956-57_33k_ES_PAN_21mic_H50_0423_fot_46A-10301_E_tif
  70
32
  10
207818.000
  20
4579200.793
  30
420
  0
VERTEX
  8
PNOA-H_AMS_1956-57_33k_ES_PAN_21mic_H50_0423_fot_46A-10301_E_tif
  70
32
  10
207818.000
  20
4579190.793
  30
420
  0
VERTEX
  8
PNOA-H_AMS_1956-57_33k_ES_PAN_21mic_H50_0423_fot_46A-10301_E_tif
  70
32
  10
207823.000
  20
4579185.793
  30
419.7
  0
VERTEX
  8
PNOA-H_AMS_1956-57_33k_ES_PAN_21mic_H50_0423_fot_46A-10301_E_tif
  70
32
  10
207823.000
  20
4579169.293
  30
419
  0
VERTEX
  8
PNOA-H_AMS_1956-57_33k_ES_PAN_21mic_H50_0423_fot_46A-10301_E_tif
  70
32
  10
207783.000
  20
4579171.793
  30
419
  0
VERTEX
  8
PNOA-H_AMS_1956-57_33k_ES_PAN_21mic_H50_0423_fot_46A-10301_E_tif
  70
32
  10
207754.000
  20
4579172.293
  30
419
  0
VERTEX
  8
PNOA-H_AMS_1956-57_33k_ES_PAN_21mic_H50_0423_fot_46A-10301_E_tif
  70
32
  10
207644.000
  20
4579179.293
  30
420
  0
VERTEX
  8
PNOA-H_AMS_1956-57_33k_ES_PAN_21mic_H50_0423_fot_46A-10301_E_tif
  70
32
  10
207626.000
  20
4579179.293
  30
420.4
  0
VERTEX
  8
PNOA-H_AMS_1956-57_33k_ES_PAN_21mic_H50_0423_fot_46A-10301_E_tif
  70
32
  10
207496.000
  20
4579187.793
  30
421
  0
VERTEX
  8
PNOA-H_AMS_1956-57_33k_ES_PAN_21mic_H50_0423_fot_46A-10301_E_tif
  70
32
  10
207423.500
  20
4579191.293
  30
421.8
  0
VERTEX
  8
PNOA-H_AMS_1956-57_33k_ES_PAN_21mic_H50_0423_fot_46A-10301_E_tif
  70
32
  10
207424.000
  20
4579307.793
  30
-8868.76
  0
VERTEX
  8
PNOA-H_AMS_1956-57_33k_ES_PAN_21mic_H50_0423_fot_46A-10301_E_tif
  70
32
  10
207428.500
  20
4579310.293
  30
-5549.14
  0
VERTEX
  8
PNOA-H_AMS_1956-57_33k_ES_PAN_21mic_H50_0423_fot_46A-10301_E_tif
  70
32
  10
207429.000
  20
4579323.293
  30
-6212.6
  0
VERTEX
  8
PNOA-H_AMS_1956-57_33k_ES_PAN_21mic_H50_0423_fot_46A-10301_E_tif
  70
32
  10
207433.000
  20
4579327.793
  30
-2893.3
  0
VERTEX
  8
PNOA-H_AMS_1956-57_33k_ES_PAN_21mic_H50_0423_fot_46A-10301_E_tif
  70
32
  10
207434.000
  20
4579328.293
  30
-6212.6
  0
SEQEND
  8
PNOA-H_AMS_1956-57_33k_ES_PAN_21mic_H50_0423_fot_46A-10301_E_tif
  0
TEXT
  8
PNOA-H_AMS_1956-57_33k_ES_PAN_21mic_H50_0423_fot_46A-10301_E_tif
 62
0
  1
PNOA-H_AMS_1956-57_33k_ES_PAN_21mic_H50_0423_fot_46A-10301_E.tif
 40
41.64508
  10
207630.755
  20
4579248.793
  0
ENDSEC
  0
EOF
