  0
SECTION
  2
HEADER
  9
$ACADVER
  1
AC1009
  9
$LUNITS
  70
2
  9
$LIMMIN
  10
176643.655
  20
4563237.072
  9
$LIMMAX
  10
205365.363
  20
4582931.596
  9
$EXTMIN
  10
176643.655
  20
4563237.072
  9
$EXTMAX
  10
205365.363
  20
4582931.596
  999
Created by Global Mapper
  999
Projection: UTM
  999
Datum: ETRS89
  999
Ground Units: meters
  999
ZONE: 30
  0
ENDSEC
  0
SECTION
  2
TABLES
  0
ENDSEC
  0
SECTION
  2
BLOCKS
  0
ENDSEC
  0
SECTION
  2
ENTITIES
  0
POLYLINE
  8
PNOA-H_AMS_1956-57_33k_ES_PAN_21mic_H50_0422_fot_49A-10177_W_tif
  70
9
  66
1
  0
VERTEX
  8
PNOA-H_AMS_1956-57_33k_ES_PAN_21mic_H50_0422_fot_49A-10177_W_tif
  70
32
  10
186813.500
  20
4566004.793
  30
-16035.5
  0
VERTEX
  8
PNOA-H_AMS_1956-57_33k_ES_PAN_21mic_H50_0422_fot_49A-10177_W_tif
  70
32
  10
187995.500
  20
4566004.793
  30
-14393.95
  0
VERTEX
  8
PNOA-H_AMS_1956-57_33k_ES_PAN_21mic_H50_0422_fot_49A-10177_W_tif
  70
32
  10
187997.500
  20
4566006.793
  30
-14395.15
  0
VERTEX
  8
PNOA-H_AMS_1956-57_33k_ES_PAN_21mic_H50_0422_fot_49A-10177_W_tif
  70
32
  10
187997.500
  20
4567057.793
  30
-17727.1
  0
VERTEX
  8
PNOA-H_AMS_1956-57_33k_ES_PAN_21mic_H50_0422_fot_49A-10177_W_tif
  70
32
  10
188009.500
  20
4567069.793
  30
-17727.551
  0
VERTEX
  8
PNOA-H_AMS_1956-57_33k_ES_PAN_21mic_H50_0422_fot_49A-10177_W_tif
  70
32
  10
188015.500
  20
4567069.793
  30
-14385.45
  0
VERTEX
  8
PNOA-H_AMS_1956-57_33k_ES_PAN_21mic_H50_0422_fot_49A-10177_W_tif
  70
32
  10
188024.500
  20
4567079.793
  30
-17727.551
  0
VERTEX
  8
PNOA-H_AMS_1956-57_33k_ES_PAN_21mic_H50_0422_fot_49A-10177_W_tif
  70
32
  10
188030.500
  20
4567079.793
  30
-14385.55
  0
VERTEX
  8
PNOA-H_AMS_1956-57_33k_ES_PAN_21mic_H50_0422_fot_49A-10177_W_tif
  70
32
  10
188044.500
  20
4567094.793
  30
-17728.449
  0
VERTEX
  8
PNOA-H_AMS_1956-57_33k_ES_PAN_21mic_H50_0422_fot_49A-10177_W_tif
  70
32
  10
188050.500
  20
4567094.793
  30
-14386.65
  0
VERTEX
  8
PNOA-H_AMS_1956-57_33k_ES_PAN_21mic_H50_0422_fot_49A-10177_W_tif
  70
32
  10
188059.500
  20
4567104.793
  30
-17729.35
  0
VERTEX
  8
PNOA-H_AMS_1956-57_33k_ES_PAN_21mic_H50_0422_fot_49A-10177_W_tif
  70
32
  10
188065.500
  20
4567104.793
  30
-14387.75
  0
VERTEX
  8
PNOA-H_AMS_1956-57_33k_ES_PAN_21mic_H50_0422_fot_49A-10177_W_tif
  70
32
  10
188089.500
  20
4567129.793
  30
-17732.051
  0
VERTEX
  8
PNOA-H_AMS_1956-57_33k_ES_PAN_21mic_H50_0422_fot_49A-10177_W_tif
  70
32
  10
188095.500
  20
4567129.793
  30
-14391
  0
VERTEX
  8
PNOA-H_AMS_1956-57_33k_ES_PAN_21mic_H50_0422_fot_49A-10177_W_tif
  70
32
  10
188119.500
  20
4567154.793
  30
-17735.199
  0
VERTEX
  8
PNOA-H_AMS_1956-57_33k_ES_PAN_21mic_H50_0422_fot_49A-10177_W_tif
  70
32
  10
188125.500
  20
4567154.793
  30
-14394.85
  0
VERTEX
  8
PNOA-H_AMS_1956-57_33k_ES_PAN_21mic_H50_0422_fot_49A-10177_W_tif
  70
32
  10
188144.500
  20
4567174.793
  30
-17737
  0
VERTEX
  8
PNOA-H_AMS_1956-57_33k_ES_PAN_21mic_H50_0422_fot_49A-10177_W_tif
  70
32
  10
188150.500
  20
4567174.793
  30
-14397
  0
VERTEX
  8
PNOA-H_AMS_1956-57_33k_ES_PAN_21mic_H50_0422_fot_49A-10177_W_tif
  70
32
  10
188164.500
  20
4567189.793
  30
-17737
  0
VERTEX
  8
PNOA-H_AMS_1956-57_33k_ES_PAN_21mic_H50_0422_fot_49A-10177_W_tif
  70
32
  10
188170.500
  20
4567189.793
  30
-14396.95
  0
VERTEX
  8
PNOA-H_AMS_1956-57_33k_ES_PAN_21mic_H50_0422_fot_49A-10177_W_tif
  70
32
  10
188179.500
  20
4567199.793
  30
-17736.551
  0
VERTEX
  8
PNOA-H_AMS_1956-57_33k_ES_PAN_21mic_H50_0422_fot_49A-10177_W_tif
  70
32
  10
188185.500
  20
4567199.793
  30
-14396.35
  0
VERTEX
  8
PNOA-H_AMS_1956-57_33k_ES_PAN_21mic_H50_0422_fot_49A-10177_W_tif
  70
32
  10
188189.500
  20
4567204.793
  30
-17736.1
  0
VERTEX
  8
PNOA-H_AMS_1956-57_33k_ES_PAN_21mic_H50_0422_fot_49A-10177_W_tif
  70
32
  10
188195.500
  20
4567204.793
  30
-14395.85
  0
VERTEX
  8
PNOA-H_AMS_1956-57_33k_ES_PAN_21mic_H50_0422_fot_49A-10177_W_tif
  70
32
  10
188209.500
  20
4567219.793
  30
-17736.1
  0
VERTEX
  8
PNOA-H_AMS_1956-57_33k_ES_PAN_21mic_H50_0422_fot_49A-10177_W_tif
  70
32
  10
188215.500
  20
4567219.793
  30
-14395.9
  0
VERTEX
  8
PNOA-H_AMS_1956-57_33k_ES_PAN_21mic_H50_0422_fot_49A-10177_W_tif
  70
32
  10
188219.500
  20
4567224.793
  30
-17736.1
  0
VERTEX
  8
PNOA-H_AMS_1956-57_33k_ES_PAN_21mic_H50_0422_fot_49A-10177_W_tif
  70
32
  10
188225.500
  20
4567224.793
  30
-14396.05
  0
VERTEX
  8
PNOA-H_AMS_1956-57_33k_ES_PAN_21mic_H50_0422_fot_49A-10177_W_tif
  70
32
  10
188249.500
  20
4567249.793
  30
-17739.699
  0
VERTEX
  8
PNOA-H_AMS_1956-57_33k_ES_PAN_21mic_H50_0422_fot_49A-10177_W_tif
  70
32
  10
188255.500
  20
4567249.793
  30
-14400.4
  0
VERTEX
  8
PNOA-H_AMS_1956-57_33k_ES_PAN_21mic_H50_0422_fot_49A-10177_W_tif
  70
32
  10
188259.500
  20
4567254.793
  30
-17740.15
  0
VERTEX
  8
PNOA-H_AMS_1956-57_33k_ES_PAN_21mic_H50_0422_fot_49A-10177_W_tif
  70
32
  10
188265.500
  20
4567254.793
  30
-14401.05
  0
VERTEX
  8
PNOA-H_AMS_1956-57_33k_ES_PAN_21mic_H50_0422_fot_49A-10177_W_tif
  70
32
  10
188284.500
  20
4567274.793
  30
-17743.75
  0
VERTEX
  8
PNOA-H_AMS_1956-57_33k_ES_PAN_21mic_H50_0422_fot_49A-10177_W_tif
  70
32
  10
188290.500
  20
4567274.793
  30
-14405.35
  0
VERTEX
  8
PNOA-H_AMS_1956-57_33k_ES_PAN_21mic_H50_0422_fot_49A-10177_W_tif
  70
32
  10
188304.500
  20
4567289.793
  30
-17745.551
  0
VERTEX
  8
PNOA-H_AMS_1956-57_33k_ES_PAN_21mic_H50_0422_fot_49A-10177_W_tif
  70
32
  10
188310.500
  20
4567289.793
  30
-14407.4
  0
VERTEX
  8
PNOA-H_AMS_1956-57_33k_ES_PAN_21mic_H50_0422_fot_49A-10177_W_tif
  70
32
  10
188314.500
  20
4567294.793
  30
-17745.1
  0
VERTEX
  8
PNOA-H_AMS_1956-57_33k_ES_PAN_21mic_H50_0422_fot_49A-10177_W_tif
  70
32
  10
188320.500
  20
4567294.793
  30
-14406.85
  0
VERTEX
  8
PNOA-H_AMS_1956-57_33k_ES_PAN_21mic_H50_0422_fot_49A-10177_W_tif
  70
32
  10
188324.500
  20
4567299.793
  30
-17744.65
  0
VERTEX
  8
PNOA-H_AMS_1956-57_33k_ES_PAN_21mic_H50_0422_fot_49A-10177_W_tif
  70
32
  10
188330.500
  20
4567299.793
  30
-14406.35
  0
VERTEX
  8
PNOA-H_AMS_1956-57_33k_ES_PAN_21mic_H50_0422_fot_49A-10177_W_tif
  70
32
  10
188334.500
  20
4567304.793
  30
-17744.65
  0
VERTEX
  8
PNOA-H_AMS_1956-57_33k_ES_PAN_21mic_H50_0422_fot_49A-10177_W_tif
  70
32
  10
188340.500
  20
4567304.793
  30
-14405.75
  0
VERTEX
  8
PNOA-H_AMS_1956-57_33k_ES_PAN_21mic_H50_0422_fot_49A-10177_W_tif
  70
32
  10
188354.500
  20
4567319.793
  30
-17743.301
  0
VERTEX
  8
PNOA-H_AMS_1956-57_33k_ES_PAN_21mic_H50_0422_fot_49A-10177_W_tif
  70
32
  10
188360.500
  20
4567319.793
  30
-14404.65
  0
VERTEX
  8
PNOA-H_AMS_1956-57_33k_ES_PAN_21mic_H50_0422_fot_49A-10177_W_tif
  70
32
  10
188364.500
  20
4567324.793
  30
-17742.85
  0
VERTEX
  8
PNOA-H_AMS_1956-57_33k_ES_PAN_21mic_H50_0422_fot_49A-10177_W_tif
  70
32
  10
188370.500
  20
4567324.793
  30
-14404.15
  0
VERTEX
  8
PNOA-H_AMS_1956-57_33k_ES_PAN_21mic_H50_0422_fot_49A-10177_W_tif
  70
32
  10
188379.500
  20
4567334.793
  30
-17742.4
  0
VERTEX
  8
PNOA-H_AMS_1956-57_33k_ES_PAN_21mic_H50_0422_fot_49A-10177_W_tif
  70
32
  10
188385.500
  20
4567334.793
  30
-14403.6
  0
VERTEX
  8
PNOA-H_AMS_1956-57_33k_ES_PAN_21mic_H50_0422_fot_49A-10177_W_tif
  70
32
  10
188389.500
  20
4567339.793
  30
-17742.4
  0
VERTEX
  8
PNOA-H_AMS_1956-57_33k_ES_PAN_21mic_H50_0422_fot_49A-10177_W_tif
  70
32
  10
188395.500
  20
4567339.793
  30
-14403.6
  0
VERTEX
  8
PNOA-H_AMS_1956-57_33k_ES_PAN_21mic_H50_0422_fot_49A-10177_W_tif
  70
32
  10
188399.500
  20
4567344.793
  30
-17742.4
  0
VERTEX
  8
PNOA-H_AMS_1956-57_33k_ES_PAN_21mic_H50_0422_fot_49A-10177_W_tif
  70
32
  10
188405.500
  20
4567344.793
  30
-14403.7
  0
VERTEX
  8
PNOA-H_AMS_1956-57_33k_ES_PAN_21mic_H50_0422_fot_49A-10177_W_tif
  70
32
  10
188409.500
  20
4567349.793
  30
-17742.85
  0
VERTEX
  8
PNOA-H_AMS_1956-57_33k_ES_PAN_21mic_H50_0422_fot_49A-10177_W_tif
  70
32
  10
188415.500
  20
4567349.793
  30
-14404.15
  0
VERTEX
  8
PNOA-H_AMS_1956-57_33k_ES_PAN_21mic_H50_0422_fot_49A-10177_W_tif
  70
32
  10
188434.500
  20
4567369.793
  30
-17744.199
  0
VERTEX
  8
PNOA-H_AMS_1956-57_33k_ES_PAN_21mic_H50_0422_fot_49A-10177_W_tif
  70
32
  10
188440.500
  20
4567369.793
  30
-14405.85
  0
VERTEX
  8
PNOA-H_AMS_1956-57_33k_ES_PAN_21mic_H50_0422_fot_49A-10177_W_tif
  70
32
  10
188464.500
  20
4567394.793
  30
-17747.801
  0
VERTEX
  8
PNOA-H_AMS_1956-57_33k_ES_PAN_21mic_H50_0422_fot_49A-10177_W_tif
  70
32
  10
188470.500
  20
4567394.793
  30
-14410.35
  0
VERTEX
  8
PNOA-H_AMS_1956-57_33k_ES_PAN_21mic_H50_0422_fot_49A-10177_W_tif
  70
32
  10
188484.500
  20
4567409.793
  30
-17750.949
  0
VERTEX
  8
PNOA-H_AMS_1956-57_33k_ES_PAN_21mic_H50_0422_fot_49A-10177_W_tif
  70
32
  10
188490.500
  20
4567409.793
  30
-14414.2
  0
VERTEX
  8
PNOA-H_AMS_1956-57_33k_ES_PAN_21mic_H50_0422_fot_49A-10177_W_tif
  70
32
  10
188509.500
  20
4567429.793
  30
-17753.199
  0
VERTEX
  8
PNOA-H_AMS_1956-57_33k_ES_PAN_21mic_H50_0422_fot_49A-10177_W_tif
  70
32
  10
188515.500
  20
4567429.793
  30
-14416.95
  0
VERTEX
  8
PNOA-H_AMS_1956-57_33k_ES_PAN_21mic_H50_0422_fot_49A-10177_W_tif
  70
32
  10
188524.500
  20
4567439.793
  30
-17754.1
  0
VERTEX
  8
PNOA-H_AMS_1956-57_33k_ES_PAN_21mic_H50_0422_fot_49A-10177_W_tif
  70
32
  10
188530.500
  20
4567439.793
  30
-14418.1
  0
VERTEX
  8
PNOA-H_AMS_1956-57_33k_ES_PAN_21mic_H50_0422_fot_49A-10177_W_tif
  70
32
  10
188539.500
  20
4567449.793
  30
-17755.9
  0
VERTEX
  8
PNOA-H_AMS_1956-57_33k_ES_PAN_21mic_H50_0422_fot_49A-10177_W_tif
  70
32
  10
188545.500
  20
4567449.793
  30
-14420.15
  0
VERTEX
  8
PNOA-H_AMS_1956-57_33k_ES_PAN_21mic_H50_0422_fot_49A-10177_W_tif
  70
32
  10
188549.500
  20
4567454.793
  30
-17756.35
  0
VERTEX
  8
PNOA-H_AMS_1956-57_33k_ES_PAN_21mic_H50_0422_fot_49A-10177_W_tif
  70
32
  10
188555.500
  20
4567454.793
  30
-14420.75
  0
VERTEX
  8
PNOA-H_AMS_1956-57_33k_ES_PAN_21mic_H50_0422_fot_49A-10177_W_tif
  70
32
  10
188569.500
  20
4567469.793
  30
-17757.25
  0
VERTEX
  8
PNOA-H_AMS_1956-57_33k_ES_PAN_21mic_H50_0422_fot_49A-10177_W_tif
  70
32
  10
188575.500
  20
4567469.793
  30
-14421.9
  0
VERTEX
  8
PNOA-H_AMS_1956-57_33k_ES_PAN_21mic_H50_0422_fot_49A-10177_W_tif
  70
32
  10
188589.500
  20
4567484.793
  30
-17759.051
  0
VERTEX
  8
PNOA-H_AMS_1956-57_33k_ES_PAN_21mic_H50_0422_fot_49A-10177_W_tif
  70
32
  10
188595.500
  20
4567484.793
  30
-14424.5
  0
VERTEX
  8
PNOA-H_AMS_1956-57_33k_ES_PAN_21mic_H50_0422_fot_49A-10177_W_tif
  70
32
  10
188604.500
  20
4567494.793
  30
-17759.949
  0
VERTEX
  8
PNOA-H_AMS_1956-57_33k_ES_PAN_21mic_H50_0422_fot_49A-10177_W_tif
  70
32
  10
188610.500
  20
4567494.793
  30
-14425.25
  0
VERTEX
  8
PNOA-H_AMS_1956-57_33k_ES_PAN_21mic_H50_0422_fot_49A-10177_W_tif
  70
32
  10
188624.500
  20
4567509.793
  30
-17760.85
  0
VERTEX
  8
PNOA-H_AMS_1956-57_33k_ES_PAN_21mic_H50_0422_fot_49A-10177_W_tif
  70
32
  10
188630.500
  20
4567509.793
  30
-14426.15
  0
VERTEX
  8
PNOA-H_AMS_1956-57_33k_ES_PAN_21mic_H50_0422_fot_49A-10177_W_tif
  70
32
  10
188644.500
  20
4567524.793
  30
-17760.85
  0
VERTEX
  8
PNOA-H_AMS_1956-57_33k_ES_PAN_21mic_H50_0422_fot_49A-10177_W_tif
  70
32
  10
188650.500
  20
4567524.793
  30
-14426.15
  0
VERTEX
  8
PNOA-H_AMS_1956-57_33k_ES_PAN_21mic_H50_0422_fot_49A-10177_W_tif
  70
32
  10
188659.500
  20
4567534.793
  30
-17760.85
  0
VERTEX
  8
PNOA-H_AMS_1956-57_33k_ES_PAN_21mic_H50_0422_fot_49A-10177_W_tif
  70
32
  10
188665.500
  20
4567534.793
  30
-14426.2
  0
VERTEX
  8
PNOA-H_AMS_1956-57_33k_ES_PAN_21mic_H50_0422_fot_49A-10177_W_tif
  70
32
  10
188679.500
  20
4567549.793
  30
-17762.199
  0
VERTEX
  8
PNOA-H_AMS_1956-57_33k_ES_PAN_21mic_H50_0422_fot_49A-10177_W_tif
  70
32
  10
188685.500
  20
4567549.793
  30
-14427.75
  0
VERTEX
  8
PNOA-H_AMS_1956-57_33k_ES_PAN_21mic_H50_0422_fot_49A-10177_W_tif
  70
32
  10
188694.500
  20
4567559.793
  30
-17762.199
  0
VERTEX
  8
PNOA-H_AMS_1956-57_33k_ES_PAN_21mic_H50_0422_fot_49A-10177_W_tif
  70
32
  10
188700.500
  20
4567559.793
  30
-14427.7
  0
VERTEX
  8
PNOA-H_AMS_1956-57_33k_ES_PAN_21mic_H50_0422_fot_49A-10177_W_tif
  70
32
  10
188704.500
  20
4567564.793
  30
-17761.75
  0
VERTEX
  8
PNOA-H_AMS_1956-57_33k_ES_PAN_21mic_H50_0422_fot_49A-10177_W_tif
  70
32
  10
188710.500
  20
4567564.793
  30
-14427.1
  0
VERTEX
  8
PNOA-H_AMS_1956-57_33k_ES_PAN_21mic_H50_0422_fot_49A-10177_W_tif
  70
32
  10
188714.500
  20
4567569.793
  30
-17760.85
  0
VERTEX
  8
PNOA-H_AMS_1956-57_33k_ES_PAN_21mic_H50_0422_fot_49A-10177_W_tif
  70
32
  10
188720.500
  20
4567569.793
  30
-14425.85
  0
VERTEX
  8
PNOA-H_AMS_1956-57_33k_ES_PAN_21mic_H50_0422_fot_49A-10177_W_tif
  70
32
  10
188724.500
  20
4567574.793
  30
-17759.051
  0
VERTEX
  8
PNOA-H_AMS_1956-57_33k_ES_PAN_21mic_H50_0422_fot_49A-10177_W_tif
  70
32
  10
188730.500
  20
4567574.793
  30
-14423.85
  0
VERTEX
  8
PNOA-H_AMS_1956-57_33k_ES_PAN_21mic_H50_0422_fot_49A-10177_W_tif
  70
32
  10
188734.500
  20
4567579.793
  30
-17758.6
  0
VERTEX
  8
PNOA-H_AMS_1956-57_33k_ES_PAN_21mic_H50_0422_fot_49A-10177_W_tif
  70
32
  10
188740.500
  20
4567579.793
  30
-14423.3
  0
VERTEX
  8
PNOA-H_AMS_1956-57_33k_ES_PAN_21mic_H50_0422_fot_49A-10177_W_tif
  70
32
  10
188744.500
  20
4567584.793
  30
-17758.15
  0
VERTEX
  8
PNOA-H_AMS_1956-57_33k_ES_PAN_21mic_H50_0422_fot_49A-10177_W_tif
  70
32
  10
188750.500
  20
4567584.793
  30
-14422.7
  0
VERTEX
  8
PNOA-H_AMS_1956-57_33k_ES_PAN_21mic_H50_0422_fot_49A-10177_W_tif
  70
32
  10
188754.500
  20
4567589.793
  30
-17757.25
  0
VERTEX
  8
PNOA-H_AMS_1956-57_33k_ES_PAN_21mic_H50_0422_fot_49A-10177_W_tif
  70
32
  10
188760.500
  20
4567589.793
  30
-14421.45
  0
VERTEX
  8
PNOA-H_AMS_1956-57_33k_ES_PAN_21mic_H50_0422_fot_49A-10177_W_tif
  70
32
  10
188769.500
  20
4567599.793
  30
-17755.449
  0
VERTEX
  8
PNOA-H_AMS_1956-57_33k_ES_PAN_21mic_H50_0422_fot_49A-10177_W_tif
  70
32
  10
188775.500
  20
4567599.793
  30
-14418.85
  0
VERTEX
  8
PNOA-H_AMS_1956-57_33k_ES_PAN_21mic_H50_0422_fot_49A-10177_W_tif
  70
32
  10
188779.500
  20
4567604.793
  30
-17754.1
  0
VERTEX
  8
PNOA-H_AMS_1956-57_33k_ES_PAN_21mic_H50_0422_fot_49A-10177_W_tif
  70
32
  10
188785.500
  20
4567604.793
  30
-14417.8
  0
VERTEX
  8
PNOA-H_AMS_1956-57_33k_ES_PAN_21mic_H50_0422_fot_49A-10177_W_tif
  70
32
  10
188789.500
  20
4567609.793
  30
-17753.199
  0
VERTEX
  8
PNOA-H_AMS_1956-57_33k_ES_PAN_21mic_H50_0422_fot_49A-10177_W_tif
  70
32
  10
188795.500
  20
4567609.793
  30
-14416.65
  0
VERTEX
  8
PNOA-H_AMS_1956-57_33k_ES_PAN_21mic_H50_0422_fot_49A-10177_W_tif
  70
32
  10
188799.500
  20
4567614.793
  30
-17752.301
  0
VERTEX
  8
PNOA-H_AMS_1956-57_33k_ES_PAN_21mic_H50_0422_fot_49A-10177_W_tif
  70
32
  10
188805.500
  20
4567614.793
  30
-14415.5
  0
VERTEX
  8
PNOA-H_AMS_1956-57_33k_ES_PAN_21mic_H50_0422_fot_49A-10177_W_tif
  70
32
  10
188814.500
  20
4567624.793
  30
-17750.5
  0
VERTEX
  8
PNOA-H_AMS_1956-57_33k_ES_PAN_21mic_H50_0422_fot_49A-10177_W_tif
  70
32
  10
188820.500
  20
4567624.793
  30
-14413.4
  0
VERTEX
  8
PNOA-H_AMS_1956-57_33k_ES_PAN_21mic_H50_0422_fot_49A-10177_W_tif
  70
32
  10
188829.500
  20
4567634.793
  30
-17749.15
  0
VERTEX
  8
PNOA-H_AMS_1956-57_33k_ES_PAN_21mic_H50_0422_fot_49A-10177_W_tif
  70
32
  10
188835.500
  20
4567634.793
  30
-14411.75
  0
VERTEX
  8
PNOA-H_AMS_1956-57_33k_ES_PAN_21mic_H50_0422_fot_49A-10177_W_tif
  70
32
  10
188844.500
  20
4567644.793
  30
-17747.801
  0
VERTEX
  8
PNOA-H_AMS_1956-57_33k_ES_PAN_21mic_H50_0422_fot_49A-10177_W_tif
  70
32
  10
188850.500
  20
4567644.793
  30
-14410.15
  0
VERTEX
  8
PNOA-H_AMS_1956-57_33k_ES_PAN_21mic_H50_0422_fot_49A-10177_W_tif
  70
32
  10
188854.500
  20
4567649.793
  30
-17747.35
  0
VERTEX
  8
PNOA-H_AMS_1956-57_33k_ES_PAN_21mic_H50_0422_fot_49A-10177_W_tif
  70
32
  10
188865.500
  20
4567649.793
  30
-14409.5
  0
VERTEX
  8
PNOA-H_AMS_1956-57_33k_ES_PAN_21mic_H50_0422_fot_49A-10177_W_tif
  70
32
  10
188879.500
  20
4567664.793
  30
-17745.551
  0
VERTEX
  8
PNOA-H_AMS_1956-57_33k_ES_PAN_21mic_H50_0422_fot_49A-10177_W_tif
  70
32
  10
188885.500
  20
4567664.793
  30
-14407.4
  0
VERTEX
  8
PNOA-H_AMS_1956-57_33k_ES_PAN_21mic_H50_0422_fot_49A-10177_W_tif
  70
32
  10
188889.500
  20
4567669.793
  30
-17745.1
  0
VERTEX
  8
PNOA-H_AMS_1956-57_33k_ES_PAN_21mic_H50_0422_fot_49A-10177_W_tif
  70
32
  10
188895.500
  20
4567669.793
  30
-14406.9
  0
VERTEX
  8
PNOA-H_AMS_1956-57_33k_ES_PAN_21mic_H50_0422_fot_49A-10177_W_tif
  70
32
  10
188904.500
  20
4567679.793
  30
-17745.1
  0
VERTEX
  8
PNOA-H_AMS_1956-57_33k_ES_PAN_21mic_H50_0422_fot_49A-10177_W_tif
  70
32
  10
188910.500
  20
4567679.793
  30
-14406.8
  0
VERTEX
  8
PNOA-H_AMS_1956-57_33k_ES_PAN_21mic_H50_0422_fot_49A-10177_W_tif
  70
32
  10
188919.500
  20
4567689.793
  30
-17744.199
  0
VERTEX
  8
PNOA-H_AMS_1956-57_33k_ES_PAN_21mic_H50_0422_fot_49A-10177_W_tif
  70
32
  10
188925.500
  20
4567689.793
  30
-14405.65
  0
VERTEX
  8
PNOA-H_AMS_1956-57_33k_ES_PAN_21mic_H50_0422_fot_49A-10177_W_tif
  70
32
  10
188929.500
  20
4567694.793
  30
-17743.301
  0
VERTEX
  8
PNOA-H_AMS_1956-57_33k_ES_PAN_21mic_H50_0422_fot_49A-10177_W_tif
  70
32
  10
188935.500
  20
4567694.793
  30
-14404.7
  0
VERTEX
  8
PNOA-H_AMS_1956-57_33k_ES_PAN_21mic_H50_0422_fot_49A-10177_W_tif
  70
32
  10
188944.500
  20
4567704.793
  30
-17743.301
  0
VERTEX
  8
PNOA-H_AMS_1956-57_33k_ES_PAN_21mic_H50_0422_fot_49A-10177_W_tif
  70
32
  10
188950.500
  20
4567704.793
  30
-14404.55
  0
VERTEX
  8
PNOA-H_AMS_1956-57_33k_ES_PAN_21mic_H50_0422_fot_49A-10177_W_tif
  70
32
  10
188954.500
  20
4567709.793
  30
-17742.4
  0
VERTEX
  8
PNOA-H_AMS_1956-57_33k_ES_PAN_21mic_H50_0422_fot_49A-10177_W_tif
  70
32
  10
188960.500
  20
4567709.793
  30
-14403.6
  0
VERTEX
  8
PNOA-H_AMS_1956-57_33k_ES_PAN_21mic_H50_0422_fot_49A-10177_W_tif
  70
32
  10
188969.500
  20
4567719.793
  30
-17742.4
  0
VERTEX
  8
PNOA-H_AMS_1956-57_33k_ES_PAN_21mic_H50_0422_fot_49A-10177_W_tif
  70
32
  10
188975.500
  20
4567719.793
  30
-14403.55
  0
VERTEX
  8
PNOA-H_AMS_1956-57_33k_ES_PAN_21mic_H50_0422_fot_49A-10177_W_tif
  70
32
  10
188984.500
  20
4567729.793
  30
-17741.949
  0
VERTEX
  8
PNOA-H_AMS_1956-57_33k_ES_PAN_21mic_H50_0422_fot_49A-10177_W_tif
  70
32
  10
188990.500
  20
4567729.793
  30
-14403.05
  0
VERTEX
  8
PNOA-H_AMS_1956-57_33k_ES_PAN_21mic_H50_0422_fot_49A-10177_W_tif
  70
32
  10
188994.500
  20
4567734.793
  30
-17741.949
  0
VERTEX
  8
PNOA-H_AMS_1956-57_33k_ES_PAN_21mic_H50_0422_fot_49A-10177_W_tif
  70
32
  10
189000.500
  20
4567734.793
  30
-14403.05
  0
VERTEX
  8
PNOA-H_AMS_1956-57_33k_ES_PAN_21mic_H50_0422_fot_49A-10177_W_tif
  70
32
  10
189014.500
  20
4567749.793
  30
-17741.5
  0
VERTEX
  8
PNOA-H_AMS_1956-57_33k_ES_PAN_21mic_H50_0422_fot_49A-10177_W_tif
  70
32
  10
189020.500
  20
4567749.793
  30
-14402.5
  0
VERTEX
  8
PNOA-H_AMS_1956-57_33k_ES_PAN_21mic_H50_0422_fot_49A-10177_W_tif
  70
32
  10
189029.500
  20
4567759.793
  30
-17741.949
  0
VERTEX
  8
PNOA-H_AMS_1956-57_33k_ES_PAN_21mic_H50_0422_fot_49A-10177_W_tif
  70
32
  10
189035.500
  20
4567759.793
  30
-14403.05
  0
VERTEX
  8
PNOA-H_AMS_1956-57_33k_ES_PAN_21mic_H50_0422_fot_49A-10177_W_tif
  70
32
  10
189044.500
  20
4567769.793
  30
-17741.949
  0
VERTEX
  8
PNOA-H_AMS_1956-57_33k_ES_PAN_21mic_H50_0422_fot_49A-10177_W_tif
  70
32
  10
189050.500
  20
4567769.793
  30
-14402.9
  0
VERTEX
  8
PNOA-H_AMS_1956-57_33k_ES_PAN_21mic_H50_0422_fot_49A-10177_W_tif
  70
32
  10
189054.500
  20
4567774.793
  30
-17741.051
  0
VERTEX
  8
PNOA-H_AMS_1956-57_33k_ES_PAN_21mic_H50_0422_fot_49A-10177_W_tif
  70
32
  10
189060.500
  20
4567774.793
  30
-14401.95
  0
VERTEX
  8
PNOA-H_AMS_1956-57_33k_ES_PAN_21mic_H50_0422_fot_49A-10177_W_tif
  70
32
  10
189074.500
  20
4567789.793
  30
-17741.949
  0
VERTEX
  8
PNOA-H_AMS_1956-57_33k_ES_PAN_21mic_H50_0422_fot_49A-10177_W_tif
  70
32
  10
189080.500
  20
4567789.793
  30
-14403.05
  0
VERTEX
  8
PNOA-H_AMS_1956-57_33k_ES_PAN_21mic_H50_0422_fot_49A-10177_W_tif
  70
32
  10
189094.500
  20
4567804.793
  30
-17742.4
  0
VERTEX
  8
PNOA-H_AMS_1956-57_33k_ES_PAN_21mic_H50_0422_fot_49A-10177_W_tif
  70
32
  10
189100.500
  20
4567804.793
  30
-14403.7
  0
VERTEX
  8
PNOA-H_AMS_1956-57_33k_ES_PAN_21mic_H50_0422_fot_49A-10177_W_tif
  70
32
  10
189109.500
  20
4567814.793
  30
-17743.301
  0
VERTEX
  8
PNOA-H_AMS_1956-57_33k_ES_PAN_21mic_H50_0422_fot_49A-10177_W_tif
  70
32
  10
189115.500
  20
4567814.793
  30
-14404.7
  0
VERTEX
  8
PNOA-H_AMS_1956-57_33k_ES_PAN_21mic_H50_0422_fot_49A-10177_W_tif
  70
32
  10
189124.500
  20
4567824.793
  30
-17743.301
  0
VERTEX
  8
PNOA-H_AMS_1956-57_33k_ES_PAN_21mic_H50_0422_fot_49A-10177_W_tif
  70
32
  10
189130.500
  20
4567824.793
  30
-14404.65
  0
VERTEX
  8
PNOA-H_AMS_1956-57_33k_ES_PAN_21mic_H50_0422_fot_49A-10177_W_tif
  70
32
  10
189139.500
  20
4567834.793
  30
-17742.85
  0
VERTEX
  8
PNOA-H_AMS_1956-57_33k_ES_PAN_21mic_H50_0422_fot_49A-10177_W_tif
  70
32
  10
189145.500
  20
4567834.793
  30
-14404.1
  0
VERTEX
  8
PNOA-H_AMS_1956-57_33k_ES_PAN_21mic_H50_0422_fot_49A-10177_W_tif
  70
32
  10
189149.500
  20
4567839.793
  30
-17742.4
  0
VERTEX
  8
PNOA-H_AMS_1956-57_33k_ES_PAN_21mic_H50_0422_fot_49A-10177_W_tif
  70
32
  10
189155.500
  20
4567839.793
  30
-14403.55
  0
VERTEX
  8
PNOA-H_AMS_1956-57_33k_ES_PAN_21mic_H50_0422_fot_49A-10177_W_tif
  70
32
  10
189169.500
  20
4567854.793
  30
-17741.5
  0
VERTEX
  8
PNOA-H_AMS_1956-57_33k_ES_PAN_21mic_H50_0422_fot_49A-10177_W_tif
  70
32
  10
189175.500
  20
4567854.793
  30
-14402.55
  0
VERTEX
  8
PNOA-H_AMS_1956-57_33k_ES_PAN_21mic_H50_0422_fot_49A-10177_W_tif
  70
32
  10
189184.500
  20
4567864.793
  30
-17742.4
  0
VERTEX
  8
PNOA-H_AMS_1956-57_33k_ES_PAN_21mic_H50_0422_fot_49A-10177_W_tif
  70
32
  10
189190.500
  20
4567864.793
  30
-14403.6
  0
VERTEX
  8
PNOA-H_AMS_1956-57_33k_ES_PAN_21mic_H50_0422_fot_49A-10177_W_tif
  70
32
  10
189204.500
  20
4567879.793
  30
-17742.85
  0
VERTEX
  8
PNOA-H_AMS_1956-57_33k_ES_PAN_21mic_H50_0422_fot_49A-10177_W_tif
  70
32
  10
189210.500
  20
4567879.793
  30
-14404.75
  0
VERTEX
  8
PNOA-H_AMS_1956-57_33k_ES_PAN_21mic_H50_0422_fot_49A-10177_W_tif
  70
32
  10
189224.500
  20
4567894.793
  30
-17744.65
  0
VERTEX
  8
PNOA-H_AMS_1956-57_33k_ES_PAN_21mic_H50_0422_fot_49A-10177_W_tif
  70
32
  10
189230.500
  20
4567894.793
  30
-14406.35
  0
VERTEX
  8
PNOA-H_AMS_1956-57_33k_ES_PAN_21mic_H50_0422_fot_49A-10177_W_tif
  70
32
  10
189239.500
  20
4567904.793
  30
-17744.199
  0
VERTEX
  8
PNOA-H_AMS_1956-57_33k_ES_PAN_21mic_H50_0422_fot_49A-10177_W_tif
  70
32
  10
189245.500
  20
4567904.793
  30
-14405.9
  0
VERTEX
  8
PNOA-H_AMS_1956-57_33k_ES_PAN_21mic_H50_0422_fot_49A-10177_W_tif
  70
32
  10
189254.500
  20
4567914.793
  30
-17744.65
  0
VERTEX
  8
PNOA-H_AMS_1956-57_33k_ES_PAN_21mic_H50_0422_fot_49A-10177_W_tif
  70
32
  10
189260.500
  20
4567914.793
  30
-14406.45
  0
VERTEX
  8
PNOA-H_AMS_1956-57_33k_ES_PAN_21mic_H50_0422_fot_49A-10177_W_tif
  70
32
  10
189274.500
  20
4567929.793
  30
-17745.551
  0
VERTEX
  8
PNOA-H_AMS_1956-57_33k_ES_PAN_21mic_H50_0422_fot_49A-10177_W_tif
  70
32
  10
189280.500
  20
4567929.793
  30
-14407.45
  0
VERTEX
  8
PNOA-H_AMS_1956-57_33k_ES_PAN_21mic_H50_0422_fot_49A-10177_W_tif
  70
32
  10
189294.500
  20
4567944.793
  30
-17746
  0
VERTEX
  8
PNOA-H_AMS_1956-57_33k_ES_PAN_21mic_H50_0422_fot_49A-10177_W_tif
  70
32
  10
189300.500
  20
4567944.793
  30
-14407.95
  0
VERTEX
  8
PNOA-H_AMS_1956-57_33k_ES_PAN_21mic_H50_0422_fot_49A-10177_W_tif
  70
32
  10
189309.500
  20
4567954.793
  30
-17745.1
  0
VERTEX
  8
PNOA-H_AMS_1956-57_33k_ES_PAN_21mic_H50_0422_fot_49A-10177_W_tif
  70
32
  10
189315.500
  20
4567954.793
  30
-14406.75
  0
VERTEX
  8
PNOA-H_AMS_1956-57_33k_ES_PAN_21mic_H50_0422_fot_49A-10177_W_tif
  70
32
  10
189319.500
  20
4567959.793
  30
-17744.199
  0
VERTEX
  8
PNOA-H_AMS_1956-57_33k_ES_PAN_21mic_H50_0422_fot_49A-10177_W_tif
  70
32
  10
189325.500
  20
4567959.793
  30
-14405.55
  0
VERTEX
  8
PNOA-H_AMS_1956-57_33k_ES_PAN_21mic_H50_0422_fot_49A-10177_W_tif
  70
32
  10
189329.500
  20
4567964.793
  30
-17742.85
  0
VERTEX
  8
PNOA-H_AMS_1956-57_33k_ES_PAN_21mic_H50_0422_fot_49A-10177_W_tif
  70
32
  10
189335.500
  20
4567964.793
  30
-14404
  0
VERTEX
  8
PNOA-H_AMS_1956-57_33k_ES_PAN_21mic_H50_0422_fot_49A-10177_W_tif
  70
32
  10
189339.500
  20
4567969.793
  30
-17741.949
  0
VERTEX
  8
PNOA-H_AMS_1956-57_33k_ES_PAN_21mic_H50_0422_fot_49A-10177_W_tif
  70
32
  10
189345.500
  20
4567969.793
  30
-14402.1
  0
VERTEX
  8
PNOA-H_AMS_1956-57_33k_ES_PAN_21mic_H50_0422_fot_49A-10177_W_tif
  70
32
  10
189349.500
  20
4567974.793
  30
-17739.25
  0
VERTEX
  8
PNOA-H_AMS_1956-57_33k_ES_PAN_21mic_H50_0422_fot_49A-10177_W_tif
  70
32
  10
189355.500
  20
4567974.793
  30
-14399.5
  0
VERTEX
  8
PNOA-H_AMS_1956-57_33k_ES_PAN_21mic_H50_0422_fot_49A-10177_W_tif
  70
32
  10
189359.500
  20
4567979.793
  30
-17737.449
  0
VERTEX
  8
PNOA-H_AMS_1956-57_33k_ES_PAN_21mic_H50_0422_fot_49A-10177_W_tif
  70
32
  10
189365.500
  20
4567979.793
  30
-14397.2
  0
VERTEX
  8
PNOA-H_AMS_1956-57_33k_ES_PAN_21mic_H50_0422_fot_49A-10177_W_tif
  70
32
  10
189369.500
  20
4567984.793
  30
-17735.65
  0
VERTEX
  8
PNOA-H_AMS_1956-57_33k_ES_PAN_21mic_H50_0422_fot_49A-10177_W_tif
  70
32
  10
189375.500
  20
4567984.793
  30
-14395.15
  0
VERTEX
  8
PNOA-H_AMS_1956-57_33k_ES_PAN_21mic_H50_0422_fot_49A-10177_W_tif
  70
32
  10
189379.500
  20
4567989.793
  30
-17734.301
  0
VERTEX
  8
PNOA-H_AMS_1956-57_33k_ES_PAN_21mic_H50_0422_fot_49A-10177_W_tif
  70
32
  10
189385.500
  20
4567989.793
  30
-14393.6
  0
VERTEX
  8
PNOA-H_AMS_1956-57_33k_ES_PAN_21mic_H50_0422_fot_49A-10177_W_tif
  70
32
  10
189389.500
  20
4567994.793
  30
-17733.85
  0
VERTEX
  8
PNOA-H_AMS_1956-57_33k_ES_PAN_21mic_H50_0422_fot_49A-10177_W_tif
  70
32
  10
189395.500
  20
4567994.793
  30
-14392.95
  0
VERTEX
  8
PNOA-H_AMS_1956-57_33k_ES_PAN_21mic_H50_0422_fot_49A-10177_W_tif
  70
32
  10
189399.500
  20
4567999.793
  30
-17732.5
  0
VERTEX
  8
PNOA-H_AMS_1956-57_33k_ES_PAN_21mic_H50_0422_fot_49A-10177_W_tif
  70
32
  10
189405.500
  20
4567999.793
  30
-14391.3
  0
VERTEX
  8
PNOA-H_AMS_1956-57_33k_ES_PAN_21mic_H50_0422_fot_49A-10177_W_tif
  70
32
  10
189409.500
  20
4568004.793
  30
-17731.15
  0
VERTEX
  8
PNOA-H_AMS_1956-57_33k_ES_PAN_21mic_H50_0422_fot_49A-10177_W_tif
  70
32
  10
189995.500
  20
4568004.793
  30
-14401.3
  0
VERTEX
  8
PNOA-H_AMS_1956-57_33k_ES_PAN_21mic_H50_0422_fot_49A-10177_W_tif
  70
32
  10
189997.500
  20
4568006.793
  30
-14403.7
  0
VERTEX
  8
PNOA-H_AMS_1956-57_33k_ES_PAN_21mic_H50_0422_fot_49A-10177_W_tif
  70
32
  10
189997.500
  20
4568437.793
  30
-16123
  0
VERTEX
  8
PNOA-H_AMS_1956-57_33k_ES_PAN_21mic_H50_0422_fot_49A-10177_W_tif
  70
32
  10
190004.500
  20
4568444.793
  30
-16123
  0
VERTEX
  8
PNOA-H_AMS_1956-57_33k_ES_PAN_21mic_H50_0422_fot_49A-10177_W_tif
  70
32
  10
190010.500
  20
4568444.793
  30
-14462.1
  0
VERTEX
  8
PNOA-H_AMS_1956-57_33k_ES_PAN_21mic_H50_0422_fot_49A-10177_W_tif
  70
32
  10
190012.500
  20
4568446.793
  30
-14469.7
  0
VERTEX
  8
PNOA-H_AMS_1956-57_33k_ES_PAN_21mic_H50_0422_fot_49A-10177_W_tif
  70
32
  10
189997.500
  20
4568621.793
  30
-17794.6
  0
VERTEX
  8
PNOA-H_AMS_1956-57_33k_ES_PAN_21mic_H50_0422_fot_49A-10177_W_tif
  70
32
  10
189997.500
  20
4570032.793
  30
-16034
  0
VERTEX
  8
PNOA-H_AMS_1956-57_33k_ES_PAN_21mic_H50_0422_fot_49A-10177_W_tif
  70
32
  10
190007.500
  20
4570041.793
  30
-14360.7
  0
VERTEX
  8
PNOA-H_AMS_1956-57_33k_ES_PAN_21mic_H50_0422_fot_49A-10177_W_tif
  70
32
  10
190007.500
  20
4570084.293
  30
-16033
  0
VERTEX
  8
PNOA-H_AMS_1956-57_33k_ES_PAN_21mic_H50_0422_fot_49A-10177_W_tif
  70
32
  10
190989.500
  20
4569620.793
  30
606.07
  0
VERTEX
  8
PNOA-H_AMS_1956-57_33k_ES_PAN_21mic_H50_0422_fot_49A-10177_W_tif
  70
32
  10
190993.500
  20
4569618.793
  30
604.81
  0
VERTEX
  8
PNOA-H_AMS_1956-57_33k_ES_PAN_21mic_H50_0422_fot_49A-10177_W_tif
  70
32
  10
190994.000
  20
4569616.293
  30
604.2
  0
VERTEX
  8
PNOA-H_AMS_1956-57_33k_ES_PAN_21mic_H50_0422_fot_49A-10177_W_tif
  70
32
  10
190982.000
  20
4569419.793
  30
523.4
  0
VERTEX
  8
PNOA-H_AMS_1956-57_33k_ES_PAN_21mic_H50_0422_fot_49A-10177_W_tif
  70
32
  10
190980.000
  20
4569390.293
  30
559.6
  0
VERTEX
  8
PNOA-H_AMS_1956-57_33k_ES_PAN_21mic_H50_0422_fot_49A-10177_W_tif
  70
32
  10
190980.000
  20
4569386.793
  30
561.8
  0
VERTEX
  8
PNOA-H_AMS_1956-57_33k_ES_PAN_21mic_H50_0422_fot_49A-10177_W_tif
  70
32
  10
190942.000
  20
4568772.793
  30
236.46
  0
VERTEX
  8
PNOA-H_AMS_1956-57_33k_ES_PAN_21mic_H50_0422_fot_49A-10177_W_tif
  70
32
  10
190937.000
  20
4568682.793
  30
408.6
  0
VERTEX
  8
PNOA-H_AMS_1956-57_33k_ES_PAN_21mic_H50_0422_fot_49A-10177_W_tif
  70
32
  10
190728.000
  20
4565264.793
  30
659.2
  0
VERTEX
  8
PNOA-H_AMS_1956-57_33k_ES_PAN_21mic_H50_0422_fot_49A-10177_W_tif
  70
32
  10
188226.500
  20
4565131.793
  30
614.8
  0
VERTEX
  8
PNOA-H_AMS_1956-57_33k_ES_PAN_21mic_H50_0422_fot_49A-10177_W_tif
  70
32
  10
186814.500
  20
4566004.293
  30
-12689.2
  0
VERTEX
  8
PNOA-H_AMS_1956-57_33k_ES_PAN_21mic_H50_0422_fot_49A-10177_W_tif
  70
32
  10
186813.500
  20
4566004.793
  30
-16035.5
  0
SEQEND
  8
PNOA-H_AMS_1956-57_33k_ES_PAN_21mic_H50_0422_fot_49A-10177_W_tif
  0
TEXT
  8
PNOA-H_AMS_1956-57_33k_ES_PAN_21mic_H50_0422_fot_49A-10177_W_tif
 62
0
  1
PNOA-H_AMS_1956-57_33k_ES_PAN_21mic_H50_0422_fot_49A-10177_W.tif
 40
41.79052
  10
189829.691
  20
4567608.043
  0
POLYLINE
  8
PNOA-H_AMS_1956-57_33k_ES_PAN_21mic_H50_0422_fot_49A-10176_W_tif
  70
9
  66
1
  0
VERTEX
  8
PNOA-H_AMS_1956-57_33k_ES_PAN_21mic_H50_0422_fot_49A-10176_W_tif
  70
32
  10
190937.000
  20
4568682.793
  30
408.6
  0
VERTEX
  8
PNOA-H_AMS_1956-57_33k_ES_PAN_21mic_H50_0422_fot_49A-10176_W_tif
  70
32
  10
190942.000
  20
4568772.793
  30
236.46
  0
VERTEX
  8
PNOA-H_AMS_1956-57_33k_ES_PAN_21mic_H50_0422_fot_49A-10176_W_tif
  70
32
  10
190980.000
  20
4569386.793
  30
561.8
  0
VERTEX
  8
PNOA-H_AMS_1956-57_33k_ES_PAN_21mic_H50_0422_fot_49A-10176_W_tif
  70
32
  10
190980.000
  20
4569390.293
  30
559.6
  0
VERTEX
  8
PNOA-H_AMS_1956-57_33k_ES_PAN_21mic_H50_0422_fot_49A-10176_W_tif
  70
32
  10
190982.000
  20
4569419.793
  30
523.4
  0
VERTEX
  8
PNOA-H_AMS_1956-57_33k_ES_PAN_21mic_H50_0422_fot_49A-10176_W_tif
  70
32
  10
190994.000
  20
4569618.293
  30
604.56
  0
VERTEX
  8
PNOA-H_AMS_1956-57_33k_ES_PAN_21mic_H50_0422_fot_49A-10176_W_tif
  70
32
  10
191109.000
  20
4569632.293
  30
513
  0
VERTEX
  8
PNOA-H_AMS_1956-57_33k_ES_PAN_21mic_H50_0422_fot_49A-10176_W_tif
  70
32
  10
191109.500
  20
4569633.293
  30
513.6
  0
VERTEX
  8
PNOA-H_AMS_1956-57_33k_ES_PAN_21mic_H50_0422_fot_49A-10176_W_tif
  70
32
  10
191108.000
  20
4569634.793
  30
516
  0
VERTEX
  8
PNOA-H_AMS_1956-57_33k_ES_PAN_21mic_H50_0422_fot_49A-10176_W_tif
  70
32
  10
191108.000
  20
4569639.793
  30
520.8
  0
VERTEX
  8
PNOA-H_AMS_1956-57_33k_ES_PAN_21mic_H50_0422_fot_49A-10176_W_tif
  70
32
  10
191132.000
  20
4569635.293
  30
530.36
  0
VERTEX
  8
PNOA-H_AMS_1956-57_33k_ES_PAN_21mic_H50_0422_fot_49A-10176_W_tif
  70
32
  10
191133.500
  20
4569635.293
  30
532.58
  0
VERTEX
  8
PNOA-H_AMS_1956-57_33k_ES_PAN_21mic_H50_0422_fot_49A-10176_W_tif
  70
32
  10
192934.500
  20
4569857.293
  30
666
  0
VERTEX
  8
PNOA-H_AMS_1956-57_33k_ES_PAN_21mic_H50_0422_fot_49A-10176_W_tif
  70
32
  10
193745.500
  20
4569432.793
  30
705
  0
VERTEX
  8
PNOA-H_AMS_1956-57_33k_ES_PAN_21mic_H50_0422_fot_49A-10176_W_tif
  70
32
  10
193504.500
  20
4565182.293
  30
629
  0
VERTEX
  8
PNOA-H_AMS_1956-57_33k_ES_PAN_21mic_H50_0422_fot_49A-10176_W_tif
  70
32
  10
193503.500
  20
4565170.793
  30
630.51
  0
VERTEX
  8
PNOA-H_AMS_1956-57_33k_ES_PAN_21mic_H50_0422_fot_49A-10176_W_tif
  70
32
  10
193500.500
  20
4565170.293
  30
630.94
  0
VERTEX
  8
PNOA-H_AMS_1956-57_33k_ES_PAN_21mic_H50_0422_fot_49A-10176_W_tif
  70
32
  10
191272.000
  20
4564969.793
  30
700
  0
VERTEX
  8
PNOA-H_AMS_1956-57_33k_ES_PAN_21mic_H50_0422_fot_49A-10176_W_tif
  70
32
  10
190728.000
  20
4565264.793
  30
659.2
  0
SEQEND
  8
PNOA-H_AMS_1956-57_33k_ES_PAN_21mic_H50_0422_fot_49A-10176_W_tif
  0
TEXT
  8
PNOA-H_AMS_1956-57_33k_ES_PAN_21mic_H50_0422_fot_49A-10176_W_tif
 62
0
  1
PNOA-H_AMS_1956-57_33k_ES_PAN_21mic_H50_0422_fot_49A-10176_W.tif
 40
41.79052
  10
192245.200
  20
4567413.543
  0
POLYLINE
  8
PNOA-H_AMS_1956-57_33k_ES_PAN_21mic_H50_0422_fot_48A-10181_E_tif
  70
9
  66
1
  0
VERTEX
  8
PNOA-H_AMS_1956-57_33k_ES_PAN_21mic_H50_0422_fot_48A-10181_E_tif
  70
32
  10
191130.000
  20
4573475.293
  30
-16871.305
  0
VERTEX
  8
PNOA-H_AMS_1956-57_33k_ES_PAN_21mic_H50_0422_fot_48A-10181_E_tif
  70
32
  10
191130.000
  20
4573180.000
  30
-23687.121
  0
VERTEX
  8
PNOA-H_AMS_1956-57_33k_ES_PAN_21mic_H50_0422_fot_48A-10181_E_tif
  70
32
  10
191134.293
  20
4573180.000
  30
-19071.904
  0
VERTEX
  8
PNOA-H_AMS_1956-57_33k_ES_PAN_21mic_H50_0422_fot_48A-10181_E_tif
  70
32
  10
191134.500
  20
4573179.793
  30
-14470.15
  0
VERTEX
  8
PNOA-H_AMS_1956-57_33k_ES_PAN_21mic_H50_0422_fot_48A-10181_E_tif
  70
32
  10
193190.500
  20
4573179.793
  30
-16133.5
  0
VERTEX
  8
PNOA-H_AMS_1956-57_33k_ES_PAN_21mic_H50_0422_fot_48A-10181_E_tif
  70
32
  10
192934.500
  20
4569857.293
  30
666
  0
VERTEX
  8
PNOA-H_AMS_1956-57_33k_ES_PAN_21mic_H50_0422_fot_48A-10181_E_tif
  70
32
  10
191133.500
  20
4569635.293
  30
532.58
  0
VERTEX
  8
PNOA-H_AMS_1956-57_33k_ES_PAN_21mic_H50_0422_fot_48A-10181_E_tif
  70
32
  10
191132.000
  20
4569635.293
  30
530.36
  0
VERTEX
  8
PNOA-H_AMS_1956-57_33k_ES_PAN_21mic_H50_0422_fot_48A-10181_E_tif
  70
32
  10
191108.000
  20
4569639.793
  30
520.8
  0
VERTEX
  8
PNOA-H_AMS_1956-57_33k_ES_PAN_21mic_H50_0422_fot_48A-10181_E_tif
  70
32
  10
191109.000
  20
4569632.293
  30
513
  0
VERTEX
  8
PNOA-H_AMS_1956-57_33k_ES_PAN_21mic_H50_0422_fot_48A-10181_E_tif
  70
32
  10
190993.500
  20
4569618.293
  30
604.74
  0
VERTEX
  8
PNOA-H_AMS_1956-57_33k_ES_PAN_21mic_H50_0422_fot_48A-10181_E_tif
  70
32
  10
190007.500
  20
4570084.293
  30
-16033
  0
VERTEX
  8
PNOA-H_AMS_1956-57_33k_ES_PAN_21mic_H50_0422_fot_48A-10181_E_tif
  70
32
  10
190007.500
  20
4570337.793
  30
-17700.551
  0
VERTEX
  8
PNOA-H_AMS_1956-57_33k_ES_PAN_21mic_H50_0422_fot_48A-10181_E_tif
  70
32
  10
190019.500
  20
4570349.793
  30
-17700.1
  0
VERTEX
  8
PNOA-H_AMS_1956-57_33k_ES_PAN_21mic_H50_0422_fot_48A-10181_E_tif
  70
32
  10
190025.500
  20
4570349.793
  30
-14351.9
  0
VERTEX
  8
PNOA-H_AMS_1956-57_33k_ES_PAN_21mic_H50_0422_fot_48A-10181_E_tif
  70
32
  10
190029.500
  20
4570354.793
  30
-17700.1
  0
VERTEX
  8
PNOA-H_AMS_1956-57_33k_ES_PAN_21mic_H50_0422_fot_48A-10181_E_tif
  70
32
  10
190035.500
  20
4570354.793
  30
-14351.8
  0
VERTEX
  8
PNOA-H_AMS_1956-57_33k_ES_PAN_21mic_H50_0422_fot_48A-10181_E_tif
  70
32
  10
190044.500
  20
4570364.793
  30
-17699.65
  0
VERTEX
  8
PNOA-H_AMS_1956-57_33k_ES_PAN_21mic_H50_0422_fot_48A-10181_E_tif
  70
32
  10
190050.500
  20
4570364.793
  30
-14351.25
  0
VERTEX
  8
PNOA-H_AMS_1956-57_33k_ES_PAN_21mic_H50_0422_fot_48A-10181_E_tif
  70
32
  10
190054.500
  20
4570369.793
  30
-17699.199
  0
VERTEX
  8
PNOA-H_AMS_1956-57_33k_ES_PAN_21mic_H50_0422_fot_48A-10181_E_tif
  70
32
  10
190060.500
  20
4570369.793
  30
-14350.8
  0
VERTEX
  8
PNOA-H_AMS_1956-57_33k_ES_PAN_21mic_H50_0422_fot_48A-10181_E_tif
  70
32
  10
190069.500
  20
4570379.793
  30
-17698.75
  0
VERTEX
  8
PNOA-H_AMS_1956-57_33k_ES_PAN_21mic_H50_0422_fot_48A-10181_E_tif
  70
32
  10
190075.500
  20
4570379.793
  30
-14350.15
  0
VERTEX
  8
PNOA-H_AMS_1956-57_33k_ES_PAN_21mic_H50_0422_fot_48A-10181_E_tif
  70
32
  10
190084.500
  20
4570389.793
  30
-17697.85
  0
VERTEX
  8
PNOA-H_AMS_1956-57_33k_ES_PAN_21mic_H50_0422_fot_48A-10181_E_tif
  70
32
  10
190090.500
  20
4570389.793
  30
-14349.05
  0
VERTEX
  8
PNOA-H_AMS_1956-57_33k_ES_PAN_21mic_H50_0422_fot_48A-10181_E_tif
  70
32
  10
190094.500
  20
4570394.793
  30
-17697.4
  0
VERTEX
  8
PNOA-H_AMS_1956-57_33k_ES_PAN_21mic_H50_0422_fot_48A-10181_E_tif
  70
32
  10
190100.500
  20
4570394.793
  30
-14348.5
  0
VERTEX
  8
PNOA-H_AMS_1956-57_33k_ES_PAN_21mic_H50_0422_fot_48A-10181_E_tif
  70
32
  10
190109.500
  20
4570404.793
  30
-17696.5
  0
VERTEX
  8
PNOA-H_AMS_1956-57_33k_ES_PAN_21mic_H50_0422_fot_48A-10181_E_tif
  70
32
  10
190115.500
  20
4570404.793
  30
-14347.5
  0
VERTEX
  8
PNOA-H_AMS_1956-57_33k_ES_PAN_21mic_H50_0422_fot_48A-10181_E_tif
  70
32
  10
190124.500
  20
4570414.793
  30
-17696.051
  0
VERTEX
  8
PNOA-H_AMS_1956-57_33k_ES_PAN_21mic_H50_0422_fot_48A-10181_E_tif
  70
32
  10
190130.500
  20
4570414.793
  30
-14346.9
  0
VERTEX
  8
PNOA-H_AMS_1956-57_33k_ES_PAN_21mic_H50_0422_fot_48A-10181_E_tif
  70
32
  10
190134.500
  20
4570419.793
  30
-17695.6
  0
VERTEX
  8
PNOA-H_AMS_1956-57_33k_ES_PAN_21mic_H50_0422_fot_48A-10181_E_tif
  70
32
  10
190140.500
  20
4570419.793
  30
-14346.35
  0
VERTEX
  8
PNOA-H_AMS_1956-57_33k_ES_PAN_21mic_H50_0422_fot_48A-10181_E_tif
  70
32
  10
190149.500
  20
4570429.793
  30
-17695.15
  0
VERTEX
  8
PNOA-H_AMS_1956-57_33k_ES_PAN_21mic_H50_0422_fot_48A-10181_E_tif
  70
32
  10
190155.500
  20
4570429.793
  30
-14345.8
  0
VERTEX
  8
PNOA-H_AMS_1956-57_33k_ES_PAN_21mic_H50_0422_fot_48A-10181_E_tif
  70
32
  10
190164.500
  20
4570439.793
  30
-17694.699
  0
VERTEX
  8
PNOA-H_AMS_1956-57_33k_ES_PAN_21mic_H50_0422_fot_48A-10181_E_tif
  70
32
  10
190170.500
  20
4570439.793
  30
-14345.35
  0
VERTEX
  8
PNOA-H_AMS_1956-57_33k_ES_PAN_21mic_H50_0422_fot_48A-10181_E_tif
  70
32
  10
190174.500
  20
4570444.793
  30
-17695.15
  0
VERTEX
  8
PNOA-H_AMS_1956-57_33k_ES_PAN_21mic_H50_0422_fot_48A-10181_E_tif
  70
32
  10
190180.500
  20
4570444.793
  30
-14345.9
  0
VERTEX
  8
PNOA-H_AMS_1956-57_33k_ES_PAN_21mic_H50_0422_fot_48A-10181_E_tif
  70
32
  10
190194.500
  20
4570459.793
  30
-17695.6
  0
VERTEX
  8
PNOA-H_AMS_1956-57_33k_ES_PAN_21mic_H50_0422_fot_48A-10181_E_tif
  70
32
  10
190200.500
  20
4570459.793
  30
-14346.4
  0
VERTEX
  8
PNOA-H_AMS_1956-57_33k_ES_PAN_21mic_H50_0422_fot_48A-10181_E_tif
  70
32
  10
190214.500
  20
4570474.793
  30
-17696.051
  0
VERTEX
  8
PNOA-H_AMS_1956-57_33k_ES_PAN_21mic_H50_0422_fot_48A-10181_E_tif
  70
32
  10
190220.500
  20
4570474.793
  30
-14346.95
  0
VERTEX
  8
PNOA-H_AMS_1956-57_33k_ES_PAN_21mic_H50_0422_fot_48A-10181_E_tif
  70
32
  10
190234.500
  20
4570489.793
  30
-17696.5
  0
VERTEX
  8
PNOA-H_AMS_1956-57_33k_ES_PAN_21mic_H50_0422_fot_48A-10181_E_tif
  70
32
  10
190240.500
  20
4570489.793
  30
-14347.6
  0
VERTEX
  8
PNOA-H_AMS_1956-57_33k_ES_PAN_21mic_H50_0422_fot_48A-10181_E_tif
  70
32
  10
190259.500
  20
4570509.793
  30
-17697.85
  0
VERTEX
  8
PNOA-H_AMS_1956-57_33k_ES_PAN_21mic_H50_0422_fot_48A-10181_E_tif
  70
32
  10
190265.500
  20
4570509.793
  30
-14349.15
  0
VERTEX
  8
PNOA-H_AMS_1956-57_33k_ES_PAN_21mic_H50_0422_fot_48A-10181_E_tif
  70
32
  10
190279.500
  20
4570524.793
  30
-17698.301
  0
VERTEX
  8
PNOA-H_AMS_1956-57_33k_ES_PAN_21mic_H50_0422_fot_48A-10181_E_tif
  70
32
  10
190285.500
  20
4570524.793
  30
-14349.7
  0
VERTEX
  8
PNOA-H_AMS_1956-57_33k_ES_PAN_21mic_H50_0422_fot_48A-10181_E_tif
  70
32
  10
190299.500
  20
4570539.793
  30
-17697.85
  0
VERTEX
  8
PNOA-H_AMS_1956-57_33k_ES_PAN_21mic_H50_0422_fot_48A-10181_E_tif
  70
32
  10
190305.500
  20
4570539.793
  30
-14349.25
  0
VERTEX
  8
PNOA-H_AMS_1956-57_33k_ES_PAN_21mic_H50_0422_fot_48A-10181_E_tif
  70
32
  10
190314.500
  20
4570549.793
  30
-17698.301
  0
VERTEX
  8
PNOA-H_AMS_1956-57_33k_ES_PAN_21mic_H50_0422_fot_48A-10181_E_tif
  70
32
  10
190320.500
  20
4570549.793
  30
-14349.75
  0
VERTEX
  8
PNOA-H_AMS_1956-57_33k_ES_PAN_21mic_H50_0422_fot_48A-10181_E_tif
  70
32
  10
190329.500
  20
4570559.793
  30
-17698.75
  0
VERTEX
  8
PNOA-H_AMS_1956-57_33k_ES_PAN_21mic_H50_0422_fot_48A-10181_E_tif
  70
32
  10
190335.500
  20
4570559.793
  30
-14350.3
  0
VERTEX
  8
PNOA-H_AMS_1956-57_33k_ES_PAN_21mic_H50_0422_fot_48A-10181_E_tif
  70
32
  10
190349.500
  20
4570574.793
  30
-17699.199
  0
VERTEX
  8
PNOA-H_AMS_1956-57_33k_ES_PAN_21mic_H50_0422_fot_48A-10181_E_tif
  70
32
  10
190355.500
  20
4570574.793
  30
-14350.8
  0
VERTEX
  8
PNOA-H_AMS_1956-57_33k_ES_PAN_21mic_H50_0422_fot_48A-10181_E_tif
  70
32
  10
190364.500
  20
4570584.793
  30
-17699.199
  0
VERTEX
  8
PNOA-H_AMS_1956-57_33k_ES_PAN_21mic_H50_0422_fot_48A-10181_E_tif
  70
32
  10
190370.500
  20
4570584.793
  30
-14350.8
  0
VERTEX
  8
PNOA-H_AMS_1956-57_33k_ES_PAN_21mic_H50_0422_fot_48A-10181_E_tif
  70
32
  10
190379.500
  20
4570594.793
  30
-17699.199
  0
VERTEX
  8
PNOA-H_AMS_1956-57_33k_ES_PAN_21mic_H50_0422_fot_48A-10181_E_tif
  70
32
  10
190385.500
  20
4570594.793
  30
-14350.8
  0
VERTEX
  8
PNOA-H_AMS_1956-57_33k_ES_PAN_21mic_H50_0422_fot_48A-10181_E_tif
  70
32
  10
190404.500
  20
4570614.793
  30
-17699.65
  0
VERTEX
  8
PNOA-H_AMS_1956-57_33k_ES_PAN_21mic_H50_0422_fot_48A-10181_E_tif
  70
32
  10
190410.500
  20
4570614.793
  30
-14351.4
  0
VERTEX
  8
PNOA-H_AMS_1956-57_33k_ES_PAN_21mic_H50_0422_fot_48A-10181_E_tif
  70
32
  10
190429.500
  20
4570634.793
  30
-17701
  0
VERTEX
  8
PNOA-H_AMS_1956-57_33k_ES_PAN_21mic_H50_0422_fot_48A-10181_E_tif
  70
32
  10
190435.500
  20
4570634.793
  30
-14353.05
  0
VERTEX
  8
PNOA-H_AMS_1956-57_33k_ES_PAN_21mic_H50_0422_fot_48A-10181_E_tif
  70
32
  10
190449.500
  20
4570649.793
  30
-17701.9
  0
VERTEX
  8
PNOA-H_AMS_1956-57_33k_ES_PAN_21mic_H50_0422_fot_48A-10181_E_tif
  70
32
  10
190455.500
  20
4570649.793
  30
-14354.2
  0
VERTEX
  8
PNOA-H_AMS_1956-57_33k_ES_PAN_21mic_H50_0422_fot_48A-10181_E_tif
  70
32
  10
190474.500
  20
4570669.793
  30
-17703.25
  0
VERTEX
  8
PNOA-H_AMS_1956-57_33k_ES_PAN_21mic_H50_0422_fot_48A-10181_E_tif
  70
32
  10
190480.500
  20
4570669.793
  30
-14355.8
  0
VERTEX
  8
PNOA-H_AMS_1956-57_33k_ES_PAN_21mic_H50_0422_fot_48A-10181_E_tif
  70
32
  10
190489.500
  20
4570679.793
  30
-17703.699
  0
VERTEX
  8
PNOA-H_AMS_1956-57_33k_ES_PAN_21mic_H50_0422_fot_48A-10181_E_tif
  70
32
  10
190495.500
  20
4570679.793
  30
-14356.4
  0
VERTEX
  8
PNOA-H_AMS_1956-57_33k_ES_PAN_21mic_H50_0422_fot_48A-10181_E_tif
  70
32
  10
190509.500
  20
4570694.793
  30
-17704.6
  0
VERTEX
  8
PNOA-H_AMS_1956-57_33k_ES_PAN_21mic_H50_0422_fot_48A-10181_E_tif
  70
32
  10
190515.500
  20
4570694.793
  30
-14357.4
  0
VERTEX
  8
PNOA-H_AMS_1956-57_33k_ES_PAN_21mic_H50_0422_fot_48A-10181_E_tif
  70
32
  10
190529.500
  20
4570709.793
  30
-17705.051
  0
VERTEX
  8
PNOA-H_AMS_1956-57_33k_ES_PAN_21mic_H50_0422_fot_48A-10181_E_tif
  70
32
  10
190535.500
  20
4570709.793
  30
-14357.95
  0
VERTEX
  8
PNOA-H_AMS_1956-57_33k_ES_PAN_21mic_H50_0422_fot_48A-10181_E_tif
  70
32
  10
190554.500
  20
4570729.793
  30
-17705.5
  0
VERTEX
  8
PNOA-H_AMS_1956-57_33k_ES_PAN_21mic_H50_0422_fot_48A-10181_E_tif
  70
32
  10
190560.500
  20
4570729.793
  30
-14358.6
  0
VERTEX
  8
PNOA-H_AMS_1956-57_33k_ES_PAN_21mic_H50_0422_fot_48A-10181_E_tif
  70
32
  10
190574.500
  20
4570744.793
  30
-17706.4
  0
VERTEX
  8
PNOA-H_AMS_1956-57_33k_ES_PAN_21mic_H50_0422_fot_48A-10181_E_tif
  70
32
  10
190580.500
  20
4570744.793
  30
-14359.7
  0
VERTEX
  8
PNOA-H_AMS_1956-57_33k_ES_PAN_21mic_H50_0422_fot_48A-10181_E_tif
  70
32
  10
190589.500
  20
4570754.793
  30
-17707.301
  0
VERTEX
  8
PNOA-H_AMS_1956-57_33k_ES_PAN_21mic_H50_0422_fot_48A-10181_E_tif
  70
32
  10
190595.500
  20
4570754.793
  30
-14360.75
  0
VERTEX
  8
PNOA-H_AMS_1956-57_33k_ES_PAN_21mic_H50_0422_fot_48A-10181_E_tif
  70
32
  10
190614.500
  20
4570774.793
  30
-17708.199
  0
VERTEX
  8
PNOA-H_AMS_1956-57_33k_ES_PAN_21mic_H50_0422_fot_48A-10181_E_tif
  70
32
  10
190620.500
  20
4570774.793
  30
-14361.9
  0
VERTEX
  8
PNOA-H_AMS_1956-57_33k_ES_PAN_21mic_H50_0422_fot_48A-10181_E_tif
  70
32
  10
190629.500
  20
4570784.793
  30
-17709.1
  0
VERTEX
  8
PNOA-H_AMS_1956-57_33k_ES_PAN_21mic_H50_0422_fot_48A-10181_E_tif
  70
32
  10
190635.500
  20
4570784.793
  30
-14362.9
  0
VERTEX
  8
PNOA-H_AMS_1956-57_33k_ES_PAN_21mic_H50_0422_fot_48A-10181_E_tif
  70
32
  10
190649.500
  20
4570799.793
  30
-17709.551
  0
VERTEX
  8
PNOA-H_AMS_1956-57_33k_ES_PAN_21mic_H50_0422_fot_48A-10181_E_tif
  70
32
  10
190655.500
  20
4570799.793
  30
-14363.45
  0
VERTEX
  8
PNOA-H_AMS_1956-57_33k_ES_PAN_21mic_H50_0422_fot_48A-10181_E_tif
  70
32
  10
190664.500
  20
4570809.793
  30
-17709.551
  0
VERTEX
  8
PNOA-H_AMS_1956-57_33k_ES_PAN_21mic_H50_0422_fot_48A-10181_E_tif
  70
32
  10
190670.500
  20
4570809.793
  30
-14362.9
  0
VERTEX
  8
PNOA-H_AMS_1956-57_33k_ES_PAN_21mic_H50_0422_fot_48A-10181_E_tif
  70
32
  10
190684.500
  20
4570824.793
  30
-17708.65
  0
VERTEX
  8
PNOA-H_AMS_1956-57_33k_ES_PAN_21mic_H50_0422_fot_48A-10181_E_tif
  70
32
  10
190690.500
  20
4570824.793
  30
-14362.3
  0
VERTEX
  8
PNOA-H_AMS_1956-57_33k_ES_PAN_21mic_H50_0422_fot_48A-10181_E_tif
  70
32
  10
190694.500
  20
4570829.793
  30
-17708.199
  0
VERTEX
  8
PNOA-H_AMS_1956-57_33k_ES_PAN_21mic_H50_0422_fot_48A-10181_E_tif
  70
32
  10
190700.500
  20
4570829.793
  30
-14361.75
  0
VERTEX
  8
PNOA-H_AMS_1956-57_33k_ES_PAN_21mic_H50_0422_fot_48A-10181_E_tif
  70
32
  10
190709.500
  20
4570839.793
  30
-17707.301
  0
VERTEX
  8
PNOA-H_AMS_1956-57_33k_ES_PAN_21mic_H50_0422_fot_48A-10181_E_tif
  70
32
  10
190715.500
  20
4570839.793
  30
-14360.65
  0
VERTEX
  8
PNOA-H_AMS_1956-57_33k_ES_PAN_21mic_H50_0422_fot_48A-10181_E_tif
  70
32
  10
190724.500
  20
4570849.793
  30
-17706.85
  0
VERTEX
  8
PNOA-H_AMS_1956-57_33k_ES_PAN_21mic_H50_0422_fot_48A-10181_E_tif
  70
32
  10
190730.500
  20
4570849.793
  30
-14360.15
  0
VERTEX
  8
PNOA-H_AMS_1956-57_33k_ES_PAN_21mic_H50_0422_fot_48A-10181_E_tif
  70
32
  10
190739.500
  20
4570859.793
  30
-17706.85
  0
VERTEX
  8
PNOA-H_AMS_1956-57_33k_ES_PAN_21mic_H50_0422_fot_48A-10181_E_tif
  70
32
  10
190745.500
  20
4570859.793
  30
-14360.15
  0
VERTEX
  8
PNOA-H_AMS_1956-57_33k_ES_PAN_21mic_H50_0422_fot_48A-10181_E_tif
  70
32
  10
190754.500
  20
4570869.793
  30
-17706.85
  0
VERTEX
  8
PNOA-H_AMS_1956-57_33k_ES_PAN_21mic_H50_0422_fot_48A-10181_E_tif
  70
32
  10
190760.500
  20
4570869.793
  30
-14360.15
  0
VERTEX
  8
PNOA-H_AMS_1956-57_33k_ES_PAN_21mic_H50_0422_fot_48A-10181_E_tif
  70
32
  10
190774.500
  20
4570884.793
  30
-17706.85
  0
VERTEX
  8
PNOA-H_AMS_1956-57_33k_ES_PAN_21mic_H50_0422_fot_48A-10181_E_tif
  70
32
  10
190780.500
  20
4570884.793
  30
-14360.15
  0
VERTEX
  8
PNOA-H_AMS_1956-57_33k_ES_PAN_21mic_H50_0422_fot_48A-10181_E_tif
  70
32
  10
190789.500
  20
4570894.793
  30
-17706.85
  0
VERTEX
  8
PNOA-H_AMS_1956-57_33k_ES_PAN_21mic_H50_0422_fot_48A-10181_E_tif
  70
32
  10
190795.500
  20
4570894.793
  30
-14360.15
  0
VERTEX
  8
PNOA-H_AMS_1956-57_33k_ES_PAN_21mic_H50_0422_fot_48A-10181_E_tif
  70
32
  10
190809.500
  20
4570909.793
  30
-17706.85
  0
VERTEX
  8
PNOA-H_AMS_1956-57_33k_ES_PAN_21mic_H50_0422_fot_48A-10181_E_tif
  70
32
  10
190815.500
  20
4570909.793
  30
-14360.15
  0
VERTEX
  8
PNOA-H_AMS_1956-57_33k_ES_PAN_21mic_H50_0422_fot_48A-10181_E_tif
  70
32
  10
190819.500
  20
4570914.793
  30
-17706.85
  0
VERTEX
  8
PNOA-H_AMS_1956-57_33k_ES_PAN_21mic_H50_0422_fot_48A-10181_E_tif
  70
32
  10
190825.500
  20
4570914.793
  30
-14360.15
  0
VERTEX
  8
PNOA-H_AMS_1956-57_33k_ES_PAN_21mic_H50_0422_fot_48A-10181_E_tif
  70
32
  10
190839.500
  20
4570929.793
  30
-17706.4
  0
VERTEX
  8
PNOA-H_AMS_1956-57_33k_ES_PAN_21mic_H50_0422_fot_48A-10181_E_tif
  70
32
  10
190845.500
  20
4570929.793
  30
-14359.65
  0
VERTEX
  8
PNOA-H_AMS_1956-57_33k_ES_PAN_21mic_H50_0422_fot_48A-10181_E_tif
  70
32
  10
190854.500
  20
4570939.793
  30
-17706.85
  0
VERTEX
  8
PNOA-H_AMS_1956-57_33k_ES_PAN_21mic_H50_0422_fot_48A-10181_E_tif
  70
32
  10
190860.500
  20
4570939.793
  30
-14360.15
  0
VERTEX
  8
PNOA-H_AMS_1956-57_33k_ES_PAN_21mic_H50_0422_fot_48A-10181_E_tif
  70
32
  10
190869.500
  20
4570949.793
  30
-17706.85
  0
VERTEX
  8
PNOA-H_AMS_1956-57_33k_ES_PAN_21mic_H50_0422_fot_48A-10181_E_tif
  70
32
  10
190875.500
  20
4570949.793
  30
-14360.15
  0
VERTEX
  8
PNOA-H_AMS_1956-57_33k_ES_PAN_21mic_H50_0422_fot_48A-10181_E_tif
  70
32
  10
190884.500
  20
4570959.793
  30
-17706.85
  0
VERTEX
  8
PNOA-H_AMS_1956-57_33k_ES_PAN_21mic_H50_0422_fot_48A-10181_E_tif
  70
32
  10
190890.500
  20
4570959.793
  30
-14360.1
  0
VERTEX
  8
PNOA-H_AMS_1956-57_33k_ES_PAN_21mic_H50_0422_fot_48A-10181_E_tif
  70
32
  10
190899.500
  20
4570969.793
  30
-17706.4
  0
VERTEX
  8
PNOA-H_AMS_1956-57_33k_ES_PAN_21mic_H50_0422_fot_48A-10181_E_tif
  70
32
  10
190905.500
  20
4570969.793
  30
-14359.6
  0
VERTEX
  8
PNOA-H_AMS_1956-57_33k_ES_PAN_21mic_H50_0422_fot_48A-10181_E_tif
  70
32
  10
190914.500
  20
4570979.793
  30
-17706.4
  0
VERTEX
  8
PNOA-H_AMS_1956-57_33k_ES_PAN_21mic_H50_0422_fot_48A-10181_E_tif
  70
32
  10
190920.500
  20
4570979.793
  30
-14359.55
  0
VERTEX
  8
PNOA-H_AMS_1956-57_33k_ES_PAN_21mic_H50_0422_fot_48A-10181_E_tif
  70
32
  10
190934.500
  20
4570994.793
  30
-17705.949
  0
VERTEX
  8
PNOA-H_AMS_1956-57_33k_ES_PAN_21mic_H50_0422_fot_48A-10181_E_tif
  70
32
  10
190940.500
  20
4570994.793
  30
-14359.05
  0
VERTEX
  8
PNOA-H_AMS_1956-57_33k_ES_PAN_21mic_H50_0422_fot_48A-10181_E_tif
  70
32
  10
190944.500
  20
4570999.793
  30
-17705.949
  0
VERTEX
  8
PNOA-H_AMS_1956-57_33k_ES_PAN_21mic_H50_0422_fot_48A-10181_E_tif
  70
32
  10
190950.500
  20
4570999.793
  30
-14359.05
  0
VERTEX
  8
PNOA-H_AMS_1956-57_33k_ES_PAN_21mic_H50_0422_fot_48A-10181_E_tif
  70
32
  10
190964.500
  20
4571014.793
  30
-17705.949
  0
VERTEX
  8
PNOA-H_AMS_1956-57_33k_ES_PAN_21mic_H50_0422_fot_48A-10181_E_tif
  70
32
  10
190970.500
  20
4571014.793
  30
-14359.05
  0
VERTEX
  8
PNOA-H_AMS_1956-57_33k_ES_PAN_21mic_H50_0422_fot_48A-10181_E_tif
  70
32
  10
190979.500
  20
4571024.793
  30
-17705.949
  0
VERTEX
  8
PNOA-H_AMS_1956-57_33k_ES_PAN_21mic_H50_0422_fot_48A-10181_E_tif
  70
32
  10
190985.500
  20
4571024.793
  30
-14359.15
  0
VERTEX
  8
PNOA-H_AMS_1956-57_33k_ES_PAN_21mic_H50_0422_fot_48A-10181_E_tif
  70
32
  10
190987.500
  20
4571026.793
  30
-14359.55
  0
VERTEX
  8
PNOA-H_AMS_1956-57_33k_ES_PAN_21mic_H50_0422_fot_48A-10181_E_tif
  70
32
  10
190987.500
  20
4573472.793
  30
-16135.5
  0
VERTEX
  8
PNOA-H_AMS_1956-57_33k_ES_PAN_21mic_H50_0422_fot_48A-10181_E_tif
  70
32
  10
190994.000
  20
4573478.793
  30
-9482.9
  0
VERTEX
  8
PNOA-H_AMS_1956-57_33k_ES_PAN_21mic_H50_0422_fot_48A-10181_E_tif
  70
32
  10
190994.500
  20
4573479.793
  30
-16135.5
  0
VERTEX
  8
PNOA-H_AMS_1956-57_33k_ES_PAN_21mic_H50_0422_fot_48A-10181_E_tif
  70
32
  10
191125.500
  20
4573479.793
  30
-16135
  0
VERTEX
  8
PNOA-H_AMS_1956-57_33k_ES_PAN_21mic_H50_0422_fot_48A-10181_E_tif
  70
32
  10
191130.000
  20
4573475.293
  30
-16871.305
  0
SEQEND
  8
PNOA-H_AMS_1956-57_33k_ES_PAN_21mic_H50_0422_fot_48A-10181_E_tif
  0
TEXT
  8
PNOA-H_AMS_1956-57_33k_ES_PAN_21mic_H50_0422_fot_48A-10181_E_tif
 62
0
  1
PNOA-H_AMS_1956-57_33k_ES_PAN_21mic_H50_0422_fot_48A-10181_E.tif
 40
41.79052
  10
192026.175
  20
4571549.043
  0
POLYLINE
  8
PNOA-H_AMS_1956-57_33k_ES_PAN_21mic_H50_0449_fot_50A-08770_E_tif
  70
9
  66
1
  0
VERTEX
  8
PNOA-H_AMS_1956-57_33k_ES_PAN_21mic_H50_0449_fot_50A-08770_E_tif
  70
32
  10
186784.500
  20
4566004.793
  30
-17708.199
  0
VERTEX
  8
PNOA-H_AMS_1956-57_33k_ES_PAN_21mic_H50_0449_fot_50A-08770_E_tif
  70
32
  10
186789.500
  20
4566004.793
  30
-16035
  0
VERTEX
  8
PNOA-H_AMS_1956-57_33k_ES_PAN_21mic_H50_0449_fot_50A-08770_E_tif
  70
32
  10
186791.000
  20
4565999.293
  30
697
  0
VERTEX
  8
PNOA-H_AMS_1956-57_33k_ES_PAN_21mic_H50_0449_fot_50A-08770_E_tif
  70
32
  10
186788.000
  20
4565996.293
  30
697
  0
VERTEX
  8
PNOA-H_AMS_1956-57_33k_ES_PAN_21mic_H50_0449_fot_50A-08770_E_tif
  70
32
  10
186783.000
  20
4565997.293
  30
-12688.6
  0
VERTEX
  8
PNOA-H_AMS_1956-57_33k_ES_PAN_21mic_H50_0449_fot_50A-08770_E_tif
  70
32
  10
186782.500
  20
4566002.793
  30
-17708.199
  0
VERTEX
  8
PNOA-H_AMS_1956-57_33k_ES_PAN_21mic_H50_0449_fot_50A-08770_E_tif
  70
32
  10
186784.000
  20
4566003.793
  30
-14027.16
  0
VERTEX
  8
PNOA-H_AMS_1956-57_33k_ES_PAN_21mic_H50_0449_fot_50A-08770_E_tif
  70
32
  10
186784.500
  20
4566004.793
  30
-17708.199
  0
SEQEND
  8
PNOA-H_AMS_1956-57_33k_ES_PAN_21mic_H50_0449_fot_50A-08770_E_tif
  0
TEXT
  8
PNOA-H_AMS_1956-57_33k_ES_PAN_21mic_H50_0449_fot_50A-08770_E_tif
 62
0
  1
PNOA-H_AMS_1956-57_33k_ES_PAN_21mic_H50_0449_fot_50A-08770_E.tif
 40
41.79052
  10
186786.682
  20
4566000.543
  0
POLYLINE
  8
PNOA-H_AMS_1956-57_33k_ES_PAN_21mic_H50_0449_fot_50A-08770_E_tif
  70
9
  66
1
  0
VERTEX
  8
PNOA-H_AMS_1956-57_33k_ES_PAN_21mic_H50_0449_fot_50A-08770_E_tif
  70
32
  10
186949.000
  20
4564593.793
  30
-14066.92
  0
VERTEX
  8
PNOA-H_AMS_1956-57_33k_ES_PAN_21mic_H50_0449_fot_50A-08770_E_tif
  70
32
  10
186949.500
  20
4564594.793
  30
-17740.15
  0
VERTEX
  8
PNOA-H_AMS_1956-57_33k_ES_PAN_21mic_H50_0449_fot_50A-08770_E_tif
  70
32
  10
186954.500
  20
4564594.793
  30
-16070.5
  0
VERTEX
  8
PNOA-H_AMS_1956-57_33k_ES_PAN_21mic_H50_0449_fot_50A-08770_E_tif
  70
32
  10
186956.000
  20
4564589.793
  30
626.1
  0
VERTEX
  8
PNOA-H_AMS_1956-57_33k_ES_PAN_21mic_H50_0449_fot_50A-08770_E_tif
  70
32
  10
186952.500
  20
4564586.293
  30
627.3
  0
VERTEX
  8
PNOA-H_AMS_1956-57_33k_ES_PAN_21mic_H50_0449_fot_50A-08770_E_tif
  70
32
  10
186948.000
  20
4564587.293
  30
-12730.6
  0
VERTEX
  8
PNOA-H_AMS_1956-57_33k_ES_PAN_21mic_H50_0449_fot_50A-08770_E_tif
  70
32
  10
186947.500
  20
4564592.793
  30
-17740.15
  0
SEQEND
  8
PNOA-H_AMS_1956-57_33k_ES_PAN_21mic_H50_0449_fot_50A-08770_E_tif
  0
TEXT
  8
PNOA-H_AMS_1956-57_33k_ES_PAN_21mic_H50_0449_fot_50A-08770_E_tif
 62
0
  1
PNOA-H_AMS_1956-57_33k_ES_PAN_21mic_H50_0449_fot_50A-08770_E.tif
 40
41.79052
  10
186951.740
  20
4564590.543
  0
POLYLINE
  8
PNOA-H_AMS_1956-57_33k_ES_PAN_21mic_H50_0449_fot_50A-08770_E_tif
  70
9
  66
1
  0
VERTEX
  8
PNOA-H_AMS_1956-57_33k_ES_PAN_21mic_H50_0449_fot_50A-08770_E_tif
  70
32
  10
186609.000
  20
4564343.793
  30
-14069.16
  0
VERTEX
  8
PNOA-H_AMS_1956-57_33k_ES_PAN_21mic_H50_0449_fot_50A-08770_E_tif
  70
32
  10
186609.500
  20
4564344.793
  30
-17741.949
  0
VERTEX
  8
PNOA-H_AMS_1956-57_33k_ES_PAN_21mic_H50_0449_fot_50A-08770_E_tif
  70
32
  10
186614.500
  20
4564344.793
  30
-16072.5
  0
VERTEX
  8
PNOA-H_AMS_1956-57_33k_ES_PAN_21mic_H50_0449_fot_50A-08770_E_tif
  70
32
  10
186616.000
  20
4564339.793
  30
622.4
  0
VERTEX
  8
PNOA-H_AMS_1956-57_33k_ES_PAN_21mic_H50_0449_fot_50A-08770_E_tif
  70
32
  10
186612.500
  20
4564336.293
  30
623.1
  0
VERTEX
  8
PNOA-H_AMS_1956-57_33k_ES_PAN_21mic_H50_0449_fot_50A-08770_E_tif
  70
32
  10
186608.000
  20
4564337.293
  30
-12733
  0
VERTEX
  8
PNOA-H_AMS_1956-57_33k_ES_PAN_21mic_H50_0449_fot_50A-08770_E_tif
  70
32
  10
186607.500
  20
4564342.793
  30
-17741.949
  0
SEQEND
  8
PNOA-H_AMS_1956-57_33k_ES_PAN_21mic_H50_0449_fot_50A-08770_E_tif
  0
TEXT
  8
PNOA-H_AMS_1956-57_33k_ES_PAN_21mic_H50_0449_fot_50A-08770_E_tif
 62
0
  1
PNOA-H_AMS_1956-57_33k_ES_PAN_21mic_H50_0449_fot_50A-08770_E.tif
 40
41.79052
  10
186611.740
  20
4564340.543
  0
POLYLINE
  8
PNOA-H_AMS_1956-57_33k_ES_PAN_21mic_H50_0449_fot_50A-08770_E_tif
  70
9
  66
1
  0
VERTEX
  8
PNOA-H_AMS_1956-57_33k_ES_PAN_21mic_H50_0449_fot_50A-08770_E_tif
  70
32
  10
186344.000
  20
4564148.793
  30
-14066.36
  0
VERTEX
  8
PNOA-H_AMS_1956-57_33k_ES_PAN_21mic_H50_0449_fot_50A-08770_E_tif
  70
32
  10
186344.500
  20
4564149.793
  30
-17739.699
  0
VERTEX
  8
PNOA-H_AMS_1956-57_33k_ES_PAN_21mic_H50_0449_fot_50A-08770_E_tif
  70
32
  10
186349.500
  20
4564149.793
  30
-16070
  0
VERTEX
  8
PNOA-H_AMS_1956-57_33k_ES_PAN_21mic_H50_0449_fot_50A-08770_E_tif
  70
32
  10
186351.000
  20
4564144.793
  30
627.4
  0
VERTEX
  8
PNOA-H_AMS_1956-57_33k_ES_PAN_21mic_H50_0449_fot_50A-08770_E_tif
  70
32
  10
186347.500
  20
4564141.293
  30
628
  0
VERTEX
  8
PNOA-H_AMS_1956-57_33k_ES_PAN_21mic_H50_0449_fot_50A-08770_E_tif
  70
32
  10
186343.000
  20
4564142.293
  30
-12730
  0
VERTEX
  8
PNOA-H_AMS_1956-57_33k_ES_PAN_21mic_H50_0449_fot_50A-08770_E_tif
  70
32
  10
186342.500
  20
4564147.793
  30
-17739.699
  0
SEQEND
  8
PNOA-H_AMS_1956-57_33k_ES_PAN_21mic_H50_0449_fot_50A-08770_E_tif
  0
TEXT
  8
PNOA-H_AMS_1956-57_33k_ES_PAN_21mic_H50_0449_fot_50A-08770_E_tif
 62
0
  1
PNOA-H_AMS_1956-57_33k_ES_PAN_21mic_H50_0449_fot_50A-08770_E.tif
 40
41.79052
  10
186346.740
  20
4564145.543
  0
POLYLINE
  8
PNOA-H_AMS_1956-57_33k_ES_PAN_21mic_H50_0449_fot_50A-08772_E_tif
  70
9
  66
1
  0
VERTEX
  8
PNOA-H_AMS_1956-57_33k_ES_PAN_21mic_H50_0449_fot_50A-08772_E_tif
  70
32
  10
191231.615
  20
4563791.524
  30
691.359
  0
VERTEX
  8
PNOA-H_AMS_1956-57_33k_ES_PAN_21mic_H50_0449_fot_50A-08772_E_tif
  70
32
  10
190629.285
  20
4563816.932
  30
691.392
  0
VERTEX
  8
PNOA-H_AMS_1956-57_33k_ES_PAN_21mic_H50_0449_fot_50A-08772_E_tif
  70
32
  10
188209.580
  20
4563920.165
  30
619.397
  0
VERTEX
  8
PNOA-H_AMS_1956-57_33k_ES_PAN_21mic_H50_0449_fot_50A-08772_E_tif
  70
32
  10
188227.000
  20
4565131.793
  30
614.7
  0
VERTEX
  8
PNOA-H_AMS_1956-57_33k_ES_PAN_21mic_H50_0449_fot_50A-08772_E_tif
  70
32
  10
190715.000
  20
4565264.293
  30
658
  0
VERTEX
  8
PNOA-H_AMS_1956-57_33k_ES_PAN_21mic_H50_0449_fot_50A-08772_E_tif
  70
32
  10
190724.500
  20
4565264.793
  30
659.45
  0
VERTEX
  8
PNOA-H_AMS_1956-57_33k_ES_PAN_21mic_H50_0449_fot_50A-08772_E_tif
  70
32
  10
190729.500
  20
4565264.293
  30
659.06
  0
VERTEX
  8
PNOA-H_AMS_1956-57_33k_ES_PAN_21mic_H50_0449_fot_50A-08772_E_tif
  70
32
  10
191272.500
  20
4564969.793
  30
700
  0
SEQEND
  8
PNOA-H_AMS_1956-57_33k_ES_PAN_21mic_H50_0449_fot_50A-08772_E_tif
  0
TEXT
  8
PNOA-H_AMS_1956-57_33k_ES_PAN_21mic_H50_0449_fot_50A-08772_E_tif
 62
0
  1
PNOA-H_AMS_1956-57_33k_ES_PAN_21mic_H50_0449_fot_50A-08772_E.tif
 40
41.79052
  10
189741.040
  20
4564528.158
  0
POLYLINE
  8
PNOA-H_AMS_1956-57_33k_ES_PAN_21mic_H50_0449_fot_50A-08771_E_tif
  70
9
  66
1
  0
VERTEX
  8
PNOA-H_AMS_1956-57_33k_ES_PAN_21mic_H50_0449_fot_50A-08771_E_tif
  70
32
  10
188209.428
  20
4563920.172
  30
623.909
  0
VERTEX
  8
PNOA-H_AMS_1956-57_33k_ES_PAN_21mic_H50_0449_fot_50A-08771_E_tif
  70
32
  10
187132.911
  20
4563966.100
  30
-14393.6
  0
VERTEX
  8
PNOA-H_AMS_1956-57_33k_ES_PAN_21mic_H50_0449_fot_50A-08771_E_tif
  70
32
  10
186144.073
  20
4564008.763
  30
-15726.642
  0
VERTEX
  8
PNOA-H_AMS_1956-57_33k_ES_PAN_21mic_H50_0449_fot_50A-08771_E_tif
  70
32
  10
186149.500
  20
4564014.793
  30
-17740.6
  0
VERTEX
  8
PNOA-H_AMS_1956-57_33k_ES_PAN_21mic_H50_0449_fot_50A-08771_E_tif
  70
32
  10
186155.500
  20
4564014.793
  30
-14401.4
  0
VERTEX
  8
PNOA-H_AMS_1956-57_33k_ES_PAN_21mic_H50_0449_fot_50A-08771_E_tif
  70
32
  10
186164.500
  20
4564024.793
  30
-17740.6
  0
VERTEX
  8
PNOA-H_AMS_1956-57_33k_ES_PAN_21mic_H50_0449_fot_50A-08771_E_tif
  70
32
  10
186170.500
  20
4564024.793
  30
-14401.4
  0
VERTEX
  8
PNOA-H_AMS_1956-57_33k_ES_PAN_21mic_H50_0449_fot_50A-08771_E_tif
  70
32
  10
186189.500
  20
4564044.793
  30
-17741.949
  0
VERTEX
  8
PNOA-H_AMS_1956-57_33k_ES_PAN_21mic_H50_0449_fot_50A-08771_E_tif
  70
32
  10
186195.500
  20
4564044.793
  30
-14403.15
  0
VERTEX
  8
PNOA-H_AMS_1956-57_33k_ES_PAN_21mic_H50_0449_fot_50A-08771_E_tif
  70
32
  10
186204.500
  20
4564054.793
  30
-17741.949
  0
VERTEX
  8
PNOA-H_AMS_1956-57_33k_ES_PAN_21mic_H50_0449_fot_50A-08771_E_tif
  70
32
  10
186210.500
  20
4564054.793
  30
-14403.05
  0
VERTEX
  8
PNOA-H_AMS_1956-57_33k_ES_PAN_21mic_H50_0449_fot_50A-08771_E_tif
  70
32
  10
186224.500
  20
4564069.793
  30
-17742.85
  0
VERTEX
  8
PNOA-H_AMS_1956-57_33k_ES_PAN_21mic_H50_0449_fot_50A-08771_E_tif
  70
32
  10
186230.500
  20
4564069.793
  30
-14404.15
  0
VERTEX
  8
PNOA-H_AMS_1956-57_33k_ES_PAN_21mic_H50_0449_fot_50A-08771_E_tif
  70
32
  10
186239.500
  20
4564079.793
  30
-17742.4
  0
VERTEX
  8
PNOA-H_AMS_1956-57_33k_ES_PAN_21mic_H50_0449_fot_50A-08771_E_tif
  70
32
  10
186245.500
  20
4564079.793
  30
-14403.55
  0
VERTEX
  8
PNOA-H_AMS_1956-57_33k_ES_PAN_21mic_H50_0449_fot_50A-08771_E_tif
  70
32
  10
186254.500
  20
4564089.793
  30
-17741.949
  0
VERTEX
  8
PNOA-H_AMS_1956-57_33k_ES_PAN_21mic_H50_0449_fot_50A-08771_E_tif
  70
32
  10
186260.500
  20
4564089.793
  30
-14402.95
  0
VERTEX
  8
PNOA-H_AMS_1956-57_33k_ES_PAN_21mic_H50_0449_fot_50A-08771_E_tif
  70
32
  10
186269.500
  20
4564099.793
  30
-17741.051
  0
VERTEX
  8
PNOA-H_AMS_1956-57_33k_ES_PAN_21mic_H50_0449_fot_50A-08771_E_tif
  70
32
  10
186275.500
  20
4564099.793
  30
-14401.8
  0
VERTEX
  8
PNOA-H_AMS_1956-57_33k_ES_PAN_21mic_H50_0449_fot_50A-08771_E_tif
  70
32
  10
186279.500
  20
4564104.793
  30
-17740.15
  0
VERTEX
  8
PNOA-H_AMS_1956-57_33k_ES_PAN_21mic_H50_0449_fot_50A-08771_E_tif
  70
32
  10
186285.500
  20
4564104.793
  30
-14400.9
  0
VERTEX
  8
PNOA-H_AMS_1956-57_33k_ES_PAN_21mic_H50_0449_fot_50A-08771_E_tif
  70
32
  10
186294.500
  20
4564114.793
  30
-17740.15
  0
VERTEX
  8
PNOA-H_AMS_1956-57_33k_ES_PAN_21mic_H50_0449_fot_50A-08771_E_tif
  70
32
  10
186300.500
  20
4564114.793
  30
-14400.8
  0
VERTEX
  8
PNOA-H_AMS_1956-57_33k_ES_PAN_21mic_H50_0449_fot_50A-08771_E_tif
  70
32
  10
186309.500
  20
4564124.793
  30
-17739.699
  0
VERTEX
  8
PNOA-H_AMS_1956-57_33k_ES_PAN_21mic_H50_0449_fot_50A-08771_E_tif
  70
32
  10
186315.500
  20
4564124.793
  30
-14400.25
  0
VERTEX
  8
PNOA-H_AMS_1956-57_33k_ES_PAN_21mic_H50_0449_fot_50A-08771_E_tif
  70
32
  10
186324.500
  20
4564134.793
  30
-17739.25
  0
VERTEX
  8
PNOA-H_AMS_1956-57_33k_ES_PAN_21mic_H50_0449_fot_50A-08771_E_tif
  70
32
  10
186330.500
  20
4564134.793
  30
-14399.75
  0
VERTEX
  8
PNOA-H_AMS_1956-57_33k_ES_PAN_21mic_H50_0449_fot_50A-08771_E_tif
  70
32
  10
186334.500
  20
4564139.793
  30
-17739.25
  0
VERTEX
  8
PNOA-H_AMS_1956-57_33k_ES_PAN_21mic_H50_0449_fot_50A-08771_E_tif
  70
32
  10
186340.500
  20
4564139.793
  30
-14399.75
  0
VERTEX
  8
PNOA-H_AMS_1956-57_33k_ES_PAN_21mic_H50_0449_fot_50A-08771_E_tif
  70
32
  10
186342.500
  20
4564142.793
  30
-16069.55
  0
VERTEX
  8
PNOA-H_AMS_1956-57_33k_ES_PAN_21mic_H50_0449_fot_50A-08771_E_tif
  70
32
  10
186347.500
  20
4564141.293
  30
628
  0
VERTEX
  8
PNOA-H_AMS_1956-57_33k_ES_PAN_21mic_H50_0449_fot_50A-08771_E_tif
  70
32
  10
186351.000
  20
4564144.793
  30
627.4
  0
VERTEX
  8
PNOA-H_AMS_1956-57_33k_ES_PAN_21mic_H50_0449_fot_50A-08771_E_tif
  70
32
  10
186349.500
  20
4564149.793
  30
-16070
  0
VERTEX
  8
PNOA-H_AMS_1956-57_33k_ES_PAN_21mic_H50_0449_fot_50A-08771_E_tif
  70
32
  10
186359.500
  20
4564159.793
  30
-17740.15
  0
VERTEX
  8
PNOA-H_AMS_1956-57_33k_ES_PAN_21mic_H50_0449_fot_50A-08771_E_tif
  70
32
  10
186365.500
  20
4564159.793
  30
-14400.9
  0
VERTEX
  8
PNOA-H_AMS_1956-57_33k_ES_PAN_21mic_H50_0449_fot_50A-08771_E_tif
  70
32
  10
186379.500
  20
4564174.793
  30
-17740.6
  0
VERTEX
  8
PNOA-H_AMS_1956-57_33k_ES_PAN_21mic_H50_0449_fot_50A-08771_E_tif
  70
32
  10
186385.500
  20
4564174.793
  30
-14401.5
  0
VERTEX
  8
PNOA-H_AMS_1956-57_33k_ES_PAN_21mic_H50_0449_fot_50A-08771_E_tif
  70
32
  10
186404.500
  20
4564194.793
  30
-17741.5
  0
VERTEX
  8
PNOA-H_AMS_1956-57_33k_ES_PAN_21mic_H50_0449_fot_50A-08771_E_tif
  70
32
  10
186410.500
  20
4564194.793
  30
-14402.5
  0
VERTEX
  8
PNOA-H_AMS_1956-57_33k_ES_PAN_21mic_H50_0449_fot_50A-08771_E_tif
  70
32
  10
186414.500
  20
4564199.793
  30
-17741.5
  0
VERTEX
  8
PNOA-H_AMS_1956-57_33k_ES_PAN_21mic_H50_0449_fot_50A-08771_E_tif
  70
32
  10
186420.500
  20
4564199.793
  30
-14402.5
  0
VERTEX
  8
PNOA-H_AMS_1956-57_33k_ES_PAN_21mic_H50_0449_fot_50A-08771_E_tif
  70
32
  10
186434.500
  20
4564214.793
  30
-17741.051
  0
VERTEX
  8
PNOA-H_AMS_1956-57_33k_ES_PAN_21mic_H50_0449_fot_50A-08771_E_tif
  70
32
  10
186440.500
  20
4564214.793
  30
-14401.95
  0
VERTEX
  8
PNOA-H_AMS_1956-57_33k_ES_PAN_21mic_H50_0449_fot_50A-08771_E_tif
  70
32
  10
186449.500
  20
4564224.793
  30
-17740.6
  0
VERTEX
  8
PNOA-H_AMS_1956-57_33k_ES_PAN_21mic_H50_0449_fot_50A-08771_E_tif
  70
32
  10
186455.500
  20
4564224.793
  30
-14401.35
  0
VERTEX
  8
PNOA-H_AMS_1956-57_33k_ES_PAN_21mic_H50_0449_fot_50A-08771_E_tif
  70
32
  10
186459.500
  20
4564229.793
  30
-17740.15
  0
VERTEX
  8
PNOA-H_AMS_1956-57_33k_ES_PAN_21mic_H50_0449_fot_50A-08771_E_tif
  70
32
  10
186465.500
  20
4564229.793
  30
-14400.7
  0
VERTEX
  8
PNOA-H_AMS_1956-57_33k_ES_PAN_21mic_H50_0449_fot_50A-08771_E_tif
  70
32
  10
186469.500
  20
4564234.793
  30
-17739.25
  0
VERTEX
  8
PNOA-H_AMS_1956-57_33k_ES_PAN_21mic_H50_0449_fot_50A-08771_E_tif
  70
32
  10
186475.500
  20
4564234.793
  30
-14399.65
  0
VERTEX
  8
PNOA-H_AMS_1956-57_33k_ES_PAN_21mic_H50_0449_fot_50A-08771_E_tif
  70
32
  10
186484.500
  20
4564244.793
  30
-17737.9
  0
VERTEX
  8
PNOA-H_AMS_1956-57_33k_ES_PAN_21mic_H50_0449_fot_50A-08771_E_tif
  70
32
  10
186490.500
  20
4564244.793
  30
-14397.85
  0
VERTEX
  8
PNOA-H_AMS_1956-57_33k_ES_PAN_21mic_H50_0449_fot_50A-08771_E_tif
  70
32
  10
186494.500
  20
4564249.793
  30
-17736.551
  0
VERTEX
  8
PNOA-H_AMS_1956-57_33k_ES_PAN_21mic_H50_0449_fot_50A-08771_E_tif
  70
32
  10
186500.500
  20
4564249.793
  30
-14396.2
  0
VERTEX
  8
PNOA-H_AMS_1956-57_33k_ES_PAN_21mic_H50_0449_fot_50A-08771_E_tif
  70
32
  10
186509.500
  20
4564259.793
  30
-17734.75
  0
VERTEX
  8
PNOA-H_AMS_1956-57_33k_ES_PAN_21mic_H50_0449_fot_50A-08771_E_tif
  70
32
  10
186515.500
  20
4564259.793
  30
-14394.1
  0
VERTEX
  8
PNOA-H_AMS_1956-57_33k_ES_PAN_21mic_H50_0449_fot_50A-08771_E_tif
  70
32
  10
186524.500
  20
4564269.793
  30
-17733.4
  0
VERTEX
  8
PNOA-H_AMS_1956-57_33k_ES_PAN_21mic_H50_0449_fot_50A-08771_E_tif
  70
32
  10
186530.500
  20
4564269.793
  30
-14392.6
  0
VERTEX
  8
PNOA-H_AMS_1956-57_33k_ES_PAN_21mic_H50_0449_fot_50A-08771_E_tif
  70
32
  10
186544.500
  20
4564284.793
  30
-17732.949
  0
VERTEX
  8
PNOA-H_AMS_1956-57_33k_ES_PAN_21mic_H50_0449_fot_50A-08771_E_tif
  70
32
  10
186550.500
  20
4564284.793
  30
-14392.2
  0
VERTEX
  8
PNOA-H_AMS_1956-57_33k_ES_PAN_21mic_H50_0449_fot_50A-08771_E_tif
  70
32
  10
186599.500
  20
4564334.793
  30
-17740.6
  0
VERTEX
  8
PNOA-H_AMS_1956-57_33k_ES_PAN_21mic_H50_0449_fot_50A-08771_E_tif
  70
32
  10
186605.500
  20
4564334.793
  30
-14401.55
  0
VERTEX
  8
PNOA-H_AMS_1956-57_33k_ES_PAN_21mic_H50_0449_fot_50A-08771_E_tif
  70
32
  10
186607.500
  20
4564337.793
  30
-16072.05
  0
VERTEX
  8
PNOA-H_AMS_1956-57_33k_ES_PAN_21mic_H50_0449_fot_50A-08771_E_tif
  70
32
  10
186612.500
  20
4564336.293
  30
623.1
  0
VERTEX
  8
PNOA-H_AMS_1956-57_33k_ES_PAN_21mic_H50_0449_fot_50A-08771_E_tif
  70
32
  10
186616.000
  20
4564339.793
  30
622.4
  0
VERTEX
  8
PNOA-H_AMS_1956-57_33k_ES_PAN_21mic_H50_0449_fot_50A-08771_E_tif
  70
32
  10
186614.500
  20
4564344.793
  30
-16072.5
  0
VERTEX
  8
PNOA-H_AMS_1956-57_33k_ES_PAN_21mic_H50_0449_fot_50A-08771_E_tif
  70
32
  10
186629.500
  20
4564359.793
  30
-17742.4
  0
VERTEX
  8
PNOA-H_AMS_1956-57_33k_ES_PAN_21mic_H50_0449_fot_50A-08771_E_tif
  70
32
  10
186635.500
  20
4564359.793
  30
-14403.6
  0
VERTEX
  8
PNOA-H_AMS_1956-57_33k_ES_PAN_21mic_H50_0449_fot_50A-08771_E_tif
  70
32
  10
186649.500
  20
4564374.793
  30
-17741.5
  0
VERTEX
  8
PNOA-H_AMS_1956-57_33k_ES_PAN_21mic_H50_0449_fot_50A-08771_E_tif
  70
32
  10
186655.500
  20
4564374.793
  30
-14402.45
  0
VERTEX
  8
PNOA-H_AMS_1956-57_33k_ES_PAN_21mic_H50_0449_fot_50A-08771_E_tif
  70
32
  10
186659.500
  20
4564379.793
  30
-17741.051
  0
VERTEX
  8
PNOA-H_AMS_1956-57_33k_ES_PAN_21mic_H50_0449_fot_50A-08771_E_tif
  70
32
  10
186665.500
  20
4564379.793
  30
-14401.8
  0
VERTEX
  8
PNOA-H_AMS_1956-57_33k_ES_PAN_21mic_H50_0449_fot_50A-08771_E_tif
  70
32
  10
186669.500
  20
4564384.793
  30
-17740.15
  0
VERTEX
  8
PNOA-H_AMS_1956-57_33k_ES_PAN_21mic_H50_0449_fot_50A-08771_E_tif
  70
32
  10
186675.500
  20
4564384.793
  30
-14400.7
  0
VERTEX
  8
PNOA-H_AMS_1956-57_33k_ES_PAN_21mic_H50_0449_fot_50A-08771_E_tif
  70
32
  10
186684.500
  20
4564394.793
  30
-17738.801
  0
VERTEX
  8
PNOA-H_AMS_1956-57_33k_ES_PAN_21mic_H50_0449_fot_50A-08771_E_tif
  70
32
  10
186690.500
  20
4564394.793
  30
-14399.2
  0
VERTEX
  8
PNOA-H_AMS_1956-57_33k_ES_PAN_21mic_H50_0449_fot_50A-08771_E_tif
  70
32
  10
186699.500
  20
4564404.793
  30
-17738.35
  0
VERTEX
  8
PNOA-H_AMS_1956-57_33k_ES_PAN_21mic_H50_0449_fot_50A-08771_E_tif
  70
32
  10
186705.500
  20
4564404.793
  30
-14398.65
  0
VERTEX
  8
PNOA-H_AMS_1956-57_33k_ES_PAN_21mic_H50_0449_fot_50A-08771_E_tif
  70
32
  10
186719.500
  20
4564419.793
  30
-17738.35
  0
VERTEX
  8
PNOA-H_AMS_1956-57_33k_ES_PAN_21mic_H50_0449_fot_50A-08771_E_tif
  70
32
  10
186725.500
  20
4564419.793
  30
-14398.65
  0
VERTEX
  8
PNOA-H_AMS_1956-57_33k_ES_PAN_21mic_H50_0449_fot_50A-08771_E_tif
  70
32
  10
186734.500
  20
4564429.793
  30
-17737.9
  0
VERTEX
  8
PNOA-H_AMS_1956-57_33k_ES_PAN_21mic_H50_0449_fot_50A-08771_E_tif
  70
32
  10
186740.500
  20
4564429.793
  30
-14398.05
  0
VERTEX
  8
PNOA-H_AMS_1956-57_33k_ES_PAN_21mic_H50_0449_fot_50A-08771_E_tif
  70
32
  10
186744.500
  20
4564434.793
  30
-17737.449
  0
VERTEX
  8
PNOA-H_AMS_1956-57_33k_ES_PAN_21mic_H50_0449_fot_50A-08771_E_tif
  70
32
  10
186750.500
  20
4564434.793
  30
-14397.4
  0
VERTEX
  8
PNOA-H_AMS_1956-57_33k_ES_PAN_21mic_H50_0449_fot_50A-08771_E_tif
  70
32
  10
186759.500
  20
4564444.793
  30
-17736.1
  0
VERTEX
  8
PNOA-H_AMS_1956-57_33k_ES_PAN_21mic_H50_0449_fot_50A-08771_E_tif
  70
32
  10
186765.500
  20
4564444.793
  30
-14395.9
  0
VERTEX
  8
PNOA-H_AMS_1956-57_33k_ES_PAN_21mic_H50_0449_fot_50A-08771_E_tif
  70
32
  10
186779.500
  20
4564459.793
  30
-17736.1
  0
VERTEX
  8
PNOA-H_AMS_1956-57_33k_ES_PAN_21mic_H50_0449_fot_50A-08771_E_tif
  70
32
  10
186785.500
  20
4564459.793
  30
-14395.9
  0
VERTEX
  8
PNOA-H_AMS_1956-57_33k_ES_PAN_21mic_H50_0449_fot_50A-08771_E_tif
  70
32
  10
186794.500
  20
4564469.793
  30
-17735.65
  0
VERTEX
  8
PNOA-H_AMS_1956-57_33k_ES_PAN_21mic_H50_0449_fot_50A-08771_E_tif
  70
32
  10
186800.500
  20
4564469.793
  30
-14394.7
  0
VERTEX
  8
PNOA-H_AMS_1956-57_33k_ES_PAN_21mic_H50_0449_fot_50A-08771_E_tif
  70
32
  10
186804.500
  20
4564474.793
  30
-17734.301
  0
VERTEX
  8
PNOA-H_AMS_1956-57_33k_ES_PAN_21mic_H50_0449_fot_50A-08771_E_tif
  70
32
  10
186810.500
  20
4564474.793
  30
-14393.6
  0
VERTEX
  8
PNOA-H_AMS_1956-57_33k_ES_PAN_21mic_H50_0449_fot_50A-08771_E_tif
  70
32
  10
186819.500
  20
4564484.793
  30
-17733.85
  0
VERTEX
  8
PNOA-H_AMS_1956-57_33k_ES_PAN_21mic_H50_0449_fot_50A-08771_E_tif
  70
32
  10
186825.500
  20
4564484.793
  30
-14393.05
  0
VERTEX
  8
PNOA-H_AMS_1956-57_33k_ES_PAN_21mic_H50_0449_fot_50A-08771_E_tif
  70
32
  10
186834.500
  20
4564494.793
  30
-17732.949
  0
VERTEX
  8
PNOA-H_AMS_1956-57_33k_ES_PAN_21mic_H50_0449_fot_50A-08771_E_tif
  70
32
  10
186840.500
  20
4564494.793
  30
-14392.05
  0
VERTEX
  8
PNOA-H_AMS_1956-57_33k_ES_PAN_21mic_H50_0449_fot_50A-08771_E_tif
  70
32
  10
186864.500
  20
4564519.793
  30
-17734.75
  0
VERTEX
  8
PNOA-H_AMS_1956-57_33k_ES_PAN_21mic_H50_0449_fot_50A-08771_E_tif
  70
32
  10
186870.500
  20
4564519.793
  30
-14394.4
  0
VERTEX
  8
PNOA-H_AMS_1956-57_33k_ES_PAN_21mic_H50_0449_fot_50A-08771_E_tif
  70
32
  10
186909.500
  20
4564559.793
  30
-17739.25
  0
VERTEX
  8
PNOA-H_AMS_1956-57_33k_ES_PAN_21mic_H50_0449_fot_50A-08771_E_tif
  70
32
  10
186915.500
  20
4564559.793
  30
-14399.7
  0
VERTEX
  8
PNOA-H_AMS_1956-57_33k_ES_PAN_21mic_H50_0449_fot_50A-08771_E_tif
  70
32
  10
186929.500
  20
4564574.793
  30
-17738.35
  0
VERTEX
  8
PNOA-H_AMS_1956-57_33k_ES_PAN_21mic_H50_0449_fot_50A-08771_E_tif
  70
32
  10
186935.500
  20
4564574.793
  30
-14398.65
  0
VERTEX
  8
PNOA-H_AMS_1956-57_33k_ES_PAN_21mic_H50_0449_fot_50A-08771_E_tif
  70
32
  10
186947.500
  20
4564587.793
  30
-16070.05
  0
VERTEX
  8
PNOA-H_AMS_1956-57_33k_ES_PAN_21mic_H50_0449_fot_50A-08771_E_tif
  70
32
  10
186952.500
  20
4564586.293
  30
627.3
  0
VERTEX
  8
PNOA-H_AMS_1956-57_33k_ES_PAN_21mic_H50_0449_fot_50A-08771_E_tif
  70
32
  10
186956.000
  20
4564589.793
  30
626.1
  0
VERTEX
  8
PNOA-H_AMS_1956-57_33k_ES_PAN_21mic_H50_0449_fot_50A-08771_E_tif
  70
32
  10
186954.500
  20
4564594.793
  30
-16070.5
  0
VERTEX
  8
PNOA-H_AMS_1956-57_33k_ES_PAN_21mic_H50_0449_fot_50A-08771_E_tif
  70
32
  10
186957.500
  20
4564596.793
  30
-14402.75
  0
VERTEX
  8
PNOA-H_AMS_1956-57_33k_ES_PAN_21mic_H50_0449_fot_50A-08771_E_tif
  70
32
  10
186957.500
  20
4564602.793
  30
-17742.4
  0
VERTEX
  8
PNOA-H_AMS_1956-57_33k_ES_PAN_21mic_H50_0449_fot_50A-08771_E_tif
  70
32
  10
186999.500
  20
4564644.793
  30
-17749.6
  0
VERTEX
  8
PNOA-H_AMS_1956-57_33k_ES_PAN_21mic_H50_0449_fot_50A-08771_E_tif
  70
32
  10
187005.500
  20
4564644.793
  30
-14412.1
  0
VERTEX
  8
PNOA-H_AMS_1956-57_33k_ES_PAN_21mic_H50_0449_fot_50A-08771_E_tif
  70
32
  10
187009.500
  20
4564649.793
  30
-17747.801
  0
VERTEX
  8
PNOA-H_AMS_1956-57_33k_ES_PAN_21mic_H50_0449_fot_50A-08771_E_tif
  70
32
  10
187015.500
  20
4564649.793
  30
-14410.2
  0
VERTEX
  8
PNOA-H_AMS_1956-57_33k_ES_PAN_21mic_H50_0449_fot_50A-08771_E_tif
  70
32
  10
187029.500
  20
4564664.793
  30
-17747.801
  0
VERTEX
  8
PNOA-H_AMS_1956-57_33k_ES_PAN_21mic_H50_0449_fot_50A-08771_E_tif
  70
32
  10
187035.500
  20
4564664.793
  30
-14410.2
  0
VERTEX
  8
PNOA-H_AMS_1956-57_33k_ES_PAN_21mic_H50_0449_fot_50A-08771_E_tif
  70
32
  10
187039.500
  20
4564669.793
  30
-17747.801
  0
VERTEX
  8
PNOA-H_AMS_1956-57_33k_ES_PAN_21mic_H50_0449_fot_50A-08771_E_tif
  70
32
  10
187050.500
  20
4564669.793
  30
-14409.4
  0
VERTEX
  8
PNOA-H_AMS_1956-57_33k_ES_PAN_21mic_H50_0449_fot_50A-08771_E_tif
  70
32
  10
187059.500
  20
4564679.793
  30
-17745.1
  0
VERTEX
  8
PNOA-H_AMS_1956-57_33k_ES_PAN_21mic_H50_0449_fot_50A-08771_E_tif
  70
32
  10
187065.500
  20
4564679.793
  30
-14406.75
  0
VERTEX
  8
PNOA-H_AMS_1956-57_33k_ES_PAN_21mic_H50_0449_fot_50A-08771_E_tif
  70
32
  10
187074.500
  20
4564689.793
  30
-17743.75
  0
VERTEX
  8
PNOA-H_AMS_1956-57_33k_ES_PAN_21mic_H50_0449_fot_50A-08771_E_tif
  70
32
  10
187080.500
  20
4564689.793
  30
-14405.2
  0
VERTEX
  8
PNOA-H_AMS_1956-57_33k_ES_PAN_21mic_H50_0449_fot_50A-08771_E_tif
  70
32
  10
187084.500
  20
4564694.793
  30
-17743.301
  0
VERTEX
  8
PNOA-H_AMS_1956-57_33k_ES_PAN_21mic_H50_0449_fot_50A-08771_E_tif
  70
32
  10
187090.500
  20
4564694.793
  30
-14404.5
  0
VERTEX
  8
PNOA-H_AMS_1956-57_33k_ES_PAN_21mic_H50_0449_fot_50A-08771_E_tif
  70
32
  10
187099.500
  20
4564704.793
  30
-17740.6
  0
VERTEX
  8
PNOA-H_AMS_1956-57_33k_ES_PAN_21mic_H50_0449_fot_50A-08771_E_tif
  70
32
  10
187110.500
  20
4564704.793
  30
-14400.7
  0
VERTEX
  8
PNOA-H_AMS_1956-57_33k_ES_PAN_21mic_H50_0449_fot_50A-08771_E_tif
  70
32
  10
187119.500
  20
4564714.793
  30
-17738.801
  0
VERTEX
  8
PNOA-H_AMS_1956-57_33k_ES_PAN_21mic_H50_0449_fot_50A-08771_E_tif
  70
32
  10
187125.500
  20
4564714.793
  30
-14399
  0
VERTEX
  8
PNOA-H_AMS_1956-57_33k_ES_PAN_21mic_H50_0449_fot_50A-08771_E_tif
  70
32
  10
187129.500
  20
4564719.793
  30
-17737.449
  0
VERTEX
  8
PNOA-H_AMS_1956-57_33k_ES_PAN_21mic_H50_0449_fot_50A-08771_E_tif
  70
32
  10
187135.500
  20
4564719.793
  30
-14397.3
  0
VERTEX
  8
PNOA-H_AMS_1956-57_33k_ES_PAN_21mic_H50_0449_fot_50A-08771_E_tif
  70
32
  10
187139.500
  20
4564724.793
  30
-17736.1
  0
VERTEX
  8
PNOA-H_AMS_1956-57_33k_ES_PAN_21mic_H50_0449_fot_50A-08771_E_tif
  70
32
  10
187145.500
  20
4564724.793
  30
-14395.75
  0
VERTEX
  8
PNOA-H_AMS_1956-57_33k_ES_PAN_21mic_H50_0449_fot_50A-08771_E_tif
  70
32
  10
187149.500
  20
4564729.793
  30
-17735.199
  0
VERTEX
  8
PNOA-H_AMS_1956-57_33k_ES_PAN_21mic_H50_0449_fot_50A-08771_E_tif
  70
32
  10
187155.500
  20
4564729.793
  30
-14394.05
  0
VERTEX
  8
PNOA-H_AMS_1956-57_33k_ES_PAN_21mic_H50_0449_fot_50A-08771_E_tif
  70
32
  10
187164.500
  20
4564739.793
  30
-17733.4
  0
VERTEX
  8
PNOA-H_AMS_1956-57_33k_ES_PAN_21mic_H50_0449_fot_50A-08771_E_tif
  70
32
  10
187170.500
  20
4564739.793
  30
-14392.45
  0
VERTEX
  8
PNOA-H_AMS_1956-57_33k_ES_PAN_21mic_H50_0449_fot_50A-08771_E_tif
  70
32
  10
187174.500
  20
4564744.793
  30
-17732.5
  0
VERTEX
  8
PNOA-H_AMS_1956-57_33k_ES_PAN_21mic_H50_0449_fot_50A-08771_E_tif
  70
32
  10
187180.500
  20
4564744.793
  30
-14391.4
  0
VERTEX
  8
PNOA-H_AMS_1956-57_33k_ES_PAN_21mic_H50_0449_fot_50A-08771_E_tif
  70
32
  10
187194.500
  20
4564759.793
  30
-17731.6
  0
VERTEX
  8
PNOA-H_AMS_1956-57_33k_ES_PAN_21mic_H50_0449_fot_50A-08771_E_tif
  70
32
  10
187200.500
  20
4564759.793
  30
-14390.4
  0
VERTEX
  8
PNOA-H_AMS_1956-57_33k_ES_PAN_21mic_H50_0449_fot_50A-08771_E_tif
  70
32
  10
187224.500
  20
4564784.793
  30
-17733.85
  0
VERTEX
  8
PNOA-H_AMS_1956-57_33k_ES_PAN_21mic_H50_0449_fot_50A-08771_E_tif
  70
32
  10
187230.500
  20
4564784.793
  30
-14393.2
  0
VERTEX
  8
PNOA-H_AMS_1956-57_33k_ES_PAN_21mic_H50_0449_fot_50A-08771_E_tif
  70
32
  10
187244.500
  20
4564799.793
  30
-17734.75
  0
VERTEX
  8
PNOA-H_AMS_1956-57_33k_ES_PAN_21mic_H50_0449_fot_50A-08771_E_tif
  70
32
  10
187250.500
  20
4564799.793
  30
-14394.35
  0
VERTEX
  8
PNOA-H_AMS_1956-57_33k_ES_PAN_21mic_H50_0449_fot_50A-08771_E_tif
  70
32
  10
187264.500
  20
4564814.793
  30
-17736.1
  0
VERTEX
  8
PNOA-H_AMS_1956-57_33k_ES_PAN_21mic_H50_0449_fot_50A-08771_E_tif
  70
32
  10
187270.500
  20
4564814.793
  30
-14395.95
  0
VERTEX
  8
PNOA-H_AMS_1956-57_33k_ES_PAN_21mic_H50_0449_fot_50A-08771_E_tif
  70
32
  10
187284.500
  20
4564829.793
  30
-17736.1
  0
VERTEX
  8
PNOA-H_AMS_1956-57_33k_ES_PAN_21mic_H50_0449_fot_50A-08771_E_tif
  70
32
  10
187290.500
  20
4564829.793
  30
-14395.85
  0
VERTEX
  8
PNOA-H_AMS_1956-57_33k_ES_PAN_21mic_H50_0449_fot_50A-08771_E_tif
  70
32
  10
187294.500
  20
4564834.793
  30
-17735.65
  0
VERTEX
  8
PNOA-H_AMS_1956-57_33k_ES_PAN_21mic_H50_0449_fot_50A-08771_E_tif
  70
32
  10
187300.500
  20
4564834.793
  30
-14395.15
  0
VERTEX
  8
PNOA-H_AMS_1956-57_33k_ES_PAN_21mic_H50_0449_fot_50A-08771_E_tif
  70
32
  10
187304.500
  20
4564839.793
  30
-17734.301
  0
VERTEX
  8
PNOA-H_AMS_1956-57_33k_ES_PAN_21mic_H50_0449_fot_50A-08771_E_tif
  70
32
  10
187310.500
  20
4564839.793
  30
-14393.6
  0
VERTEX
  8
PNOA-H_AMS_1956-57_33k_ES_PAN_21mic_H50_0449_fot_50A-08771_E_tif
  70
32
  10
187319.500
  20
4564849.793
  30
-17733.4
  0
VERTEX
  8
PNOA-H_AMS_1956-57_33k_ES_PAN_21mic_H50_0449_fot_50A-08771_E_tif
  70
32
  10
187325.500
  20
4564849.793
  30
-14392.45
  0
VERTEX
  8
PNOA-H_AMS_1956-57_33k_ES_PAN_21mic_H50_0449_fot_50A-08771_E_tif
  70
32
  10
187334.500
  20
4564859.793
  30
-17732.051
  0
VERTEX
  8
PNOA-H_AMS_1956-57_33k_ES_PAN_21mic_H50_0449_fot_50A-08771_E_tif
  70
32
  10
187340.500
  20
4564859.793
  30
-14390.85
  0
VERTEX
  8
PNOA-H_AMS_1956-57_33k_ES_PAN_21mic_H50_0449_fot_50A-08771_E_tif
  70
32
  10
187344.500
  20
4564864.793
  30
-17731.6
  0
VERTEX
  8
PNOA-H_AMS_1956-57_33k_ES_PAN_21mic_H50_0449_fot_50A-08771_E_tif
  70
32
  10
187350.500
  20
4564864.793
  30
-14390.35
  0
VERTEX
  8
PNOA-H_AMS_1956-57_33k_ES_PAN_21mic_H50_0449_fot_50A-08771_E_tif
  70
32
  10
187352.500
  20
4564866.793
  30
-14389.95
  0
VERTEX
  8
PNOA-H_AMS_1956-57_33k_ES_PAN_21mic_H50_0449_fot_50A-08771_E_tif
  70
32
  10
187352.500
  20
4564882.793
  30
-14389.2
  0
VERTEX
  8
PNOA-H_AMS_1956-57_33k_ES_PAN_21mic_H50_0449_fot_50A-08771_E_tif
  70
32
  10
187347.500
  20
4564886.793
  30
-17730.25
  0
VERTEX
  8
PNOA-H_AMS_1956-57_33k_ES_PAN_21mic_H50_0449_fot_50A-08771_E_tif
  70
32
  10
187347.500
  20
4564892.793
  30
-14388.7
  0
VERTEX
  8
PNOA-H_AMS_1956-57_33k_ES_PAN_21mic_H50_0449_fot_50A-08771_E_tif
  70
32
  10
187337.500
  20
4564901.793
  30
-17729.801
  0
VERTEX
  8
PNOA-H_AMS_1956-57_33k_ES_PAN_21mic_H50_0449_fot_50A-08771_E_tif
  70
32
  10
187337.500
  20
4564907.793
  30
-14388.2
  0
VERTEX
  8
PNOA-H_AMS_1956-57_33k_ES_PAN_21mic_H50_0449_fot_50A-08771_E_tif
  70
32
  10
187332.500
  20
4564911.793
  30
-17729.801
  0
VERTEX
  8
PNOA-H_AMS_1956-57_33k_ES_PAN_21mic_H50_0449_fot_50A-08771_E_tif
  70
32
  10
187332.500
  20
4564917.793
  30
-14388.2
  0
VERTEX
  8
PNOA-H_AMS_1956-57_33k_ES_PAN_21mic_H50_0449_fot_50A-08771_E_tif
  70
32
  10
187327.500
  20
4564921.793
  30
-17729.801
  0
VERTEX
  8
PNOA-H_AMS_1956-57_33k_ES_PAN_21mic_H50_0449_fot_50A-08771_E_tif
  70
32
  10
187327.500
  20
4564927.793
  30
-14387.65
  0
VERTEX
  8
PNOA-H_AMS_1956-57_33k_ES_PAN_21mic_H50_0449_fot_50A-08771_E_tif
  70
32
  10
187322.500
  20
4564931.793
  30
-17729.35
  0
VERTEX
  8
PNOA-H_AMS_1956-57_33k_ES_PAN_21mic_H50_0449_fot_50A-08771_E_tif
  70
32
  10
187322.500
  20
4564937.793
  30
-14387.55
  0
VERTEX
  8
PNOA-H_AMS_1956-57_33k_ES_PAN_21mic_H50_0449_fot_50A-08771_E_tif
  70
32
  10
187317.500
  20
4564941.793
  30
-17728.9
  0
VERTEX
  8
PNOA-H_AMS_1956-57_33k_ES_PAN_21mic_H50_0449_fot_50A-08771_E_tif
  70
32
  10
187317.500
  20
4564947.793
  30
-14386.55
  0
VERTEX
  8
PNOA-H_AMS_1956-57_33k_ES_PAN_21mic_H50_0449_fot_50A-08771_E_tif
  70
32
  10
187312.500
  20
4564951.793
  30
-17728.449
  0
VERTEX
  8
PNOA-H_AMS_1956-57_33k_ES_PAN_21mic_H50_0449_fot_50A-08771_E_tif
  70
32
  10
187312.500
  20
4564957.793
  30
-14385.9
  0
VERTEX
  8
PNOA-H_AMS_1956-57_33k_ES_PAN_21mic_H50_0449_fot_50A-08771_E_tif
  70
32
  10
187307.500
  20
4564961.793
  30
-17727.551
  0
VERTEX
  8
PNOA-H_AMS_1956-57_33k_ES_PAN_21mic_H50_0449_fot_50A-08771_E_tif
  70
32
  10
187307.500
  20
4564967.793
  30
-14384.9
  0
VERTEX
  8
PNOA-H_AMS_1956-57_33k_ES_PAN_21mic_H50_0449_fot_50A-08771_E_tif
  70
32
  10
187302.500
  20
4564971.793
  30
-17727.1
  0
VERTEX
  8
PNOA-H_AMS_1956-57_33k_ES_PAN_21mic_H50_0449_fot_50A-08771_E_tif
  70
32
  10
187302.500
  20
4564977.793
  30
-14384.35
  0
VERTEX
  8
PNOA-H_AMS_1956-57_33k_ES_PAN_21mic_H50_0449_fot_50A-08771_E_tif
  70
32
  10
187297.500
  20
4564981.793
  30
-17726.65
  0
VERTEX
  8
PNOA-H_AMS_1956-57_33k_ES_PAN_21mic_H50_0449_fot_50A-08771_E_tif
  70
32
  10
187297.500
  20
4564987.793
  30
-14383.8
  0
VERTEX
  8
PNOA-H_AMS_1956-57_33k_ES_PAN_21mic_H50_0449_fot_50A-08771_E_tif
  70
32
  10
187292.500
  20
4564991.793
  30
-17726.199
  0
VERTEX
  8
PNOA-H_AMS_1956-57_33k_ES_PAN_21mic_H50_0449_fot_50A-08771_E_tif
  70
32
  10
187292.500
  20
4564997.793
  30
-14383.25
  0
VERTEX
  8
PNOA-H_AMS_1956-57_33k_ES_PAN_21mic_H50_0449_fot_50A-08771_E_tif
  70
32
  10
187287.500
  20
4565001.793
  30
-17725.75
  0
VERTEX
  8
PNOA-H_AMS_1956-57_33k_ES_PAN_21mic_H50_0449_fot_50A-08771_E_tif
  70
32
  10
187287.500
  20
4565007.793
  30
-14382.65
  0
VERTEX
  8
PNOA-H_AMS_1956-57_33k_ES_PAN_21mic_H50_0449_fot_50A-08771_E_tif
  70
32
  10
187282.500
  20
4565011.793
  30
-17724.85
  0
VERTEX
  8
PNOA-H_AMS_1956-57_33k_ES_PAN_21mic_H50_0449_fot_50A-08771_E_tif
  70
32
  10
187282.500
  20
4565017.793
  30
-14381.6
  0
VERTEX
  8
PNOA-H_AMS_1956-57_33k_ES_PAN_21mic_H50_0449_fot_50A-08771_E_tif
  70
32
  10
187277.500
  20
4565021.793
  30
-17724.4
  0
VERTEX
  8
PNOA-H_AMS_1956-57_33k_ES_PAN_21mic_H50_0449_fot_50A-08771_E_tif
  70
32
  10
187277.500
  20
4565027.793
  30
-14381.05
  0
VERTEX
  8
PNOA-H_AMS_1956-57_33k_ES_PAN_21mic_H50_0449_fot_50A-08771_E_tif
  70
32
  10
187272.500
  20
4565031.793
  30
-17723.949
  0
VERTEX
  8
PNOA-H_AMS_1956-57_33k_ES_PAN_21mic_H50_0449_fot_50A-08771_E_tif
  70
32
  10
187272.500
  20
4565037.793
  30
-14380.4
  0
VERTEX
  8
PNOA-H_AMS_1956-57_33k_ES_PAN_21mic_H50_0449_fot_50A-08771_E_tif
  70
32
  10
187267.500
  20
4565041.793
  30
-17723.051
  0
VERTEX
  8
PNOA-H_AMS_1956-57_33k_ES_PAN_21mic_H50_0449_fot_50A-08771_E_tif
  70
32
  10
187267.500
  20
4565047.793
  30
-14378.85
  0
VERTEX
  8
PNOA-H_AMS_1956-57_33k_ES_PAN_21mic_H50_0449_fot_50A-08771_E_tif
  70
32
  10
187262.500
  20
4565051.793
  30
-17722.15
  0
VERTEX
  8
PNOA-H_AMS_1956-57_33k_ES_PAN_21mic_H50_0449_fot_50A-08771_E_tif
  70
32
  10
187262.500
  20
4565057.793
  30
-14377.75
  0
VERTEX
  8
PNOA-H_AMS_1956-57_33k_ES_PAN_21mic_H50_0449_fot_50A-08771_E_tif
  70
32
  10
187257.500
  20
4565061.793
  30
-17721.25
  0
VERTEX
  8
PNOA-H_AMS_1956-57_33k_ES_PAN_21mic_H50_0449_fot_50A-08771_E_tif
  70
32
  10
187257.500
  20
4565067.793
  30
-14377.15
  0
VERTEX
  8
PNOA-H_AMS_1956-57_33k_ES_PAN_21mic_H50_0449_fot_50A-08771_E_tif
  70
32
  10
187252.500
  20
4565071.793
  30
-17720.35
  0
VERTEX
  8
PNOA-H_AMS_1956-57_33k_ES_PAN_21mic_H50_0449_fot_50A-08771_E_tif
  70
32
  10
187252.500
  20
4565077.793
  30
-14376.65
  0
VERTEX
  8
PNOA-H_AMS_1956-57_33k_ES_PAN_21mic_H50_0449_fot_50A-08771_E_tif
  70
32
  10
187247.500
  20
4565081.793
  30
-17720.35
  0
VERTEX
  8
PNOA-H_AMS_1956-57_33k_ES_PAN_21mic_H50_0449_fot_50A-08771_E_tif
  70
32
  10
187247.500
  20
4565087.793
  30
-14376.1
  0
VERTEX
  8
PNOA-H_AMS_1956-57_33k_ES_PAN_21mic_H50_0449_fot_50A-08771_E_tif
  70
32
  10
187242.500
  20
4565091.793
  30
-17719.9
  0
VERTEX
  8
PNOA-H_AMS_1956-57_33k_ES_PAN_21mic_H50_0449_fot_50A-08771_E_tif
  70
32
  10
187242.500
  20
4565097.793
  30
-14375.55
  0
VERTEX
  8
PNOA-H_AMS_1956-57_33k_ES_PAN_21mic_H50_0449_fot_50A-08771_E_tif
  70
32
  10
187237.500
  20
4565101.793
  30
-17719.449
  0
VERTEX
  8
PNOA-H_AMS_1956-57_33k_ES_PAN_21mic_H50_0449_fot_50A-08771_E_tif
  70
32
  10
187237.500
  20
4565107.793
  30
-14375
  0
VERTEX
  8
PNOA-H_AMS_1956-57_33k_ES_PAN_21mic_H50_0449_fot_50A-08771_E_tif
  70
32
  10
187232.500
  20
4565111.793
  30
-17719
  0
VERTEX
  8
PNOA-H_AMS_1956-57_33k_ES_PAN_21mic_H50_0449_fot_50A-08771_E_tif
  70
32
  10
187232.500
  20
4565117.793
  30
-14374.95
  0
VERTEX
  8
PNOA-H_AMS_1956-57_33k_ES_PAN_21mic_H50_0449_fot_50A-08771_E_tif
  70
32
  10
187227.500
  20
4565121.793
  30
-17718.551
  0
VERTEX
  8
PNOA-H_AMS_1956-57_33k_ES_PAN_21mic_H50_0449_fot_50A-08771_E_tif
  70
32
  10
187227.500
  20
4565127.793
  30
-14374.45
  0
VERTEX
  8
PNOA-H_AMS_1956-57_33k_ES_PAN_21mic_H50_0449_fot_50A-08771_E_tif
  70
32
  10
187222.500
  20
4565131.793
  30
-17718.551
  0
VERTEX
  8
PNOA-H_AMS_1956-57_33k_ES_PAN_21mic_H50_0449_fot_50A-08771_E_tif
  70
32
  10
187222.500
  20
4565137.793
  30
-14373.9
  0
VERTEX
  8
PNOA-H_AMS_1956-57_33k_ES_PAN_21mic_H50_0449_fot_50A-08771_E_tif
  70
32
  10
187217.500
  20
4565141.793
  30
-17718.1
  0
VERTEX
  8
PNOA-H_AMS_1956-57_33k_ES_PAN_21mic_H50_0449_fot_50A-08771_E_tif
  70
32
  10
187217.500
  20
4565147.793
  30
-14373.9
  0
VERTEX
  8
PNOA-H_AMS_1956-57_33k_ES_PAN_21mic_H50_0449_fot_50A-08771_E_tif
  70
32
  10
187212.500
  20
4565151.793
  30
-17718.1
  0
VERTEX
  8
PNOA-H_AMS_1956-57_33k_ES_PAN_21mic_H50_0449_fot_50A-08771_E_tif
  70
32
  10
187212.500
  20
4565157.793
  30
-14373.9
  0
VERTEX
  8
PNOA-H_AMS_1956-57_33k_ES_PAN_21mic_H50_0449_fot_50A-08771_E_tif
  70
32
  10
187202.500
  20
4565166.793
  30
-17718.1
  0
VERTEX
  8
PNOA-H_AMS_1956-57_33k_ES_PAN_21mic_H50_0449_fot_50A-08771_E_tif
  70
32
  10
187202.500
  20
4565177.793
  30
-14373.95
  0
VERTEX
  8
PNOA-H_AMS_1956-57_33k_ES_PAN_21mic_H50_0449_fot_50A-08771_E_tif
  70
32
  10
187192.500
  20
4565186.793
  30
-17718.551
  0
VERTEX
  8
PNOA-H_AMS_1956-57_33k_ES_PAN_21mic_H50_0449_fot_50A-08771_E_tif
  70
32
  10
187192.500
  20
4565192.793
  30
-14375
  0
VERTEX
  8
PNOA-H_AMS_1956-57_33k_ES_PAN_21mic_H50_0449_fot_50A-08771_E_tif
  70
32
  10
187187.500
  20
4565196.793
  30
-17719
  0
VERTEX
  8
PNOA-H_AMS_1956-57_33k_ES_PAN_21mic_H50_0449_fot_50A-08771_E_tif
  70
32
  10
187187.500
  20
4565202.793
  30
-14375.55
  0
VERTEX
  8
PNOA-H_AMS_1956-57_33k_ES_PAN_21mic_H50_0449_fot_50A-08771_E_tif
  70
32
  10
187182.500
  20
4565206.793
  30
-17719.449
  0
VERTEX
  8
PNOA-H_AMS_1956-57_33k_ES_PAN_21mic_H50_0449_fot_50A-08771_E_tif
  70
32
  10
187182.500
  20
4565212.793
  30
-14376.1
  0
VERTEX
  8
PNOA-H_AMS_1956-57_33k_ES_PAN_21mic_H50_0449_fot_50A-08771_E_tif
  70
32
  10
187177.500
  20
4565216.793
  30
-17719.9
  0
VERTEX
  8
PNOA-H_AMS_1956-57_33k_ES_PAN_21mic_H50_0449_fot_50A-08771_E_tif
  70
32
  10
187177.500
  20
4565222.793
  30
-14376.2
  0
VERTEX
  8
PNOA-H_AMS_1956-57_33k_ES_PAN_21mic_H50_0449_fot_50A-08771_E_tif
  70
32
  10
187172.500
  20
4565226.793
  30
-17720.35
  0
VERTEX
  8
PNOA-H_AMS_1956-57_33k_ES_PAN_21mic_H50_0449_fot_50A-08771_E_tif
  70
32
  10
187172.500
  20
4565232.793
  30
-14376.65
  0
VERTEX
  8
PNOA-H_AMS_1956-57_33k_ES_PAN_21mic_H50_0449_fot_50A-08771_E_tif
  70
32
  10
187167.500
  20
4565236.793
  30
-17720.35
  0
VERTEX
  8
PNOA-H_AMS_1956-57_33k_ES_PAN_21mic_H50_0449_fot_50A-08771_E_tif
  70
32
  10
187167.500
  20
4565242.793
  30
-14376.75
  0
VERTEX
  8
PNOA-H_AMS_1956-57_33k_ES_PAN_21mic_H50_0449_fot_50A-08771_E_tif
  70
32
  10
187162.500
  20
4565246.793
  30
-17720.801
  0
VERTEX
  8
PNOA-H_AMS_1956-57_33k_ES_PAN_21mic_H50_0449_fot_50A-08771_E_tif
  70
32
  10
187162.500
  20
4565252.793
  30
-14377.2
  0
VERTEX
  8
PNOA-H_AMS_1956-57_33k_ES_PAN_21mic_H50_0449_fot_50A-08771_E_tif
  70
32
  10
187157.500
  20
4565256.793
  30
-17720.801
  0
VERTEX
  8
PNOA-H_AMS_1956-57_33k_ES_PAN_21mic_H50_0449_fot_50A-08771_E_tif
  70
32
  10
187157.500
  20
4565262.793
  30
-14377.2
  0
VERTEX
  8
PNOA-H_AMS_1956-57_33k_ES_PAN_21mic_H50_0449_fot_50A-08771_E_tif
  70
32
  10
187152.500
  20
4565266.793
  30
-17720.801
  0
VERTEX
  8
PNOA-H_AMS_1956-57_33k_ES_PAN_21mic_H50_0449_fot_50A-08771_E_tif
  70
32
  10
187152.500
  20
4565272.793
  30
-14377.2
  0
VERTEX
  8
PNOA-H_AMS_1956-57_33k_ES_PAN_21mic_H50_0449_fot_50A-08771_E_tif
  70
32
  10
187147.500
  20
4565276.793
  30
-17720.801
  0
VERTEX
  8
PNOA-H_AMS_1956-57_33k_ES_PAN_21mic_H50_0449_fot_50A-08771_E_tif
  70
32
  10
187147.500
  20
4565282.793
  30
-14377.2
  0
VERTEX
  8
PNOA-H_AMS_1956-57_33k_ES_PAN_21mic_H50_0449_fot_50A-08771_E_tif
  70
32
  10
187142.500
  20
4565286.793
  30
-17720.801
  0
VERTEX
  8
PNOA-H_AMS_1956-57_33k_ES_PAN_21mic_H50_0449_fot_50A-08771_E_tif
  70
32
  10
187142.500
  20
4565292.793
  30
-14377.2
  0
VERTEX
  8
PNOA-H_AMS_1956-57_33k_ES_PAN_21mic_H50_0449_fot_50A-08771_E_tif
  70
32
  10
187137.500
  20
4565296.793
  30
-17720.801
  0
VERTEX
  8
PNOA-H_AMS_1956-57_33k_ES_PAN_21mic_H50_0449_fot_50A-08771_E_tif
  70
32
  10
187137.500
  20
4565302.793
  30
-14377.2
  0
VERTEX
  8
PNOA-H_AMS_1956-57_33k_ES_PAN_21mic_H50_0449_fot_50A-08771_E_tif
  70
32
  10
187132.500
  20
4565306.793
  30
-17720.801
  0
VERTEX
  8
PNOA-H_AMS_1956-57_33k_ES_PAN_21mic_H50_0449_fot_50A-08771_E_tif
  70
32
  10
187132.500
  20
4565312.793
  30
-14377.1
  0
VERTEX
  8
PNOA-H_AMS_1956-57_33k_ES_PAN_21mic_H50_0449_fot_50A-08771_E_tif
  70
32
  10
187127.500
  20
4565316.793
  30
-17720.35
  0
VERTEX
  8
PNOA-H_AMS_1956-57_33k_ES_PAN_21mic_H50_0449_fot_50A-08771_E_tif
  70
32
  10
187127.500
  20
4565322.793
  30
-14376.65
  0
VERTEX
  8
PNOA-H_AMS_1956-57_33k_ES_PAN_21mic_H50_0449_fot_50A-08771_E_tif
  70
32
  10
187117.500
  20
4565331.793
  30
-17720.35
  0
VERTEX
  8
PNOA-H_AMS_1956-57_33k_ES_PAN_21mic_H50_0449_fot_50A-08771_E_tif
  70
32
  10
187117.500
  20
4565342.793
  30
-14376.65
  0
VERTEX
  8
PNOA-H_AMS_1956-57_33k_ES_PAN_21mic_H50_0449_fot_50A-08771_E_tif
  70
32
  10
187107.500
  20
4565351.793
  30
-17719.9
  0
VERTEX
  8
PNOA-H_AMS_1956-57_33k_ES_PAN_21mic_H50_0449_fot_50A-08771_E_tif
  70
32
  10
187107.500
  20
4565362.793
  30
-14376.1
  0
VERTEX
  8
PNOA-H_AMS_1956-57_33k_ES_PAN_21mic_H50_0449_fot_50A-08771_E_tif
  70
32
  10
187097.500
  20
4565371.793
  30
-17719.449
  0
VERTEX
  8
PNOA-H_AMS_1956-57_33k_ES_PAN_21mic_H50_0449_fot_50A-08771_E_tif
  70
32
  10
187097.500
  20
4565377.793
  30
-14375.55
  0
VERTEX
  8
PNOA-H_AMS_1956-57_33k_ES_PAN_21mic_H50_0449_fot_50A-08771_E_tif
  70
32
  10
187092.500
  20
4565381.793
  30
-17719.449
  0
VERTEX
  8
PNOA-H_AMS_1956-57_33k_ES_PAN_21mic_H50_0449_fot_50A-08771_E_tif
  70
32
  10
187092.500
  20
4565387.793
  30
-14375.55
  0
VERTEX
  8
PNOA-H_AMS_1956-57_33k_ES_PAN_21mic_H50_0449_fot_50A-08771_E_tif
  70
32
  10
187087.500
  20
4565391.793
  30
-17719.449
  0
VERTEX
  8
PNOA-H_AMS_1956-57_33k_ES_PAN_21mic_H50_0449_fot_50A-08771_E_tif
  70
32
  10
187087.500
  20
4565397.793
  30
-14375
  0
VERTEX
  8
PNOA-H_AMS_1956-57_33k_ES_PAN_21mic_H50_0449_fot_50A-08771_E_tif
  70
32
  10
187082.500
  20
4565401.793
  30
-17719
  0
VERTEX
  8
PNOA-H_AMS_1956-57_33k_ES_PAN_21mic_H50_0449_fot_50A-08771_E_tif
  70
32
  10
187082.500
  20
4565407.793
  30
-14375
  0
VERTEX
  8
PNOA-H_AMS_1956-57_33k_ES_PAN_21mic_H50_0449_fot_50A-08771_E_tif
  70
32
  10
187077.500
  20
4565411.793
  30
-17719
  0
VERTEX
  8
PNOA-H_AMS_1956-57_33k_ES_PAN_21mic_H50_0449_fot_50A-08771_E_tif
  70
32
  10
187077.500
  20
4565417.793
  30
-14374.45
  0
VERTEX
  8
PNOA-H_AMS_1956-57_33k_ES_PAN_21mic_H50_0449_fot_50A-08771_E_tif
  70
32
  10
187072.500
  20
4565421.793
  30
-17718.551
  0
VERTEX
  8
PNOA-H_AMS_1956-57_33k_ES_PAN_21mic_H50_0449_fot_50A-08771_E_tif
  70
32
  10
187072.500
  20
4565427.793
  30
-14374.35
  0
VERTEX
  8
PNOA-H_AMS_1956-57_33k_ES_PAN_21mic_H50_0449_fot_50A-08771_E_tif
  70
32
  10
187067.500
  20
4565431.793
  30
-17718.1
  0
VERTEX
  8
PNOA-H_AMS_1956-57_33k_ES_PAN_21mic_H50_0449_fot_50A-08771_E_tif
  70
32
  10
187067.500
  20
4565437.793
  30
-14373.8
  0
VERTEX
  8
PNOA-H_AMS_1956-57_33k_ES_PAN_21mic_H50_0449_fot_50A-08771_E_tif
  70
32
  10
187062.500
  20
4565441.793
  30
-17717.65
  0
VERTEX
  8
PNOA-H_AMS_1956-57_33k_ES_PAN_21mic_H50_0449_fot_50A-08771_E_tif
  70
32
  10
187062.500
  20
4565447.793
  30
-14372.8
  0
VERTEX
  8
PNOA-H_AMS_1956-57_33k_ES_PAN_21mic_H50_0449_fot_50A-08771_E_tif
  70
32
  10
187057.500
  20
4565451.793
  30
-17717.199
  0
VERTEX
  8
PNOA-H_AMS_1956-57_33k_ES_PAN_21mic_H50_0449_fot_50A-08771_E_tif
  70
32
  10
187057.500
  20
4565457.793
  30
-14372.9
  0
VERTEX
  8
PNOA-H_AMS_1956-57_33k_ES_PAN_21mic_H50_0449_fot_50A-08771_E_tif
  70
32
  10
187052.500
  20
4565461.793
  30
-17717.65
  0
VERTEX
  8
PNOA-H_AMS_1956-57_33k_ES_PAN_21mic_H50_0449_fot_50A-08771_E_tif
  70
32
  10
187052.500
  20
4565467.793
  30
-14372.8
  0
VERTEX
  8
PNOA-H_AMS_1956-57_33k_ES_PAN_21mic_H50_0449_fot_50A-08771_E_tif
  70
32
  10
187047.500
  20
4565471.793
  30
-17717.199
  0
VERTEX
  8
PNOA-H_AMS_1956-57_33k_ES_PAN_21mic_H50_0449_fot_50A-08771_E_tif
  70
32
  10
187047.500
  20
4565477.793
  30
-14372.8
  0
VERTEX
  8
PNOA-H_AMS_1956-57_33k_ES_PAN_21mic_H50_0449_fot_50A-08771_E_tif
  70
32
  10
187042.500
  20
4565481.793
  30
-17717.199
  0
VERTEX
  8
PNOA-H_AMS_1956-57_33k_ES_PAN_21mic_H50_0449_fot_50A-08771_E_tif
  70
32
  10
187042.500
  20
4565487.793
  30
-14371.7
  0
VERTEX
  8
PNOA-H_AMS_1956-57_33k_ES_PAN_21mic_H50_0449_fot_50A-08771_E_tif
  70
32
  10
187037.500
  20
4565491.793
  30
-17716.301
  0
VERTEX
  8
PNOA-H_AMS_1956-57_33k_ES_PAN_21mic_H50_0449_fot_50A-08771_E_tif
  70
32
  10
187037.500
  20
4565497.793
  30
-14371.7
  0
VERTEX
  8
PNOA-H_AMS_1956-57_33k_ES_PAN_21mic_H50_0449_fot_50A-08771_E_tif
  70
32
  10
187032.500
  20
4565501.793
  30
-17716.301
  0
VERTEX
  8
PNOA-H_AMS_1956-57_33k_ES_PAN_21mic_H50_0449_fot_50A-08771_E_tif
  70
32
  10
187032.500
  20
4565507.793
  30
-14371.15
  0
VERTEX
  8
PNOA-H_AMS_1956-57_33k_ES_PAN_21mic_H50_0449_fot_50A-08771_E_tif
  70
32
  10
187027.500
  20
4565511.793
  30
-17715.85
  0
VERTEX
  8
PNOA-H_AMS_1956-57_33k_ES_PAN_21mic_H50_0449_fot_50A-08771_E_tif
  70
32
  10
187027.500
  20
4565517.793
  30
-14371.15
  0
VERTEX
  8
PNOA-H_AMS_1956-57_33k_ES_PAN_21mic_H50_0449_fot_50A-08771_E_tif
  70
32
  10
187022.500
  20
4565521.793
  30
-17715.85
  0
VERTEX
  8
PNOA-H_AMS_1956-57_33k_ES_PAN_21mic_H50_0449_fot_50A-08771_E_tif
  70
32
  10
187022.500
  20
4565527.793
  30
-14371.15
  0
VERTEX
  8
PNOA-H_AMS_1956-57_33k_ES_PAN_21mic_H50_0449_fot_50A-08771_E_tif
  70
32
  10
187017.500
  20
4565531.793
  30
-17715.85
  0
VERTEX
  8
PNOA-H_AMS_1956-57_33k_ES_PAN_21mic_H50_0449_fot_50A-08771_E_tif
  70
32
  10
187017.500
  20
4565537.793
  30
-14370.6
  0
VERTEX
  8
PNOA-H_AMS_1956-57_33k_ES_PAN_21mic_H50_0449_fot_50A-08771_E_tif
  70
32
  10
187012.500
  20
4565541.793
  30
-17715.4
  0
VERTEX
  8
PNOA-H_AMS_1956-57_33k_ES_PAN_21mic_H50_0449_fot_50A-08771_E_tif
  70
32
  10
187012.500
  20
4565547.793
  30
-14370.5
  0
VERTEX
  8
PNOA-H_AMS_1956-57_33k_ES_PAN_21mic_H50_0449_fot_50A-08771_E_tif
  70
32
  10
187002.500
  20
4565556.793
  30
-17714.949
  0
VERTEX
  8
PNOA-H_AMS_1956-57_33k_ES_PAN_21mic_H50_0449_fot_50A-08771_E_tif
  70
32
  10
187002.500
  20
4565562.793
  30
-14369.5
  0
VERTEX
  8
PNOA-H_AMS_1956-57_33k_ES_PAN_21mic_H50_0449_fot_50A-08771_E_tif
  70
32
  10
186997.500
  20
4565566.793
  30
-17714.5
  0
VERTEX
  8
PNOA-H_AMS_1956-57_33k_ES_PAN_21mic_H50_0449_fot_50A-08771_E_tif
  70
32
  10
186997.500
  20
4565577.793
  30
-14369.4
  0
VERTEX
  8
PNOA-H_AMS_1956-57_33k_ES_PAN_21mic_H50_0449_fot_50A-08771_E_tif
  70
32
  10
186992.500
  20
4565581.793
  30
-17714.051
  0
VERTEX
  8
PNOA-H_AMS_1956-57_33k_ES_PAN_21mic_H50_0449_fot_50A-08771_E_tif
  70
32
  10
186992.500
  20
4565587.793
  30
-14368.9
  0
VERTEX
  8
PNOA-H_AMS_1956-57_33k_ES_PAN_21mic_H50_0449_fot_50A-08771_E_tif
  70
32
  10
186982.500
  20
4565596.793
  30
-17713.6
  0
VERTEX
  8
PNOA-H_AMS_1956-57_33k_ES_PAN_21mic_H50_0449_fot_50A-08771_E_tif
  70
32
  10
186982.500
  20
4565602.793
  30
-14368.35
  0
VERTEX
  8
PNOA-H_AMS_1956-57_33k_ES_PAN_21mic_H50_0449_fot_50A-08771_E_tif
  70
32
  10
186977.500
  20
4565606.793
  30
-17713.15
  0
VERTEX
  8
PNOA-H_AMS_1956-57_33k_ES_PAN_21mic_H50_0449_fot_50A-08771_E_tif
  70
32
  10
186977.500
  20
4565612.793
  30
-14367.85
  0
VERTEX
  8
PNOA-H_AMS_1956-57_33k_ES_PAN_21mic_H50_0449_fot_50A-08771_E_tif
  70
32
  10
186972.500
  20
4565616.793
  30
-17713.15
  0
VERTEX
  8
PNOA-H_AMS_1956-57_33k_ES_PAN_21mic_H50_0449_fot_50A-08771_E_tif
  70
32
  10
186972.500
  20
4565622.793
  30
-14367.3
  0
VERTEX
  8
PNOA-H_AMS_1956-57_33k_ES_PAN_21mic_H50_0449_fot_50A-08771_E_tif
  70
32
  10
186967.500
  20
4565626.793
  30
-17712.699
  0
VERTEX
  8
PNOA-H_AMS_1956-57_33k_ES_PAN_21mic_H50_0449_fot_50A-08771_E_tif
  70
32
  10
186967.500
  20
4565632.793
  30
-14366.75
  0
VERTEX
  8
PNOA-H_AMS_1956-57_33k_ES_PAN_21mic_H50_0449_fot_50A-08771_E_tif
  70
32
  10
186962.500
  20
4565636.793
  30
-17712.25
  0
VERTEX
  8
PNOA-H_AMS_1956-57_33k_ES_PAN_21mic_H50_0449_fot_50A-08771_E_tif
  70
32
  10
186962.500
  20
4565642.793
  30
-14366.2
  0
VERTEX
  8
PNOA-H_AMS_1956-57_33k_ES_PAN_21mic_H50_0449_fot_50A-08771_E_tif
  70
32
  10
186957.500
  20
4565646.793
  30
-17711.801
  0
VERTEX
  8
PNOA-H_AMS_1956-57_33k_ES_PAN_21mic_H50_0449_fot_50A-08771_E_tif
  70
32
  10
186957.500
  20
4565652.793
  30
-14366.2
  0
VERTEX
  8
PNOA-H_AMS_1956-57_33k_ES_PAN_21mic_H50_0449_fot_50A-08771_E_tif
  70
32
  10
186952.500
  20
4565656.793
  30
-17711.801
  0
VERTEX
  8
PNOA-H_AMS_1956-57_33k_ES_PAN_21mic_H50_0449_fot_50A-08771_E_tif
  70
32
  10
186952.500
  20
4565662.793
  30
-14366.1
  0
VERTEX
  8
PNOA-H_AMS_1956-57_33k_ES_PAN_21mic_H50_0449_fot_50A-08771_E_tif
  70
32
  10
186947.500
  20
4565666.793
  30
-17711.35
  0
VERTEX
  8
PNOA-H_AMS_1956-57_33k_ES_PAN_21mic_H50_0449_fot_50A-08771_E_tif
  70
32
  10
186947.500
  20
4565672.793
  30
-14365.65
  0
VERTEX
  8
PNOA-H_AMS_1956-57_33k_ES_PAN_21mic_H50_0449_fot_50A-08771_E_tif
  70
32
  10
186942.500
  20
4565676.793
  30
-17711.35
  0
VERTEX
  8
PNOA-H_AMS_1956-57_33k_ES_PAN_21mic_H50_0449_fot_50A-08771_E_tif
  70
32
  10
186942.500
  20
4565682.793
  30
-14365.55
  0
VERTEX
  8
PNOA-H_AMS_1956-57_33k_ES_PAN_21mic_H50_0449_fot_50A-08771_E_tif
  70
32
  10
186937.500
  20
4565686.793
  30
-17710.9
  0
VERTEX
  8
PNOA-H_AMS_1956-57_33k_ES_PAN_21mic_H50_0449_fot_50A-08771_E_tif
  70
32
  10
186937.500
  20
4565692.793
  30
-14365.1
  0
VERTEX
  8
PNOA-H_AMS_1956-57_33k_ES_PAN_21mic_H50_0449_fot_50A-08771_E_tif
  70
32
  10
186932.500
  20
4565696.793
  30
-17710.9
  0
VERTEX
  8
PNOA-H_AMS_1956-57_33k_ES_PAN_21mic_H50_0449_fot_50A-08771_E_tif
  70
32
  10
186932.500
  20
4565702.793
  30
-14365.1
  0
VERTEX
  8
PNOA-H_AMS_1956-57_33k_ES_PAN_21mic_H50_0449_fot_50A-08771_E_tif
  70
32
  10
186927.500
  20
4565706.793
  30
-17710.9
  0
VERTEX
  8
PNOA-H_AMS_1956-57_33k_ES_PAN_21mic_H50_0449_fot_50A-08771_E_tif
  70
32
  10
186927.500
  20
4565712.793
  30
-14365.2
  0
VERTEX
  8
PNOA-H_AMS_1956-57_33k_ES_PAN_21mic_H50_0449_fot_50A-08771_E_tif
  70
32
  10
186922.500
  20
4565716.793
  30
-17711.35
  0
VERTEX
  8
PNOA-H_AMS_1956-57_33k_ES_PAN_21mic_H50_0449_fot_50A-08771_E_tif
  70
32
  10
186922.500
  20
4565722.793
  30
-14365.65
  0
VERTEX
  8
PNOA-H_AMS_1956-57_33k_ES_PAN_21mic_H50_0449_fot_50A-08771_E_tif
  70
32
  10
186917.500
  20
4565726.793
  30
-17711.35
  0
VERTEX
  8
PNOA-H_AMS_1956-57_33k_ES_PAN_21mic_H50_0449_fot_50A-08771_E_tif
  70
32
  10
186917.500
  20
4565732.793
  30
-14366.2
  0
VERTEX
  8
PNOA-H_AMS_1956-57_33k_ES_PAN_21mic_H50_0449_fot_50A-08771_E_tif
  70
32
  10
186912.500
  20
4565736.793
  30
-17711.801
  0
VERTEX
  8
PNOA-H_AMS_1956-57_33k_ES_PAN_21mic_H50_0449_fot_50A-08771_E_tif
  70
32
  10
186912.500
  20
4565742.793
  30
-14366.2
  0
VERTEX
  8
PNOA-H_AMS_1956-57_33k_ES_PAN_21mic_H50_0449_fot_50A-08771_E_tif
  70
32
  10
186907.500
  20
4565746.793
  30
-17711.801
  0
VERTEX
  8
PNOA-H_AMS_1956-57_33k_ES_PAN_21mic_H50_0449_fot_50A-08771_E_tif
  70
32
  10
186907.500
  20
4565752.793
  30
-14366.2
  0
VERTEX
  8
PNOA-H_AMS_1956-57_33k_ES_PAN_21mic_H50_0449_fot_50A-08771_E_tif
  70
32
  10
186902.500
  20
4565756.793
  30
-17711.801
  0
VERTEX
  8
PNOA-H_AMS_1956-57_33k_ES_PAN_21mic_H50_0449_fot_50A-08771_E_tif
  70
32
  10
186902.500
  20
4565762.793
  30
-14366.75
  0
VERTEX
  8
PNOA-H_AMS_1956-57_33k_ES_PAN_21mic_H50_0449_fot_50A-08771_E_tif
  70
32
  10
186892.500
  20
4565771.793
  30
-17712.25
  0
VERTEX
  8
PNOA-H_AMS_1956-57_33k_ES_PAN_21mic_H50_0449_fot_50A-08771_E_tif
  70
32
  10
186892.500
  20
4565782.793
  30
-14366.3
  0
VERTEX
  8
PNOA-H_AMS_1956-57_33k_ES_PAN_21mic_H50_0449_fot_50A-08771_E_tif
  70
32
  10
186887.500
  20
4565786.793
  30
-17712.25
  0
VERTEX
  8
PNOA-H_AMS_1956-57_33k_ES_PAN_21mic_H50_0449_fot_50A-08771_E_tif
  70
32
  10
186887.500
  20
4565792.793
  30
-14366.75
  0
VERTEX
  8
PNOA-H_AMS_1956-57_33k_ES_PAN_21mic_H50_0449_fot_50A-08771_E_tif
  70
32
  10
186877.500
  20
4565801.793
  30
-17712.25
  0
VERTEX
  8
PNOA-H_AMS_1956-57_33k_ES_PAN_21mic_H50_0449_fot_50A-08771_E_tif
  70
32
  10
186877.500
  20
4565807.793
  30
-14366.2
  0
VERTEX
  8
PNOA-H_AMS_1956-57_33k_ES_PAN_21mic_H50_0449_fot_50A-08771_E_tif
  70
32
  10
186872.500
  20
4565811.793
  30
-17711.801
  0
VERTEX
  8
PNOA-H_AMS_1956-57_33k_ES_PAN_21mic_H50_0449_fot_50A-08771_E_tif
  70
32
  10
186872.500
  20
4565817.793
  30
-14366.2
  0
VERTEX
  8
PNOA-H_AMS_1956-57_33k_ES_PAN_21mic_H50_0449_fot_50A-08771_E_tif
  70
32
  10
186867.500
  20
4565821.793
  30
-17711.801
  0
VERTEX
  8
PNOA-H_AMS_1956-57_33k_ES_PAN_21mic_H50_0449_fot_50A-08771_E_tif
  70
32
  10
186867.500
  20
4565827.793
  30
-14366.2
  0
VERTEX
  8
PNOA-H_AMS_1956-57_33k_ES_PAN_21mic_H50_0449_fot_50A-08771_E_tif
  70
32
  10
186862.500
  20
4565831.793
  30
-17711.801
  0
VERTEX
  8
PNOA-H_AMS_1956-57_33k_ES_PAN_21mic_H50_0449_fot_50A-08771_E_tif
  70
32
  10
186862.500
  20
4565837.793
  30
-14366.2
  0
VERTEX
  8
PNOA-H_AMS_1956-57_33k_ES_PAN_21mic_H50_0449_fot_50A-08771_E_tif
  70
32
  10
186857.500
  20
4565841.793
  30
-17711.801
  0
VERTEX
  8
PNOA-H_AMS_1956-57_33k_ES_PAN_21mic_H50_0449_fot_50A-08771_E_tif
  70
32
  10
186857.500
  20
4565847.793
  30
-14366.2
  0
VERTEX
  8
PNOA-H_AMS_1956-57_33k_ES_PAN_21mic_H50_0449_fot_50A-08771_E_tif
  70
32
  10
186852.500
  20
4565851.793
  30
-17711.801
  0
VERTEX
  8
PNOA-H_AMS_1956-57_33k_ES_PAN_21mic_H50_0449_fot_50A-08771_E_tif
  70
32
  10
186852.500
  20
4565857.793
  30
-14366.2
  0
VERTEX
  8
PNOA-H_AMS_1956-57_33k_ES_PAN_21mic_H50_0449_fot_50A-08771_E_tif
  70
32
  10
186847.500
  20
4565861.793
  30
-17711.801
  0
VERTEX
  8
PNOA-H_AMS_1956-57_33k_ES_PAN_21mic_H50_0449_fot_50A-08771_E_tif
  70
32
  10
186847.500
  20
4565867.793
  30
-14365.65
  0
VERTEX
  8
PNOA-H_AMS_1956-57_33k_ES_PAN_21mic_H50_0449_fot_50A-08771_E_tif
  70
32
  10
186842.500
  20
4565871.793
  30
-17711.35
  0
VERTEX
  8
PNOA-H_AMS_1956-57_33k_ES_PAN_21mic_H50_0449_fot_50A-08771_E_tif
  70
32
  10
186842.500
  20
4565877.793
  30
-14365.65
  0
VERTEX
  8
PNOA-H_AMS_1956-57_33k_ES_PAN_21mic_H50_0449_fot_50A-08771_E_tif
  70
32
  10
186837.500
  20
4565881.793
  30
-17711.35
  0
VERTEX
  8
PNOA-H_AMS_1956-57_33k_ES_PAN_21mic_H50_0449_fot_50A-08771_E_tif
  70
32
  10
186837.500
  20
4565887.793
  30
-14365.65
  0
VERTEX
  8
PNOA-H_AMS_1956-57_33k_ES_PAN_21mic_H50_0449_fot_50A-08771_E_tif
  70
32
  10
186832.500
  20
4565891.793
  30
-17711.35
  0
VERTEX
  8
PNOA-H_AMS_1956-57_33k_ES_PAN_21mic_H50_0449_fot_50A-08771_E_tif
  70
32
  10
186832.500
  20
4565897.793
  30
-14365.6
  0
VERTEX
  8
PNOA-H_AMS_1956-57_33k_ES_PAN_21mic_H50_0449_fot_50A-08771_E_tif
  70
32
  10
186827.500
  20
4565901.793
  30
-17710.9
  0
VERTEX
  8
PNOA-H_AMS_1956-57_33k_ES_PAN_21mic_H50_0449_fot_50A-08771_E_tif
  70
32
  10
186827.500
  20
4565907.793
  30
-14365.1
  0
VERTEX
  8
PNOA-H_AMS_1956-57_33k_ES_PAN_21mic_H50_0449_fot_50A-08771_E_tif
  70
32
  10
186822.500
  20
4565911.793
  30
-17710.9
  0
VERTEX
  8
PNOA-H_AMS_1956-57_33k_ES_PAN_21mic_H50_0449_fot_50A-08771_E_tif
  70
32
  10
186822.500
  20
4565917.793
  30
-14365.1
  0
VERTEX
  8
PNOA-H_AMS_1956-57_33k_ES_PAN_21mic_H50_0449_fot_50A-08771_E_tif
  70
32
  10
186817.500
  20
4565921.793
  30
-17710.9
  0
VERTEX
  8
PNOA-H_AMS_1956-57_33k_ES_PAN_21mic_H50_0449_fot_50A-08771_E_tif
  70
32
  10
186817.500
  20
4565927.793
  30
-14365
  0
VERTEX
  8
PNOA-H_AMS_1956-57_33k_ES_PAN_21mic_H50_0449_fot_50A-08771_E_tif
  70
32
  10
186812.500
  20
4565931.793
  30
-17710.449
  0
VERTEX
  8
PNOA-H_AMS_1956-57_33k_ES_PAN_21mic_H50_0449_fot_50A-08771_E_tif
  70
32
  10
186812.500
  20
4565937.793
  30
-14364.45
  0
VERTEX
  8
PNOA-H_AMS_1956-57_33k_ES_PAN_21mic_H50_0449_fot_50A-08771_E_tif
  70
32
  10
186807.500
  20
4565941.793
  30
-17710
  0
VERTEX
  8
PNOA-H_AMS_1956-57_33k_ES_PAN_21mic_H50_0449_fot_50A-08771_E_tif
  70
32
  10
186807.500
  20
4565947.793
  30
-14364
  0
VERTEX
  8
PNOA-H_AMS_1956-57_33k_ES_PAN_21mic_H50_0449_fot_50A-08771_E_tif
  70
32
  10
186802.500
  20
4565951.793
  30
-17710
  0
VERTEX
  8
PNOA-H_AMS_1956-57_33k_ES_PAN_21mic_H50_0449_fot_50A-08771_E_tif
  70
32
  10
186802.500
  20
4565957.793
  30
-14364
  0
VERTEX
  8
PNOA-H_AMS_1956-57_33k_ES_PAN_21mic_H50_0449_fot_50A-08771_E_tif
  70
32
  10
186797.500
  20
4565961.793
  30
-17710
  0
VERTEX
  8
PNOA-H_AMS_1956-57_33k_ES_PAN_21mic_H50_0449_fot_50A-08771_E_tif
  70
32
  10
186797.500
  20
4565967.793
  30
-14363.45
  0
VERTEX
  8
PNOA-H_AMS_1956-57_33k_ES_PAN_21mic_H50_0449_fot_50A-08771_E_tif
  70
32
  10
186787.500
  20
4565976.793
  30
-17709.1
  0
VERTEX
  8
PNOA-H_AMS_1956-57_33k_ES_PAN_21mic_H50_0449_fot_50A-08771_E_tif
  70
32
  10
186787.500
  20
4565987.793
  30
-14361.8
  0
VERTEX
  8
PNOA-H_AMS_1956-57_33k_ES_PAN_21mic_H50_0449_fot_50A-08771_E_tif
  70
32
  10
186782.500
  20
4565992.293
  30
-16035
  0
VERTEX
  8
PNOA-H_AMS_1956-57_33k_ES_PAN_21mic_H50_0449_fot_50A-08771_E_tif
  70
32
  10
186783.000
  20
4565997.293
  30
-12688.6
  0
VERTEX
  8
PNOA-H_AMS_1956-57_33k_ES_PAN_21mic_H50_0449_fot_50A-08771_E_tif
  70
32
  10
186788.000
  20
4565996.293
  30
697
  0
VERTEX
  8
PNOA-H_AMS_1956-57_33k_ES_PAN_21mic_H50_0449_fot_50A-08771_E_tif
  70
32
  10
186791.000
  20
4565999.293
  30
697
  0
VERTEX
  8
PNOA-H_AMS_1956-57_33k_ES_PAN_21mic_H50_0449_fot_50A-08771_E_tif
  70
32
  10
186789.500
  20
4566004.793
  30
-16035
  0
VERTEX
  8
PNOA-H_AMS_1956-57_33k_ES_PAN_21mic_H50_0449_fot_50A-08771_E_tif
  70
32
  10
186813.500
  20
4566004.793
  30
-16035.5
  0
VERTEX
  8
PNOA-H_AMS_1956-57_33k_ES_PAN_21mic_H50_0449_fot_50A-08771_E_tif
  70
32
  10
186815.500
  20
4566003.793
  30
-9342.9
  0
VERTEX
  8
PNOA-H_AMS_1956-57_33k_ES_PAN_21mic_H50_0449_fot_50A-08771_E_tif
  70
32
  10
188227.000
  20
4565131.793
  30
614.7
  0
SEQEND
  8
PNOA-H_AMS_1956-57_33k_ES_PAN_21mic_H50_0449_fot_50A-08771_E_tif
  0
TEXT
  8
PNOA-H_AMS_1956-57_33k_ES_PAN_21mic_H50_0449_fot_50A-08771_E_tif
 62
0
  1
PNOA-H_AMS_1956-57_33k_ES_PAN_21mic_H50_0449_fot_50A-08771_E.tif
 40
41.79052
  10
187185.536
  20
4564962.483
  0
POLYLINE
  8
PNOA-H_AMS_1956-57_33k_ES_PAN_21mic_H50_0422_fot_49A-10174_W_tif
  70
9
  66
1
  0
VERTEX
  8
PNOA-H_AMS_1956-57_33k_ES_PAN_21mic_H50_0422_fot_49A-10174_W_tif
  70
32
  10
198772.500
  20
4569422.793
  30
670.5
  0
VERTEX
  8
PNOA-H_AMS_1956-57_33k_ES_PAN_21mic_H50_0422_fot_49A-10174_W_tif
  70
32
  10
198782.000
  20
4569422.793
  30
669.32
  0
VERTEX
  8
PNOA-H_AMS_1956-57_33k_ES_PAN_21mic_H50_0422_fot_49A-10174_W_tif
  70
32
  10
198785.500
  20
4569420.793
  30
670.13
  0
VERTEX
  8
PNOA-H_AMS_1956-57_33k_ES_PAN_21mic_H50_0422_fot_49A-10174_W_tif
  70
32
  10
199295.000
  20
4569119.293
  30
662.6
  0
VERTEX
  8
PNOA-H_AMS_1956-57_33k_ES_PAN_21mic_H50_0422_fot_49A-10174_W_tif
  70
32
  10
199022.500
  20
4564949.293
  30
696.8
  0
VERTEX
  8
PNOA-H_AMS_1956-57_33k_ES_PAN_21mic_H50_0422_fot_49A-10174_W_tif
  70
32
  10
199021.000
  20
4564947.293
  30
697
  0
VERTEX
  8
PNOA-H_AMS_1956-57_33k_ES_PAN_21mic_H50_0422_fot_49A-10174_W_tif
  70
32
  10
197305.000
  20
4564575.793
  30
729
  0
VERTEX
  8
PNOA-H_AMS_1956-57_33k_ES_PAN_21mic_H50_0422_fot_49A-10174_W_tif
  70
32
  10
196244.500
  20
4565041.793
  30
696.09
  0
VERTEX
  8
PNOA-H_AMS_1956-57_33k_ES_PAN_21mic_H50_0422_fot_49A-10174_W_tif
  70
32
  10
196515.000
  20
4569293.793
  30
685
  0
VERTEX
  8
PNOA-H_AMS_1956-57_33k_ES_PAN_21mic_H50_0422_fot_49A-10174_W_tif
  70
32
  10
198764.000
  20
4569422.293
  30
672.2
  0
VERTEX
  8
PNOA-H_AMS_1956-57_33k_ES_PAN_21mic_H50_0422_fot_49A-10174_W_tif
  70
32
  10
198772.500
  20
4569422.793
  30
670.5
  0
SEQEND
  8
PNOA-H_AMS_1956-57_33k_ES_PAN_21mic_H50_0422_fot_49A-10174_W_tif
  0
TEXT
  8
PNOA-H_AMS_1956-57_33k_ES_PAN_21mic_H50_0422_fot_49A-10174_W_tif
 62
0
  1
PNOA-H_AMS_1956-57_33k_ES_PAN_21mic_H50_0422_fot_49A-10174_W.tif
 40
41.79052
  10
197762.747
  20
4566999.293
  0
POLYLINE
  8
PNOA-H_AMS_1956-57_33k_ES_PAN_21mic_H50_0422_fot_49A-10175_W_tif
  70
9
  66
1
  0
VERTEX
  8
PNOA-H_AMS_1956-57_33k_ES_PAN_21mic_H50_0422_fot_49A-10175_W_tif
  70
32
  10
196273.000
  20
4565493.793
  30
699.9
  0
VERTEX
  8
PNOA-H_AMS_1956-57_33k_ES_PAN_21mic_H50_0422_fot_49A-10175_W_tif
  70
32
  10
196244.500
  20
4565041.793
  30
696.09
  0
VERTEX
  8
PNOA-H_AMS_1956-57_33k_ES_PAN_21mic_H50_0422_fot_49A-10175_W_tif
  70
32
  10
194308.500
  20
4564740.793
  30
617.51
  0
VERTEX
  8
PNOA-H_AMS_1956-57_33k_ES_PAN_21mic_H50_0422_fot_49A-10175_W_tif
  70
32
  10
194296.500
  20
4564746.293
  30
617.2
  0
VERTEX
  8
PNOA-H_AMS_1956-57_33k_ES_PAN_21mic_H50_0422_fot_49A-10175_W_tif
  70
32
  10
193503.500
  20
4565170.793
  30
630.51
  0
VERTEX
  8
PNOA-H_AMS_1956-57_33k_ES_PAN_21mic_H50_0422_fot_49A-10175_W_tif
  70
32
  10
193743.500
  20
4569399.793
  30
704.7
  0
VERTEX
  8
PNOA-H_AMS_1956-57_33k_ES_PAN_21mic_H50_0422_fot_49A-10175_W_tif
  70
32
  10
193745.500
  20
4569432.293
  30
705.1
  0
VERTEX
  8
PNOA-H_AMS_1956-57_33k_ES_PAN_21mic_H50_0422_fot_49A-10175_W_tif
  70
32
  10
193746.500
  20
4569432.793
  30
705.2
  0
VERTEX
  8
PNOA-H_AMS_1956-57_33k_ES_PAN_21mic_H50_0422_fot_49A-10175_W_tif
  70
32
  10
195862.500
  20
4569652.793
  30
656.5
  0
VERTEX
  8
PNOA-H_AMS_1956-57_33k_ES_PAN_21mic_H50_0422_fot_49A-10175_W_tif
  70
32
  10
196515.000
  20
4569293.793
  30
685
  0
VERTEX
  8
PNOA-H_AMS_1956-57_33k_ES_PAN_21mic_H50_0422_fot_49A-10175_W_tif
  70
32
  10
196273.000
  20
4565497.293
  30
700.6
  0
VERTEX
  8
PNOA-H_AMS_1956-57_33k_ES_PAN_21mic_H50_0422_fot_49A-10175_W_tif
  70
32
  10
196273.000
  20
4565493.793
  30
699.9
  0
SEQEND
  8
PNOA-H_AMS_1956-57_33k_ES_PAN_21mic_H50_0422_fot_49A-10175_W_tif
  0
TEXT
  8
PNOA-H_AMS_1956-57_33k_ES_PAN_21mic_H50_0422_fot_49A-10175_W_tif
 62
0
  1
PNOA-H_AMS_1956-57_33k_ES_PAN_21mic_H50_0422_fot_49A-10175_W.tif
 40
41.79052
  10
194999.904
  20
4567196.793
  0
POLYLINE
  8
PNOA-H_AMS_1956-57_33k_ES_PAN_21mic_H50_0422_fot_48A-10182_E_tif
  70
9
  66
1
  0
VERTEX
  8
PNOA-H_AMS_1956-57_33k_ES_PAN_21mic_H50_0422_fot_48A-10182_E_tif
  70
32
  10
194000.707
  20
4573180.000
  30
-14549.944
  0
VERTEX
  8
PNOA-H_AMS_1956-57_33k_ES_PAN_21mic_H50_0422_fot_48A-10182_E_tif
  70
32
  10
196105.766
  20
4573180.000
  30
-10519.375
  0
VERTEX
  8
PNOA-H_AMS_1956-57_33k_ES_PAN_21mic_H50_0422_fot_48A-10182_E_tif
  70
32
  10
195861.500
  20
4569652.793
  30
656.7
  0
VERTEX
  8
PNOA-H_AMS_1956-57_33k_ES_PAN_21mic_H50_0422_fot_48A-10182_E_tif
  70
32
  10
193745.500
  20
4569432.293
  30
705.1
  0
VERTEX
  8
PNOA-H_AMS_1956-57_33k_ES_PAN_21mic_H50_0422_fot_48A-10182_E_tif
  70
32
  10
192934.500
  20
4569856.793
  30
666
  0
VERTEX
  8
PNOA-H_AMS_1956-57_33k_ES_PAN_21mic_H50_0422_fot_48A-10182_E_tif
  70
32
  10
193190.500
  20
4573177.293
  30
500
  0
VERTEX
  8
PNOA-H_AMS_1956-57_33k_ES_PAN_21mic_H50_0422_fot_48A-10182_E_tif
  70
32
  10
193190.500
  20
4573179.793
  30
-16133.5
  0
VERTEX
  8
PNOA-H_AMS_1956-57_33k_ES_PAN_21mic_H50_0422_fot_48A-10182_E_tif
  70
32
  10
194000.500
  20
4573179.793
  30
-14415.1
  0
VERTEX
  8
PNOA-H_AMS_1956-57_33k_ES_PAN_21mic_H50_0422_fot_48A-10182_E_tif
  70
32
  10
194000.707
  20
4573180.000
  30
-14549.944
  0
SEQEND
  8
PNOA-H_AMS_1956-57_33k_ES_PAN_21mic_H50_0422_fot_48A-10182_E_tif
  0
TEXT
  8
PNOA-H_AMS_1956-57_33k_ES_PAN_21mic_H50_0422_fot_48A-10182_E_tif
 62
0
  1
PNOA-H_AMS_1956-57_33k_ES_PAN_21mic_H50_0422_fot_48A-10182_E.tif
 40
41.79052
  10
194511.119
  20
4571306.147
  0
POLYLINE
  8
PNOA-H_AMS_1956-57_33k_ES_PAN_21mic_H50_0422_fot_48A-10183_E_tif
  70
9
  66
1
  0
VERTEX
  8
PNOA-H_AMS_1956-57_33k_ES_PAN_21mic_H50_0422_fot_48A-10183_E_tif
  70
32
  10
196105.766
  20
4573180.000
  30
-10519.375
  0
VERTEX
  8
PNOA-H_AMS_1956-57_33k_ES_PAN_21mic_H50_0422_fot_48A-10183_E_tif
  70
32
  10
197900.000
  20
4573180.000
  30
-2456.978
  0
VERTEX
  8
PNOA-H_AMS_1956-57_33k_ES_PAN_21mic_H50_0422_fot_48A-10183_E_tif
  70
32
  10
197900.000
  20
4573989.793
  30
-11285.301
  0
VERTEX
  8
PNOA-H_AMS_1956-57_33k_ES_PAN_21mic_H50_0422_fot_48A-10183_E_tif
  70
32
  10
197900.500
  20
4573989.793
  30
-14441.75
  0
VERTEX
  8
PNOA-H_AMS_1956-57_33k_ES_PAN_21mic_H50_0422_fot_48A-10183_E_tif
  70
32
  10
197903.000
  20
4573985.793
  30
557.9
  0
VERTEX
  8
PNOA-H_AMS_1956-57_33k_ES_PAN_21mic_H50_0422_fot_48A-10183_E_tif
  70
32
  10
199037.500
  20
4573985.293
  30
552.6
  0
VERTEX
  8
PNOA-H_AMS_1956-57_33k_ES_PAN_21mic_H50_0422_fot_48A-10183_E_tif
  70
32
  10
198995.500
  20
4573239.293
  30
337.18
  0
VERTEX
  8
PNOA-H_AMS_1956-57_33k_ES_PAN_21mic_H50_0422_fot_48A-10183_E_tif
  70
32
  10
198995.500
  20
4573237.793
  30
338.77
  0
VERTEX
  8
PNOA-H_AMS_1956-57_33k_ES_PAN_21mic_H50_0422_fot_48A-10183_E_tif
  70
32
  10
198997.000
  20
4573238.293
  30
338.96
  0
VERTEX
  8
PNOA-H_AMS_1956-57_33k_ES_PAN_21mic_H50_0422_fot_48A-10183_E_tif
  70
32
  10
198997.000
  20
4573195.293
  30
392.6
  0
VERTEX
  8
PNOA-H_AMS_1956-57_33k_ES_PAN_21mic_H50_0422_fot_48A-10183_E_tif
  70
32
  10
198997.000
  20
4573189.793
  30
394.9
  0
VERTEX
  8
PNOA-H_AMS_1956-57_33k_ES_PAN_21mic_H50_0422_fot_48A-10183_E_tif
  70
32
  10
198992.500
  20
4573185.793
  30
390.5
  0
VERTEX
  8
PNOA-H_AMS_1956-57_33k_ES_PAN_21mic_H50_0422_fot_48A-10183_E_tif
  70
32
  10
198991.500
  20
4573164.793
  30
411.75
  0
VERTEX
  8
PNOA-H_AMS_1956-57_33k_ES_PAN_21mic_H50_0422_fot_48A-10183_E_tif
  70
32
  10
198989.500
  20
4573132.293
  30
453.9
  0
VERTEX
  8
PNOA-H_AMS_1956-57_33k_ES_PAN_21mic_H50_0422_fot_48A-10183_E_tif
  70
32
  10
198781.000
  20
4569422.793
  30
669.16
  0
VERTEX
  8
PNOA-H_AMS_1956-57_33k_ES_PAN_21mic_H50_0422_fot_48A-10183_E_tif
  70
32
  10
196514.000
  20
4569293.793
  30
685
  0
VERTEX
  8
PNOA-H_AMS_1956-57_33k_ES_PAN_21mic_H50_0422_fot_48A-10183_E_tif
  70
32
  10
195861.500
  20
4569652.793
  30
656.7
  0
VERTEX
  8
PNOA-H_AMS_1956-57_33k_ES_PAN_21mic_H50_0422_fot_48A-10183_E_tif
  70
32
  10
196105.766
  20
4573180.000
  30
-10519.375
  0
SEQEND
  8
PNOA-H_AMS_1956-57_33k_ES_PAN_21mic_H50_0422_fot_48A-10183_E_tif
  0
TEXT
  8
PNOA-H_AMS_1956-57_33k_ES_PAN_21mic_H50_0422_fot_48A-10183_E_tif
 62
0
  1
PNOA-H_AMS_1956-57_33k_ES_PAN_21mic_H50_0422_fot_48A-10183_E.tif
 40
41.79052
  10
197452.483
  20
4571641.793
  0
POLYLINE
  8
PNOA-H_AMS_1956-57_33k_ES_PAN_21mic_H50_0449_fot_50A-08774_E_tif
  70
9
  66
1
  0
VERTEX
  8
PNOA-H_AMS_1956-57_33k_ES_PAN_21mic_H50_0449_fot_50A-08774_E_tif
  70
32
  10
197269.065
  20
4563538.356
  30
722.039
  0
VERTEX
  8
PNOA-H_AMS_1956-57_33k_ES_PAN_21mic_H50_0449_fot_50A-08774_E_tif
  70
32
  10
194249.390
  20
4563664.284
  30
642.534
  0
VERTEX
  8
PNOA-H_AMS_1956-57_33k_ES_PAN_21mic_H50_0449_fot_50A-08774_E_tif
  70
32
  10
194307.500
  20
4564740.793
  30
617.65
  0
VERTEX
  8
PNOA-H_AMS_1956-57_33k_ES_PAN_21mic_H50_0449_fot_50A-08774_E_tif
  70
32
  10
196238.000
  20
4565041.293
  30
696
  0
VERTEX
  8
PNOA-H_AMS_1956-57_33k_ES_PAN_21mic_H50_0449_fot_50A-08774_E_tif
  70
32
  10
196241.000
  20
4565041.793
  30
696.02
  0
VERTEX
  8
PNOA-H_AMS_1956-57_33k_ES_PAN_21mic_H50_0449_fot_50A-08774_E_tif
  70
32
  10
196245.500
  20
4565041.793
  30
696.19
  0
VERTEX
  8
PNOA-H_AMS_1956-57_33k_ES_PAN_21mic_H50_0449_fot_50A-08774_E_tif
  70
32
  10
196257.000
  20
4565036.793
  30
698.04
  0
VERTEX
  8
PNOA-H_AMS_1956-57_33k_ES_PAN_21mic_H50_0449_fot_50A-08774_E_tif
  70
32
  10
197293.500
  20
4564580.793
  30
729
  0
VERTEX
  8
PNOA-H_AMS_1956-57_33k_ES_PAN_21mic_H50_0449_fot_50A-08774_E_tif
  70
32
  10
197303.500
  20
4564576.293
  30
729
  0
VERTEX
  8
PNOA-H_AMS_1956-57_33k_ES_PAN_21mic_H50_0449_fot_50A-08774_E_tif
  70
32
  10
197304.000
  20
4564570.793
  30
729
  0
SEQEND
  8
PNOA-H_AMS_1956-57_33k_ES_PAN_21mic_H50_0449_fot_50A-08774_E_tif
  0
TEXT
  8
PNOA-H_AMS_1956-57_33k_ES_PAN_21mic_H50_0449_fot_50A-08774_E_tif
 62
0
  1
PNOA-H_AMS_1956-57_33k_ES_PAN_21mic_H50_0449_fot_50A-08774_E.tif
 40
41.79052
  10
195776.695
  20
4564290.075
  0
POLYLINE
  8
PNOA-H_AMS_1956-57_33k_ES_PAN_21mic_H50_0449_fot_50A-08773_E_tif
  70
9
  66
1
  0
VERTEX
  8
PNOA-H_AMS_1956-57_33k_ES_PAN_21mic_H50_0449_fot_50A-08773_E_tif
  70
32
  10
194249.454
  20
4563664.281
  30
642.506
  0
VERTEX
  8
PNOA-H_AMS_1956-57_33k_ES_PAN_21mic_H50_0449_fot_50A-08773_E_tif
  70
32
  10
194125.638
  20
4563669.445
  30
642.541
  0
VERTEX
  8
PNOA-H_AMS_1956-57_33k_ES_PAN_21mic_H50_0449_fot_50A-08773_E_tif
  70
32
  10
191231.615
  20
4563791.524
  30
691.359
  0
VERTEX
  8
PNOA-H_AMS_1956-57_33k_ES_PAN_21mic_H50_0449_fot_50A-08773_E_tif
  70
32
  10
191272.500
  20
4564969.793
  30
700
  0
VERTEX
  8
PNOA-H_AMS_1956-57_33k_ES_PAN_21mic_H50_0449_fot_50A-08773_E_tif
  70
32
  10
191888.000
  20
4565025.293
  30
654.24
  0
VERTEX
  8
PNOA-H_AMS_1956-57_33k_ES_PAN_21mic_H50_0449_fot_50A-08773_E_tif
  70
32
  10
191893.500
  20
4565025.793
  30
654
  0
VERTEX
  8
PNOA-H_AMS_1956-57_33k_ES_PAN_21mic_H50_0449_fot_50A-08773_E_tif
  70
32
  10
193504.000
  20
4565170.793
  30
630.44
  0
VERTEX
  8
PNOA-H_AMS_1956-57_33k_ES_PAN_21mic_H50_0449_fot_50A-08773_E_tif
  70
32
  10
194307.500
  20
4564740.793
  30
617.65
  0
SEQEND
  8
PNOA-H_AMS_1956-57_33k_ES_PAN_21mic_H50_0449_fot_50A-08773_E_tif
  0
TEXT
  8
PNOA-H_AMS_1956-57_33k_ES_PAN_21mic_H50_0449_fot_50A-08773_E_tif
 62
0
  1
PNOA-H_AMS_1956-57_33k_ES_PAN_21mic_H50_0449_fot_50A-08773_E.tif
 40
41.79052
  10
192769.557
  20
4564417.537
  0
POLYLINE
  8
PNOA-H_AMS_1956-57_33k_ES_PAN_21mic_H50_0449_fot_50A-08775_E_tif
  70
9
  66
1
  0
VERTEX
  8
PNOA-H_AMS_1956-57_33k_ES_PAN_21mic_H50_0449_fot_50A-08775_E_tif
  70
32
  10
200249.786
  20
4563415.316
  30
659.151
  0
VERTEX
  8
PNOA-H_AMS_1956-57_33k_ES_PAN_21mic_H50_0449_fot_50A-08775_E_tif
  70
32
  10
197621.968
  20
4563523.639
  30
721.995
  0
VERTEX
  8
PNOA-H_AMS_1956-57_33k_ES_PAN_21mic_H50_0449_fot_50A-08775_E_tif
  70
32
  10
197268.940
  20
4563538.362
  30
722.014
  0
VERTEX
  8
PNOA-H_AMS_1956-57_33k_ES_PAN_21mic_H50_0449_fot_50A-08775_E_tif
  70
32
  10
197304.000
  20
4564575.793
  30
729
  0
VERTEX
  8
PNOA-H_AMS_1956-57_33k_ES_PAN_21mic_H50_0449_fot_50A-08775_E_tif
  70
32
  10
198039.000
  20
4564735.293
  30
715
  0
VERTEX
  8
PNOA-H_AMS_1956-57_33k_ES_PAN_21mic_H50_0449_fot_50A-08775_E_tif
  70
32
  10
198041.500
  20
4564735.793
  30
715
  0
VERTEX
  8
PNOA-H_AMS_1956-57_33k_ES_PAN_21mic_H50_0449_fot_50A-08775_E_tif
  70
32
  10
199023.000
  20
4564947.793
  30
696.94
  0
VERTEX
  8
PNOA-H_AMS_1956-57_33k_ES_PAN_21mic_H50_0449_fot_50A-08775_E_tif
  70
32
  10
200292.500
  20
4564406.793
  30
644.05
  0
SEQEND
  8
PNOA-H_AMS_1956-57_33k_ES_PAN_21mic_H50_0449_fot_50A-08775_E_tif
  0
TEXT
  8
PNOA-H_AMS_1956-57_33k_ES_PAN_21mic_H50_0449_fot_50A-08775_E_tif
 62
0
  1
PNOA-H_AMS_1956-57_33k_ES_PAN_21mic_H50_0449_fot_50A-08775_E.tif
 40
41.79052
  10
198780.720
  20
4564181.555
  0
POLYLINE
  8
PNOA-H_AMS_1956-57_33k_ES_PAN_21mic_H50_0422_fot_47A-06498_E_tif
  70
9
  66
1
  0
VERTEX
  8
PNOA-H_AMS_1956-57_33k_ES_PAN_21mic_H50_0422_fot_47A-06498_E_tif
  70
32
  10
197902.500
  20
4575391.793
  30
-16143
  0
VERTEX
  8
PNOA-H_AMS_1956-57_33k_ES_PAN_21mic_H50_0422_fot_47A-06498_E_tif
  70
32
  10
197902.500
  20
4575507.793
  30
-16144
  0
VERTEX
  8
PNOA-H_AMS_1956-57_33k_ES_PAN_21mic_H50_0422_fot_47A-06498_E_tif
  70
32
  10
197909.500
  20
4575514.793
  30
-16144
  0
VERTEX
  8
PNOA-H_AMS_1956-57_33k_ES_PAN_21mic_H50_0422_fot_47A-06498_E_tif
  70
32
  10
197910.500
  20
4575513.793
  30
-9494.8
  0
VERTEX
  8
PNOA-H_AMS_1956-57_33k_ES_PAN_21mic_H50_0422_fot_47A-06498_E_tif
  70
32
  10
197944.500
  20
4575513.793
  30
-9494.8
  0
VERTEX
  8
PNOA-H_AMS_1956-57_33k_ES_PAN_21mic_H50_0422_fot_47A-06498_E_tif
  70
32
  10
197945.500
  20
4575514.793
  30
-16144
  0
VERTEX
  8
PNOA-H_AMS_1956-57_33k_ES_PAN_21mic_H50_0422_fot_47A-06498_E_tif
  70
32
  10
197954.500
  20
4575504.793
  30
-14481.7
  0
VERTEX
  8
PNOA-H_AMS_1956-57_33k_ES_PAN_21mic_H50_0422_fot_47A-06498_E_tif
  70
32
  10
198060.500
  20
4575504.793
  30
-17806.75
  0
VERTEX
  8
PNOA-H_AMS_1956-57_33k_ES_PAN_21mic_H50_0422_fot_47A-06498_E_tif
  70
32
  10
198064.500
  20
4575499.793
  30
-14482.25
  0
VERTEX
  8
PNOA-H_AMS_1956-57_33k_ES_PAN_21mic_H50_0422_fot_47A-06498_E_tif
  70
32
  10
198210.500
  20
4575499.793
  30
-17807.199
  0
VERTEX
  8
PNOA-H_AMS_1956-57_33k_ES_PAN_21mic_H50_0422_fot_47A-06498_E_tif
  70
32
  10
198214.500
  20
4575494.793
  30
-14482.8
  0
VERTEX
  8
PNOA-H_AMS_1956-57_33k_ES_PAN_21mic_H50_0422_fot_47A-06498_E_tif
  70
32
  10
198370.500
  20
4575494.793
  30
-17807.65
  0
VERTEX
  8
PNOA-H_AMS_1956-57_33k_ES_PAN_21mic_H50_0422_fot_47A-06498_E_tif
  70
32
  10
198374.500
  20
4575489.793
  30
-14483.35
  0
VERTEX
  8
PNOA-H_AMS_1956-57_33k_ES_PAN_21mic_H50_0422_fot_47A-06498_E_tif
  70
32
  10
198530.500
  20
4575489.793
  30
-17808.551
  0
VERTEX
  8
PNOA-H_AMS_1956-57_33k_ES_PAN_21mic_H50_0422_fot_47A-06498_E_tif
  70
32
  10
198534.500
  20
4575484.793
  30
-14484.45
  0
VERTEX
  8
PNOA-H_AMS_1956-57_33k_ES_PAN_21mic_H50_0422_fot_47A-06498_E_tif
  70
32
  10
198685.500
  20
4575484.793
  30
-17809
  0
VERTEX
  8
PNOA-H_AMS_1956-57_33k_ES_PAN_21mic_H50_0422_fot_47A-06498_E_tif
  70
32
  10
198689.500
  20
4575479.793
  30
-14485
  0
VERTEX
  8
PNOA-H_AMS_1956-57_33k_ES_PAN_21mic_H50_0422_fot_47A-06498_E_tif
  70
32
  10
198855.500
  20
4575479.793
  30
-17809.449
  0
VERTEX
  8
PNOA-H_AMS_1956-57_33k_ES_PAN_21mic_H50_0422_fot_47A-06498_E_tif
  70
32
  10
198859.500
  20
4575474.793
  30
-14485.55
  0
VERTEX
  8
PNOA-H_AMS_1956-57_33k_ES_PAN_21mic_H50_0422_fot_47A-06498_E_tif
  70
32
  10
199020.500
  20
4575474.793
  30
-17810.35
  0
VERTEX
  8
PNOA-H_AMS_1956-57_33k_ES_PAN_21mic_H50_0422_fot_47A-06498_E_tif
  70
32
  10
199024.500
  20
4575469.793
  30
-14486.65
  0
VERTEX
  8
PNOA-H_AMS_1956-57_33k_ES_PAN_21mic_H50_0422_fot_47A-06498_E_tif
  70
32
  10
199195.500
  20
4575469.793
  30
-17810.801
  0
VERTEX
  8
PNOA-H_AMS_1956-57_33k_ES_PAN_21mic_H50_0422_fot_47A-06498_E_tif
  70
32
  10
199199.500
  20
4575464.793
  30
-14487.2
  0
VERTEX
  8
PNOA-H_AMS_1956-57_33k_ES_PAN_21mic_H50_0422_fot_47A-06498_E_tif
  70
32
  10
199365.500
  20
4575464.793
  30
-17811.25
  0
VERTEX
  8
PNOA-H_AMS_1956-57_33k_ES_PAN_21mic_H50_0422_fot_47A-06498_E_tif
  70
32
  10
199369.500
  20
4575459.793
  30
-14487.75
  0
VERTEX
  8
PNOA-H_AMS_1956-57_33k_ES_PAN_21mic_H50_0422_fot_47A-06498_E_tif
  70
32
  10
199530.500
  20
4575459.793
  30
-17811.699
  0
VERTEX
  8
PNOA-H_AMS_1956-57_33k_ES_PAN_21mic_H50_0422_fot_47A-06498_E_tif
  70
32
  10
199534.500
  20
4575454.793
  30
-14488.3
  0
VERTEX
  8
PNOA-H_AMS_1956-57_33k_ES_PAN_21mic_H50_0422_fot_47A-06498_E_tif
  70
32
  10
199705.500
  20
4575454.793
  30
-17812.6
  0
VERTEX
  8
PNOA-H_AMS_1956-57_33k_ES_PAN_21mic_H50_0422_fot_47A-06498_E_tif
  70
32
  10
199709.500
  20
4575449.793
  30
-14489.4
  0
VERTEX
  8
PNOA-H_AMS_1956-57_33k_ES_PAN_21mic_H50_0422_fot_47A-06498_E_tif
  70
32
  10
199865.500
  20
4575449.793
  30
-17813.051
  0
VERTEX
  8
PNOA-H_AMS_1956-57_33k_ES_PAN_21mic_H50_0422_fot_47A-06498_E_tif
  70
32
  10
199869.500
  20
4575444.793
  30
-14489.95
  0
VERTEX
  8
PNOA-H_AMS_1956-57_33k_ES_PAN_21mic_H50_0422_fot_47A-06498_E_tif
  70
32
  10
200025.500
  20
4575444.793
  30
-17813.5
  0
VERTEX
  8
PNOA-H_AMS_1956-57_33k_ES_PAN_21mic_H50_0422_fot_47A-06498_E_tif
  70
32
  10
200029.500
  20
4575439.793
  30
-14490.5
  0
VERTEX
  8
PNOA-H_AMS_1956-57_33k_ES_PAN_21mic_H50_0422_fot_47A-06498_E_tif
  70
32
  10
200185.500
  20
4575439.793
  30
-17813.5
  0
VERTEX
  8
PNOA-H_AMS_1956-57_33k_ES_PAN_21mic_H50_0422_fot_47A-06498_E_tif
  70
32
  10
200189.500
  20
4575434.793
  30
-14490.95
  0
VERTEX
  8
PNOA-H_AMS_1956-57_33k_ES_PAN_21mic_H50_0422_fot_47A-06498_E_tif
  70
32
  10
200335.500
  20
4575434.793
  30
-17813.949
  0
VERTEX
  8
PNOA-H_AMS_1956-57_33k_ES_PAN_21mic_H50_0422_fot_47A-06498_E_tif
  70
32
  10
200339.500
  20
4575429.793
  30
-14491.05
  0
VERTEX
  8
PNOA-H_AMS_1956-57_33k_ES_PAN_21mic_H50_0422_fot_47A-06498_E_tif
  70
32
  10
200365.500
  20
4575429.793
  30
-14491.05
  0
VERTEX
  8
PNOA-H_AMS_1956-57_33k_ES_PAN_21mic_H50_0422_fot_47A-06498_E_tif
  70
32
  10
200367.500
  20
4575431.793
  30
-14491.05
  0
VERTEX
  8
PNOA-H_AMS_1956-57_33k_ES_PAN_21mic_H50_0422_fot_47A-06498_E_tif
  70
32
  10
200367.500
  20
4575462.793
  30
-17813.949
  0
VERTEX
  8
PNOA-H_AMS_1956-57_33k_ES_PAN_21mic_H50_0422_fot_47A-06498_E_tif
  70
32
  10
200372.500
  20
4575466.793
  30
-14491.05
  0
VERTEX
  8
PNOA-H_AMS_1956-57_33k_ES_PAN_21mic_H50_0422_fot_47A-06498_E_tif
  70
32
  10
200372.500
  20
4575517.793
  30
-17813.949
  0
VERTEX
  8
PNOA-H_AMS_1956-57_33k_ES_PAN_21mic_H50_0422_fot_47A-06498_E_tif
  70
32
  10
200377.500
  20
4575521.793
  30
-14491.05
  0
VERTEX
  8
PNOA-H_AMS_1956-57_33k_ES_PAN_21mic_H50_0422_fot_47A-06498_E_tif
  70
32
  10
200377.500
  20
4575567.793
  30
-17813.949
  0
VERTEX
  8
PNOA-H_AMS_1956-57_33k_ES_PAN_21mic_H50_0422_fot_47A-06498_E_tif
  70
32
  10
200382.500
  20
4575571.793
  30
-14491.05
  0
VERTEX
  8
PNOA-H_AMS_1956-57_33k_ES_PAN_21mic_H50_0422_fot_47A-06498_E_tif
  70
32
  10
200382.500
  20
4575622.793
  30
-17813.949
  0
VERTEX
  8
PNOA-H_AMS_1956-57_33k_ES_PAN_21mic_H50_0422_fot_47A-06498_E_tif
  70
32
  10
200387.500
  20
4575626.793
  30
-14491.05
  0
VERTEX
  8
PNOA-H_AMS_1956-57_33k_ES_PAN_21mic_H50_0422_fot_47A-06498_E_tif
  70
32
  10
200387.500
  20
4575672.793
  30
-17813.949
  0
VERTEX
  8
PNOA-H_AMS_1956-57_33k_ES_PAN_21mic_H50_0422_fot_47A-06498_E_tif
  70
32
  10
200392.500
  20
4575676.793
  30
-14491.05
  0
VERTEX
  8
PNOA-H_AMS_1956-57_33k_ES_PAN_21mic_H50_0422_fot_47A-06498_E_tif
  70
32
  10
200392.500
  20
4575727.793
  30
-17814.4
  0
VERTEX
  8
PNOA-H_AMS_1956-57_33k_ES_PAN_21mic_H50_0422_fot_47A-06498_E_tif
  70
32
  10
200397.500
  20
4575731.793
  30
-14491.6
  0
VERTEX
  8
PNOA-H_AMS_1956-57_33k_ES_PAN_21mic_H50_0422_fot_47A-06498_E_tif
  70
32
  10
200397.500
  20
4575782.793
  30
-17814.4
  0
VERTEX
  8
PNOA-H_AMS_1956-57_33k_ES_PAN_21mic_H50_0422_fot_47A-06498_E_tif
  70
32
  10
200402.500
  20
4575786.793
  30
-14491.6
  0
VERTEX
  8
PNOA-H_AMS_1956-57_33k_ES_PAN_21mic_H50_0422_fot_47A-06498_E_tif
  70
32
  10
200402.500
  20
4575837.793
  30
-17814.4
  0
VERTEX
  8
PNOA-H_AMS_1956-57_33k_ES_PAN_21mic_H50_0422_fot_47A-06498_E_tif
  70
32
  10
200407.500
  20
4575841.793
  30
-14491.6
  0
VERTEX
  8
PNOA-H_AMS_1956-57_33k_ES_PAN_21mic_H50_0422_fot_47A-06498_E_tif
  70
32
  10
200407.500
  20
4575892.793
  30
-17814.4
  0
VERTEX
  8
PNOA-H_AMS_1956-57_33k_ES_PAN_21mic_H50_0422_fot_47A-06498_E_tif
  70
32
  10
200412.500
  20
4575896.793
  30
-14491.6
  0
VERTEX
  8
PNOA-H_AMS_1956-57_33k_ES_PAN_21mic_H50_0422_fot_47A-06498_E_tif
  70
32
  10
200412.500
  20
4575952.793
  30
-17814.4
  0
VERTEX
  8
PNOA-H_AMS_1956-57_33k_ES_PAN_21mic_H50_0422_fot_47A-06498_E_tif
  70
32
  10
200417.500
  20
4575956.793
  30
-14491.6
  0
VERTEX
  8
PNOA-H_AMS_1956-57_33k_ES_PAN_21mic_H50_0422_fot_47A-06498_E_tif
  70
32
  10
200417.500
  20
4576007.793
  30
-17814.85
  0
VERTEX
  8
PNOA-H_AMS_1956-57_33k_ES_PAN_21mic_H50_0422_fot_47A-06498_E_tif
  70
32
  10
200422.500
  20
4576011.793
  30
-14492.15
  0
VERTEX
  8
PNOA-H_AMS_1956-57_33k_ES_PAN_21mic_H50_0422_fot_47A-06498_E_tif
  70
32
  10
200422.500
  20
4576067.793
  30
-17814.85
  0
VERTEX
  8
PNOA-H_AMS_1956-57_33k_ES_PAN_21mic_H50_0422_fot_47A-06498_E_tif
  70
32
  10
200427.500
  20
4576071.793
  30
-14492.15
  0
VERTEX
  8
PNOA-H_AMS_1956-57_33k_ES_PAN_21mic_H50_0422_fot_47A-06498_E_tif
  70
32
  10
200427.500
  20
4576122.793
  30
-17814.85
  0
VERTEX
  8
PNOA-H_AMS_1956-57_33k_ES_PAN_21mic_H50_0422_fot_47A-06498_E_tif
  70
32
  10
200432.500
  20
4576126.793
  30
-14492.15
  0
VERTEX
  8
PNOA-H_AMS_1956-57_33k_ES_PAN_21mic_H50_0422_fot_47A-06498_E_tif
  70
32
  10
200432.500
  20
4576182.793
  30
-17815.301
  0
VERTEX
  8
PNOA-H_AMS_1956-57_33k_ES_PAN_21mic_H50_0422_fot_47A-06498_E_tif
  70
32
  10
200437.500
  20
4576186.793
  30
-14492.7
  0
VERTEX
  8
PNOA-H_AMS_1956-57_33k_ES_PAN_21mic_H50_0422_fot_47A-06498_E_tif
  70
32
  10
200437.500
  20
4576237.793
  30
-17815.301
  0
VERTEX
  8
PNOA-H_AMS_1956-57_33k_ES_PAN_21mic_H50_0422_fot_47A-06498_E_tif
  70
32
  10
200442.500
  20
4576241.793
  30
-14492.7
  0
VERTEX
  8
PNOA-H_AMS_1956-57_33k_ES_PAN_21mic_H50_0422_fot_47A-06498_E_tif
  70
32
  10
200442.500
  20
4576297.793
  30
-17815.75
  0
VERTEX
  8
PNOA-H_AMS_1956-57_33k_ES_PAN_21mic_H50_0422_fot_47A-06498_E_tif
  70
32
  10
200447.500
  20
4576301.793
  30
-14493.25
  0
VERTEX
  8
PNOA-H_AMS_1956-57_33k_ES_PAN_21mic_H50_0422_fot_47A-06498_E_tif
  70
32
  10
200447.500
  20
4576357.793
  30
-17815.75
  0
VERTEX
  8
PNOA-H_AMS_1956-57_33k_ES_PAN_21mic_H50_0422_fot_47A-06498_E_tif
  70
32
  10
200452.500
  20
4576361.793
  30
-14493.25
  0
VERTEX
  8
PNOA-H_AMS_1956-57_33k_ES_PAN_21mic_H50_0422_fot_47A-06498_E_tif
  70
32
  10
200452.500
  20
4576422.793
  30
-17816.199
  0
VERTEX
  8
PNOA-H_AMS_1956-57_33k_ES_PAN_21mic_H50_0422_fot_47A-06498_E_tif
  70
32
  10
200457.500
  20
4576426.793
  30
-14493.8
  0
VERTEX
  8
PNOA-H_AMS_1956-57_33k_ES_PAN_21mic_H50_0422_fot_47A-06498_E_tif
  70
32
  10
200457.500
  20
4576482.793
  30
-17816.65
  0
VERTEX
  8
PNOA-H_AMS_1956-57_33k_ES_PAN_21mic_H50_0422_fot_47A-06498_E_tif
  70
32
  10
200462.500
  20
4576486.793
  30
-14494.35
  0
VERTEX
  8
PNOA-H_AMS_1956-57_33k_ES_PAN_21mic_H50_0422_fot_47A-06498_E_tif
  70
32
  10
200462.500
  20
4576542.793
  30
-17816.65
  0
VERTEX
  8
PNOA-H_AMS_1956-57_33k_ES_PAN_21mic_H50_0422_fot_47A-06498_E_tif
  70
32
  10
200467.500
  20
4576546.793
  30
-14494.8
  0
VERTEX
  8
PNOA-H_AMS_1956-57_33k_ES_PAN_21mic_H50_0422_fot_47A-06498_E_tif
  70
32
  10
200467.500
  20
4576607.793
  30
-17817.1
  0
VERTEX
  8
PNOA-H_AMS_1956-57_33k_ES_PAN_21mic_H50_0422_fot_47A-06498_E_tif
  70
32
  10
200472.500
  20
4576611.793
  30
-14494.9
  0
VERTEX
  8
PNOA-H_AMS_1956-57_33k_ES_PAN_21mic_H50_0422_fot_47A-06498_E_tif
  70
32
  10
200472.500
  20
4576667.793
  30
-17817.551
  0
VERTEX
  8
PNOA-H_AMS_1956-57_33k_ES_PAN_21mic_H50_0422_fot_47A-06498_E_tif
  70
32
  10
200477.500
  20
4576671.793
  30
-14495.45
  0
VERTEX
  8
PNOA-H_AMS_1956-57_33k_ES_PAN_21mic_H50_0422_fot_47A-06498_E_tif
  70
32
  10
200477.500
  20
4576727.793
  30
-17818
  0
VERTEX
  8
PNOA-H_AMS_1956-57_33k_ES_PAN_21mic_H50_0422_fot_47A-06498_E_tif
  70
32
  10
200482.500
  20
4576731.793
  30
-14496
  0
VERTEX
  8
PNOA-H_AMS_1956-57_33k_ES_PAN_21mic_H50_0422_fot_47A-06498_E_tif
  70
32
  10
200482.500
  20
4576792.793
  30
-17818.449
  0
VERTEX
  8
PNOA-H_AMS_1956-57_33k_ES_PAN_21mic_H50_0422_fot_47A-06498_E_tif
  70
32
  10
200487.500
  20
4576796.793
  30
-14496.55
  0
VERTEX
  8
PNOA-H_AMS_1956-57_33k_ES_PAN_21mic_H50_0422_fot_47A-06498_E_tif
  70
32
  10
200487.500
  20
4576857.793
  30
-17818.449
  0
VERTEX
  8
PNOA-H_AMS_1956-57_33k_ES_PAN_21mic_H50_0422_fot_47A-06498_E_tif
  70
32
  10
200492.500
  20
4576861.793
  30
-14496.55
  0
VERTEX
  8
PNOA-H_AMS_1956-57_33k_ES_PAN_21mic_H50_0422_fot_47A-06498_E_tif
  70
32
  10
200492.500
  20
4576917.793
  30
-17818.9
  0
VERTEX
  8
PNOA-H_AMS_1956-57_33k_ES_PAN_21mic_H50_0422_fot_47A-06498_E_tif
  70
32
  10
200497.500
  20
4576921.793
  30
-14497.1
  0
VERTEX
  8
PNOA-H_AMS_1956-57_33k_ES_PAN_21mic_H50_0422_fot_47A-06498_E_tif
  70
32
  10
200497.500
  20
4576972.793
  30
-16158.5
  0
VERTEX
  8
PNOA-H_AMS_1956-57_33k_ES_PAN_21mic_H50_0422_fot_47A-06498_E_tif
  70
32
  10
200507.500
  20
4576981.793
  30
-14497.65
  0
VERTEX
  8
PNOA-H_AMS_1956-57_33k_ES_PAN_21mic_H50_0422_fot_47A-06498_E_tif
  70
32
  10
200507.500
  20
4577037.793
  30
-17819.35
  0
VERTEX
  8
PNOA-H_AMS_1956-57_33k_ES_PAN_21mic_H50_0422_fot_47A-06498_E_tif
  70
32
  10
200512.500
  20
4577041.793
  30
-14497.65
  0
VERTEX
  8
PNOA-H_AMS_1956-57_33k_ES_PAN_21mic_H50_0422_fot_47A-06498_E_tif
  70
32
  10
200512.500
  20
4577097.793
  30
-17819.801
  0
VERTEX
  8
PNOA-H_AMS_1956-57_33k_ES_PAN_21mic_H50_0422_fot_47A-06498_E_tif
  70
32
  10
200517.500
  20
4577101.793
  30
-14498.2
  0
VERTEX
  8
PNOA-H_AMS_1956-57_33k_ES_PAN_21mic_H50_0422_fot_47A-06498_E_tif
  70
32
  10
200517.500
  20
4577157.793
  30
-17820.25
  0
VERTEX
  8
PNOA-H_AMS_1956-57_33k_ES_PAN_21mic_H50_0422_fot_47A-06498_E_tif
  70
32
  10
200522.500
  20
4577161.793
  30
-14498.75
  0
VERTEX
  8
PNOA-H_AMS_1956-57_33k_ES_PAN_21mic_H50_0422_fot_47A-06498_E_tif
  70
32
  10
200522.500
  20
4577217.793
  30
-17820.25
  0
VERTEX
  8
PNOA-H_AMS_1956-57_33k_ES_PAN_21mic_H50_0422_fot_47A-06498_E_tif
  70
32
  10
200527.500
  20
4577221.793
  30
-14498.75
  0
VERTEX
  8
PNOA-H_AMS_1956-57_33k_ES_PAN_21mic_H50_0422_fot_47A-06498_E_tif
  70
32
  10
200527.500
  20
4577282.793
  30
-17820.699
  0
VERTEX
  8
PNOA-H_AMS_1956-57_33k_ES_PAN_21mic_H50_0422_fot_47A-06498_E_tif
  70
32
  10
200532.500
  20
4577286.793
  30
-14499.3
  0
VERTEX
  8
PNOA-H_AMS_1956-57_33k_ES_PAN_21mic_H50_0422_fot_47A-06498_E_tif
  70
32
  10
200532.500
  20
4577342.793
  30
-17820.699
  0
VERTEX
  8
PNOA-H_AMS_1956-57_33k_ES_PAN_21mic_H50_0422_fot_47A-06498_E_tif
  70
32
  10
200537.500
  20
4577346.793
  30
-14499.3
  0
VERTEX
  8
PNOA-H_AMS_1956-57_33k_ES_PAN_21mic_H50_0422_fot_47A-06498_E_tif
  70
32
  10
200537.500
  20
4577397.793
  30
-17821.15
  0
VERTEX
  8
PNOA-H_AMS_1956-57_33k_ES_PAN_21mic_H50_0422_fot_47A-06498_E_tif
  70
32
  10
200542.500
  20
4577401.793
  30
-14499.85
  0
VERTEX
  8
PNOA-H_AMS_1956-57_33k_ES_PAN_21mic_H50_0422_fot_47A-06498_E_tif
  70
32
  10
200542.500
  20
4577457.793
  30
-17821.15
  0
VERTEX
  8
PNOA-H_AMS_1956-57_33k_ES_PAN_21mic_H50_0422_fot_47A-06498_E_tif
  70
32
  10
200547.500
  20
4577461.793
  30
-14499.85
  0
VERTEX
  8
PNOA-H_AMS_1956-57_33k_ES_PAN_21mic_H50_0422_fot_47A-06498_E_tif
  70
32
  10
200547.500
  20
4577502.793
  30
-16161
  0
VERTEX
  8
PNOA-H_AMS_1956-57_33k_ES_PAN_21mic_H50_0422_fot_47A-06498_E_tif
  70
32
  10
200554.500
  20
4577509.793
  30
-16161
  0
VERTEX
  8
PNOA-H_AMS_1956-57_33k_ES_PAN_21mic_H50_0422_fot_47A-06498_E_tif
  70
32
  10
203417.500
  20
4577509.293
  30
-12850
  0
VERTEX
  8
PNOA-H_AMS_1956-57_33k_ES_PAN_21mic_H50_0422_fot_47A-06498_E_tif
  70
32
  10
203217.500
  20
4576009.293
  30
437
  0
VERTEX
  8
PNOA-H_AMS_1956-57_33k_ES_PAN_21mic_H50_0422_fot_47A-06498_E_tif
  70
32
  10
203217.000
  20
4575985.293
  30
614.6
  0
VERTEX
  8
PNOA-H_AMS_1956-57_33k_ES_PAN_21mic_H50_0422_fot_47A-06498_E_tif
  70
32
  10
203216.000
  20
4575984.293
  30
614.4
  0
VERTEX
  8
PNOA-H_AMS_1956-57_33k_ES_PAN_21mic_H50_0422_fot_47A-06498_E_tif
  70
32
  10
203214.000
  20
4575981.793
  30
613.8
  0
VERTEX
  8
PNOA-H_AMS_1956-57_33k_ES_PAN_21mic_H50_0422_fot_47A-06498_E_tif
  70
32
  10
203213.000
  20
4575976.293
  30
613.8
  0
VERTEX
  8
PNOA-H_AMS_1956-57_33k_ES_PAN_21mic_H50_0422_fot_47A-06498_E_tif
  70
32
  10
202930.500
  20
4573851.793
  30
443.09
  0
VERTEX
  8
PNOA-H_AMS_1956-57_33k_ES_PAN_21mic_H50_0422_fot_47A-06498_E_tif
  70
32
  10
201986.500
  20
4573511.293
  30
637.2
  0
VERTEX
  8
PNOA-H_AMS_1956-57_33k_ES_PAN_21mic_H50_0422_fot_47A-06498_E_tif
  70
32
  10
200206.500
  20
4574000.293
  30
561
  0
VERTEX
  8
PNOA-H_AMS_1956-57_33k_ES_PAN_21mic_H50_0422_fot_47A-06498_E_tif
  70
32
  10
199967.000
  20
4574000.293
  30
549.4
  0
VERTEX
  8
PNOA-H_AMS_1956-57_33k_ES_PAN_21mic_H50_0422_fot_47A-06498_E_tif
  70
32
  10
199952.500
  20
4573985.293
  30
548.5
  0
VERTEX
  8
PNOA-H_AMS_1956-57_33k_ES_PAN_21mic_H50_0422_fot_47A-06498_E_tif
  70
32
  10
197903.000
  20
4573985.793
  30
557.9
  0
VERTEX
  8
PNOA-H_AMS_1956-57_33k_ES_PAN_21mic_H50_0422_fot_47A-06498_E_tif
  70
32
  10
197900.500
  20
4573990.293
  30
-17441.52
  0
VERTEX
  8
PNOA-H_AMS_1956-57_33k_ES_PAN_21mic_H50_0422_fot_47A-06498_E_tif
  70
32
  10
197902.500
  20
4573991.793
  30
-14465.75
  0
VERTEX
  8
PNOA-H_AMS_1956-57_33k_ES_PAN_21mic_H50_0422_fot_47A-06498_E_tif
  70
32
  10
197902.500
  20
4574021.793
  30
-16135
  0
VERTEX
  8
PNOA-H_AMS_1956-57_33k_ES_PAN_21mic_H50_0422_fot_47A-06498_E_tif
  70
32
  10
197903.500
  20
4574022.793
  30
-9482.2
  0
SEQEND
  8
PNOA-H_AMS_1956-57_33k_ES_PAN_21mic_H50_0422_fot_47A-06498_E_tif
  0
TEXT
  8
PNOA-H_AMS_1956-57_33k_ES_PAN_21mic_H50_0422_fot_47A-06498_E_tif
 62
0
  1
PNOA-H_AMS_1956-57_33k_ES_PAN_21mic_H50_0422_fot_47A-06498_E.tif
 40
41.79052
  10
201761.784
  20
4575510.543
  0
POLYLINE
  8
PNOA-H_AMS_1956-57_33k_ES_PAN_21mic_H50_0423_fot_47A-06499_E_tif
  70
9
  66
1
  0
VERTEX
  8
PNOA-H_AMS_1956-57_33k_ES_PAN_21mic_H50_0423_fot_47A-06499_E_tif
  70
32
  10
205021.311
  20
4573270.770
  30
603.521
  0
VERTEX
  8
PNOA-H_AMS_1956-57_33k_ES_PAN_21mic_H50_0423_fot_47A-06499_E_tif
  70
32
  10
204840.500
  20
4573218.293
  30
626.62
  0
VERTEX
  8
PNOA-H_AMS_1956-57_33k_ES_PAN_21mic_H50_0423_fot_47A-06499_E_tif
  70
32
  10
202930.500
  20
4573851.793
  30
443.09
  0
VERTEX
  8
PNOA-H_AMS_1956-57_33k_ES_PAN_21mic_H50_0423_fot_47A-06499_E_tif
  70
32
  10
203214.000
  20
4575981.793
  30
613.8
  0
VERTEX
  8
PNOA-H_AMS_1956-57_33k_ES_PAN_21mic_H50_0423_fot_47A-06499_E_tif
  70
32
  10
203217.000
  20
4575985.293
  30
614.6
  0
VERTEX
  8
PNOA-H_AMS_1956-57_33k_ES_PAN_21mic_H50_0423_fot_47A-06499_E_tif
  70
32
  10
203217.500
  20
4576009.293
  30
437
  0
VERTEX
  8
PNOA-H_AMS_1956-57_33k_ES_PAN_21mic_H50_0423_fot_47A-06499_E_tif
  70
32
  10
203417.500
  20
4577509.293
  30
-12850
  0
VERTEX
  8
PNOA-H_AMS_1956-57_33k_ES_PAN_21mic_H50_0423_fot_47A-06499_E_tif
  70
32
  10
205070.500
  20
4577509.793
  30
-14518.6
  0
VERTEX
  8
PNOA-H_AMS_1956-57_33k_ES_PAN_21mic_H50_0423_fot_47A-06499_E_tif
  70
32
  10
205072.500
  20
4577511.793
  30
-14518.6
  0
VERTEX
  8
PNOA-H_AMS_1956-57_33k_ES_PAN_21mic_H50_0423_fot_47A-06499_E_tif
  70
32
  10
205072.500
  20
4579527.793
  30
-16165.5
  0
VERTEX
  8
PNOA-H_AMS_1956-57_33k_ES_PAN_21mic_H50_0423_fot_47A-06499_E_tif
  70
32
  10
205079.000
  20
4579533.793
  30
-9524.9
  0
VERTEX
  8
PNOA-H_AMS_1956-57_33k_ES_PAN_21mic_H50_0423_fot_47A-06499_E_tif
  70
32
  10
205079.500
  20
4579534.793
  30
-16165.5
  0
VERTEX
  8
PNOA-H_AMS_1956-57_33k_ES_PAN_21mic_H50_0423_fot_47A-06499_E_tif
  70
32
  10
205082.500
  20
4579530.293
  30
436
  0
VERTEX
  8
PNOA-H_AMS_1956-57_33k_ES_PAN_21mic_H50_0423_fot_47A-06499_E_tif
  70
32
  10
205122.500
  20
4579530.293
  30
436
  0
VERTEX
  8
PNOA-H_AMS_1956-57_33k_ES_PAN_21mic_H50_0423_fot_47A-06499_E_tif
  70
32
  10
205125.500
  20
4579534.793
  30
-17825.65
  0
VERTEX
  8
PNOA-H_AMS_1956-57_33k_ES_PAN_21mic_H50_0423_fot_47A-06499_E_tif
  70
32
  10
205129.500
  20
4579529.793
  30
-14505.35
  0
VERTEX
  8
PNOA-H_AMS_1956-57_33k_ES_PAN_21mic_H50_0423_fot_47A-06499_E_tif
  70
32
  10
205180.500
  20
4579529.793
  30
-17825.65
  0
VERTEX
  8
PNOA-H_AMS_1956-57_33k_ES_PAN_21mic_H50_0423_fot_47A-06499_E_tif
  70
32
  10
205184.500
  20
4579524.793
  30
-14505.35
  0
VERTEX
  8
PNOA-H_AMS_1956-57_33k_ES_PAN_21mic_H50_0423_fot_47A-06499_E_tif
  70
32
  10
205235.500
  20
4579524.793
  30
-17825.65
  0
VERTEX
  8
PNOA-H_AMS_1956-57_33k_ES_PAN_21mic_H50_0423_fot_47A-06499_E_tif
  70
32
  10
205239.500
  20
4579519.793
  30
-14505.35
  0
VERTEX
  8
PNOA-H_AMS_1956-57_33k_ES_PAN_21mic_H50_0423_fot_47A-06499_E_tif
  70
32
  10
205274.997
  20
4579519.793
  30
-16816.336
  0
VERTEX
  8
PNOA-H_AMS_1956-57_33k_ES_PAN_21mic_H50_0423_fot_47A-06499_E_tif
  70
32
  10
205271.376
  20
4579430.672
  30
-14505.35
  0
VERTEX
  8
PNOA-H_AMS_1956-57_33k_ES_PAN_21mic_H50_0423_fot_47A-06499_E_tif
  70
32
  10
205177.429
  20
4577117.285
  30
-14518.6
  0
VERTEX
  8
PNOA-H_AMS_1956-57_33k_ES_PAN_21mic_H50_0423_fot_47A-06499_E_tif
  70
32
  10
205083.520
  20
4574803.903
  30
483.53
  0
SEQEND
  8
PNOA-H_AMS_1956-57_33k_ES_PAN_21mic_H50_0423_fot_47A-06499_E_tif
  0
TEXT
  8
PNOA-H_AMS_1956-57_33k_ES_PAN_21mic_H50_0423_fot_47A-06499_E_tif
 62
0
  1
PNOA-H_AMS_1956-57_33k_ES_PAN_21mic_H50_0423_fot_47A-06499_E.tif
 40
41.79052
  10
204816.641
  20
4576376.543
  0
POLYLINE
  8
PNOA-H_AMS_1956-57_33k_ES_PAN_21mic_H50_0423_fot_48A-10186_E_tif
  70
9
  66
1
  0
VERTEX
  8
PNOA-H_AMS_1956-57_33k_ES_PAN_21mic_H50_0423_fot_48A-10186_E_tif
  70
32
  10
205021.309
  20
4573270.733
  30
603.554
  0
VERTEX
  8
PNOA-H_AMS_1956-57_33k_ES_PAN_21mic_H50_0423_fot_48A-10186_E_tif
  70
32
  10
204989.651
  20
4572490.526
  30
641.496
  0
VERTEX
  8
PNOA-H_AMS_1956-57_33k_ES_PAN_21mic_H50_0423_fot_48A-10186_E_tif
  70
32
  10
204895.821
  20
4570177.155
  30
689.381
  0
VERTEX
  8
PNOA-H_AMS_1956-57_33k_ES_PAN_21mic_H50_0423_fot_48A-10186_E_tif
  70
32
  10
204842.016
  20
4568850.051
  30
717.579
  0
VERTEX
  8
PNOA-H_AMS_1956-57_33k_ES_PAN_21mic_H50_0423_fot_48A-10186_E_tif
  70
32
  10
204602.500
  20
4568996.793
  30
714.1
  0
VERTEX
  8
PNOA-H_AMS_1956-57_33k_ES_PAN_21mic_H50_0423_fot_48A-10186_E_tif
  70
32
  10
204841.000
  20
4573218.293
  30
626.64
  0
SEQEND
  8
PNOA-H_AMS_1956-57_33k_ES_PAN_21mic_H50_0423_fot_48A-10186_E_tif
  0
TEXT
  8
PNOA-H_AMS_1956-57_33k_ES_PAN_21mic_H50_0423_fot_48A-10186_E_tif
 62
0
  1
PNOA-H_AMS_1956-57_33k_ES_PAN_21mic_H50_0423_fot_48A-10186_E.tif
 40
41.79052
  10
204811.905
  20
4571060.392
  0
POLYLINE
  8
PNOA-H_AMS_1956-57_33k_ES_PAN_21mic_H50_0422_fot_48A-10185_E_tif
  70
9
  66
1
  0
VERTEX
  8
PNOA-H_AMS_1956-57_33k_ES_PAN_21mic_H50_0422_fot_48A-10185_E_tif
  70
32
  10
201985.500
  20
4573509.793
  30
637.5
  0
VERTEX
  8
PNOA-H_AMS_1956-57_33k_ES_PAN_21mic_H50_0422_fot_48A-10185_E_tif
  70
32
  10
201986.500
  20
4573511.793
  30
637.1
  0
VERTEX
  8
PNOA-H_AMS_1956-57_33k_ES_PAN_21mic_H50_0422_fot_48A-10185_E_tif
  70
32
  10
201994.500
  20
4573514.793
  30
637
  0
VERTEX
  8
PNOA-H_AMS_1956-57_33k_ES_PAN_21mic_H50_0422_fot_48A-10185_E_tif
  70
32
  10
202929.500
  20
4573851.793
  30
442.48
  0
VERTEX
  8
PNOA-H_AMS_1956-57_33k_ES_PAN_21mic_H50_0422_fot_48A-10185_E_tif
  70
32
  10
204841.000
  20
4573218.293
  30
626.64
  0
VERTEX
  8
PNOA-H_AMS_1956-57_33k_ES_PAN_21mic_H50_0422_fot_48A-10185_E_tif
  70
32
  10
204636.000
  20
4569592.293
  30
704
  0
VERTEX
  8
PNOA-H_AMS_1956-57_33k_ES_PAN_21mic_H50_0422_fot_48A-10185_E_tif
  70
32
  10
204636.000
  20
4569589.793
  30
704.1
  0
VERTEX
  8
PNOA-H_AMS_1956-57_33k_ES_PAN_21mic_H50_0422_fot_48A-10185_E_tif
  70
32
  10
204602.500
  20
4568996.793
  30
714.1
  0
VERTEX
  8
PNOA-H_AMS_1956-57_33k_ES_PAN_21mic_H50_0422_fot_48A-10185_E_tif
  70
32
  10
202138.000
  20
4568968.293
  30
611.28
  0
VERTEX
  8
PNOA-H_AMS_1956-57_33k_ES_PAN_21mic_H50_0422_fot_48A-10185_E_tif
  70
32
  10
201695.000
  20
4569245.293
  30
601.6
  0
SEQEND
  8
PNOA-H_AMS_1956-57_33k_ES_PAN_21mic_H50_0422_fot_48A-10185_E_tif
  0
TEXT
  8
PNOA-H_AMS_1956-57_33k_ES_PAN_21mic_H50_0422_fot_48A-10185_E_tif
 62
0
  1
PNOA-H_AMS_1956-57_33k_ES_PAN_21mic_H50_0422_fot_48A-10185_E.tif
 40
41.79052
  10
203290.616
  20
4571410.043
  0
POLYLINE
  8
PNOA-H_AMS_1956-57_33k_ES_PAN_21mic_H50_0422_fot_48A-10184_E_tif
  70
9
  66
1
  0
VERTEX
  8
PNOA-H_AMS_1956-57_33k_ES_PAN_21mic_H50_0422_fot_48A-10184_E_tif
  70
32
  10
199967.000
  20
4574000.293
  30
549.4
  0
VERTEX
  8
PNOA-H_AMS_1956-57_33k_ES_PAN_21mic_H50_0422_fot_48A-10184_E_tif
  70
32
  10
200206.500
  20
4574000.293
  30
561
  0
VERTEX
  8
PNOA-H_AMS_1956-57_33k_ES_PAN_21mic_H50_0422_fot_48A-10184_E_tif
  70
32
  10
201986.000
  20
4573511.293
  30
637.2
  0
VERTEX
  8
PNOA-H_AMS_1956-57_33k_ES_PAN_21mic_H50_0422_fot_48A-10184_E_tif
  70
32
  10
201695.000
  20
4569245.793
  30
601.7
  0
VERTEX
  8
PNOA-H_AMS_1956-57_33k_ES_PAN_21mic_H50_0422_fot_48A-10184_E_tif
  70
32
  10
200577.000
  20
4569186.793
  30
402.72
  0
VERTEX
  8
PNOA-H_AMS_1956-57_33k_ES_PAN_21mic_H50_0422_fot_48A-10184_E_tif
  70
32
  10
200393.000
  20
4569176.793
  30
451.08
  0
VERTEX
  8
PNOA-H_AMS_1956-57_33k_ES_PAN_21mic_H50_0422_fot_48A-10184_E_tif
  70
32
  10
200387.500
  20
4569176.793
  30
458.25
  0
VERTEX
  8
PNOA-H_AMS_1956-57_33k_ES_PAN_21mic_H50_0422_fot_48A-10184_E_tif
  70
32
  10
199295.000
  20
4569118.793
  30
662.7
  0
VERTEX
  8
PNOA-H_AMS_1956-57_33k_ES_PAN_21mic_H50_0422_fot_48A-10184_E_tif
  70
32
  10
198781.000
  20
4569422.793
  30
669.16
  0
VERTEX
  8
PNOA-H_AMS_1956-57_33k_ES_PAN_21mic_H50_0422_fot_48A-10184_E_tif
  70
32
  10
198989.500
  20
4573132.293
  30
453.9
  0
VERTEX
  8
PNOA-H_AMS_1956-57_33k_ES_PAN_21mic_H50_0422_fot_48A-10184_E_tif
  70
32
  10
198991.500
  20
4573164.793
  30
411.75
  0
VERTEX
  8
PNOA-H_AMS_1956-57_33k_ES_PAN_21mic_H50_0422_fot_48A-10184_E_tif
  70
32
  10
198992.500
  20
4573185.793
  30
390.5
  0
VERTEX
  8
PNOA-H_AMS_1956-57_33k_ES_PAN_21mic_H50_0422_fot_48A-10184_E_tif
  70
32
  10
198997.000
  20
4573189.793
  30
394.9
  0
VERTEX
  8
PNOA-H_AMS_1956-57_33k_ES_PAN_21mic_H50_0422_fot_48A-10184_E_tif
  70
32
  10
198997.000
  20
4573195.293
  30
392.6
  0
VERTEX
  8
PNOA-H_AMS_1956-57_33k_ES_PAN_21mic_H50_0422_fot_48A-10184_E_tif
  70
32
  10
198997.000
  20
4573238.293
  30
338.96
  0
VERTEX
  8
PNOA-H_AMS_1956-57_33k_ES_PAN_21mic_H50_0422_fot_48A-10184_E_tif
  70
32
  10
198995.500
  20
4573237.793
  30
338.77
  0
VERTEX
  8
PNOA-H_AMS_1956-57_33k_ES_PAN_21mic_H50_0422_fot_48A-10184_E_tif
  70
32
  10
198995.500
  20
4573239.293
  30
337.18
  0
VERTEX
  8
PNOA-H_AMS_1956-57_33k_ES_PAN_21mic_H50_0422_fot_48A-10184_E_tif
  70
32
  10
199037.500
  20
4573985.293
  30
552.6
  0
VERTEX
  8
PNOA-H_AMS_1956-57_33k_ES_PAN_21mic_H50_0422_fot_48A-10184_E_tif
  70
32
  10
199952.500
  20
4573985.293
  30
548.5
  0
VERTEX
  8
PNOA-H_AMS_1956-57_33k_ES_PAN_21mic_H50_0422_fot_48A-10184_E_tif
  70
32
  10
199966.500
  20
4573999.293
  30
549.3
  0
VERTEX
  8
PNOA-H_AMS_1956-57_33k_ES_PAN_21mic_H50_0422_fot_48A-10184_E_tif
  70
32
  10
199967.000
  20
4574000.293
  30
549.4
  0
SEQEND
  8
PNOA-H_AMS_1956-57_33k_ES_PAN_21mic_H50_0422_fot_48A-10184_E_tif
  0
TEXT
  8
PNOA-H_AMS_1956-57_33k_ES_PAN_21mic_H50_0422_fot_48A-10184_E_tif
 62
0
  1
PNOA-H_AMS_1956-57_33k_ES_PAN_21mic_H50_0422_fot_48A-10184_E.tif
 40
41.79052
  10
200376.974
  20
4571559.543
  0
POLYLINE
  8
PNOA-H_AMS_1956-57_33k_ES_PAN_21mic_H50_0422_fot_48A-10181_E_tif
  70
9
  66
1
  0
VERTEX
  8
PNOA-H_AMS_1956-57_33k_ES_PAN_21mic_H50_0422_fot_48A-10181_E_tif
  70
32
  10
197910.000
  20
4575514.793
  30
-16144
  0
VERTEX
  8
PNOA-H_AMS_1956-57_33k_ES_PAN_21mic_H50_0422_fot_48A-10181_E_tif
  70
32
  10
197945.000
  20
4575514.793
  30
-16144
  0
VERTEX
  8
PNOA-H_AMS_1956-57_33k_ES_PAN_21mic_H50_0422_fot_48A-10181_E_tif
  70
32
  10
197944.500
  20
4575513.793
  30
-9494.8
  0
VERTEX
  8
PNOA-H_AMS_1956-57_33k_ES_PAN_21mic_H50_0422_fot_48A-10181_E_tif
  70
32
  10
197910.500
  20
4575513.793
  30
-9494.8
  0
VERTEX
  8
PNOA-H_AMS_1956-57_33k_ES_PAN_21mic_H50_0422_fot_48A-10181_E_tif
  70
32
  10
197910.000
  20
4575514.793
  30
-16144
  0
SEQEND
  8
PNOA-H_AMS_1956-57_33k_ES_PAN_21mic_H50_0422_fot_48A-10181_E_tif
  0
TEXT
  8
PNOA-H_AMS_1956-57_33k_ES_PAN_21mic_H50_0422_fot_48A-10181_E_tif
 62
0
  1
PNOA-H_AMS_1956-57_33k_ES_PAN_21mic_H50_0422_fot_48A-10181_E.tif
 40
41.79052
  10
197927.500
  20
4575514.293
  0
POLYLINE
  8
PNOA-H_AMS_1956-57_33k_ES_PAN_21mic_H50_0422_fot_49A-10172_W_tif
  70
9
  66
1
  0
VERTEX
  8
PNOA-H_AMS_1956-57_33k_ES_PAN_21mic_H50_0422_fot_49A-10172_W_tif
  70
32
  10
204842.035
  20
4568850.518
  30
717.578
  0
VERTEX
  8
PNOA-H_AMS_1956-57_33k_ES_PAN_21mic_H50_0422_fot_49A-10172_W_tif
  70
32
  10
204802.030
  20
4567863.789
  30
712.248
  0
VERTEX
  8
PNOA-H_AMS_1956-57_33k_ES_PAN_21mic_H50_0422_fot_49A-10172_W_tif
  70
32
  10
204708.278
  20
4565550.428
  30
698.533
  0
VERTEX
  8
PNOA-H_AMS_1956-57_33k_ES_PAN_21mic_H50_0422_fot_49A-10172_W_tif
  70
32
  10
204670.178
  20
4564609.893
  30
692.785
  0
VERTEX
  8
PNOA-H_AMS_1956-57_33k_ES_PAN_21mic_H50_0422_fot_49A-10172_W_tif
  70
32
  10
203380.000
  20
4564193.293
  30
678.8
  0
VERTEX
  8
PNOA-H_AMS_1956-57_33k_ES_PAN_21mic_H50_0422_fot_49A-10172_W_tif
  70
32
  10
201854.000
  20
4564791.793
  30
652.1
  0
VERTEX
  8
PNOA-H_AMS_1956-57_33k_ES_PAN_21mic_H50_0422_fot_49A-10172_W_tif
  70
32
  10
202138.000
  20
4568951.793
  30
614.7
  0
VERTEX
  8
PNOA-H_AMS_1956-57_33k_ES_PAN_21mic_H50_0422_fot_49A-10172_W_tif
  70
32
  10
202138.000
  20
4568959.293
  30
613.2
  0
VERTEX
  8
PNOA-H_AMS_1956-57_33k_ES_PAN_21mic_H50_0422_fot_49A-10172_W_tif
  70
32
  10
202139.000
  20
4568968.293
  30
611.44
  0
VERTEX
  8
PNOA-H_AMS_1956-57_33k_ES_PAN_21mic_H50_0422_fot_49A-10172_W_tif
  70
32
  10
204603.000
  20
4568996.793
  30
714.1
  0
SEQEND
  8
PNOA-H_AMS_1956-57_33k_ES_PAN_21mic_H50_0422_fot_49A-10172_W_tif
  0
TEXT
  8
PNOA-H_AMS_1956-57_33k_ES_PAN_21mic_H50_0422_fot_49A-10172_W_tif
 62
0
  1
PNOA-H_AMS_1956-57_33k_ES_PAN_21mic_H50_0422_fot_49A-10172_W.tif
 40
41.79052
  10
203376.024
  20
4566595.043
  0
POLYLINE
  8
PNOA-H_AMS_1956-57_33k_ES_PAN_21mic_H50_0422_fot_49A-10173_W_tif
  70
9
  66
1
  0
VERTEX
  8
PNOA-H_AMS_1956-57_33k_ES_PAN_21mic_H50_0422_fot_49A-10173_W_tif
  70
32
  10
202138.500
  20
4568968.293
  30
611.36
  0
VERTEX
  8
PNOA-H_AMS_1956-57_33k_ES_PAN_21mic_H50_0422_fot_49A-10173_W_tif
  70
32
  10
201854.000
  20
4564791.793
  30
652.1
  0
VERTEX
  8
PNOA-H_AMS_1956-57_33k_ES_PAN_21mic_H50_0422_fot_49A-10173_W_tif
  70
32
  10
200291.500
  20
4564406.793
  30
644.07
  0
VERTEX
  8
PNOA-H_AMS_1956-57_33k_ES_PAN_21mic_H50_0422_fot_49A-10173_W_tif
  70
32
  10
199025.000
  20
4564946.293
  30
697
  0
VERTEX
  8
PNOA-H_AMS_1956-57_33k_ES_PAN_21mic_H50_0422_fot_49A-10173_W_tif
  70
32
  10
199022.000
  20
4564947.793
  30
696.96
  0
VERTEX
  8
PNOA-H_AMS_1956-57_33k_ES_PAN_21mic_H50_0422_fot_49A-10173_W_tif
  70
32
  10
199023.000
  20
4564964.793
  30
695.5
  0
VERTEX
  8
PNOA-H_AMS_1956-57_33k_ES_PAN_21mic_H50_0422_fot_49A-10173_W_tif
  70
32
  10
199295.000
  20
4569118.793
  30
662.7
  0
VERTEX
  8
PNOA-H_AMS_1956-57_33k_ES_PAN_21mic_H50_0422_fot_49A-10173_W_tif
  70
32
  10
200387.500
  20
4569176.793
  30
458.25
  0
VERTEX
  8
PNOA-H_AMS_1956-57_33k_ES_PAN_21mic_H50_0422_fot_49A-10173_W_tif
  70
32
  10
200393.000
  20
4569176.793
  30
451.08
  0
VERTEX
  8
PNOA-H_AMS_1956-57_33k_ES_PAN_21mic_H50_0422_fot_49A-10173_W_tif
  70
32
  10
200577.000
  20
4569186.793
  30
402.72
  0
VERTEX
  8
PNOA-H_AMS_1956-57_33k_ES_PAN_21mic_H50_0422_fot_49A-10173_W_tif
  70
32
  10
201695.000
  20
4569245.793
  30
601.7
  0
VERTEX
  8
PNOA-H_AMS_1956-57_33k_ES_PAN_21mic_H50_0422_fot_49A-10173_W_tif
  70
32
  10
202137.500
  20
4568968.793
  30
611.05
  0
VERTEX
  8
PNOA-H_AMS_1956-57_33k_ES_PAN_21mic_H50_0422_fot_49A-10173_W_tif
  70
32
  10
202138.500
  20
4568968.293
  30
611.36
  0
SEQEND
  8
PNOA-H_AMS_1956-57_33k_ES_PAN_21mic_H50_0422_fot_49A-10173_W_tif
  0
TEXT
  8
PNOA-H_AMS_1956-57_33k_ES_PAN_21mic_H50_0422_fot_49A-10173_W_tif
 62
0
  1
PNOA-H_AMS_1956-57_33k_ES_PAN_21mic_H50_0422_fot_49A-10173_W.tif
 40
41.79052
  10
200568.739
  20
4566826.293
  0
POLYLINE
  8
PNOA-H_AMS_1956-57_33k_ES_PAN_21mic_H50_0449_fot_50A-08776_E_tif
  70
9
  66
1
  0
VERTEX
  8
PNOA-H_AMS_1956-57_33k_ES_PAN_21mic_H50_0449_fot_50A-08776_E_tif
  70
32
  10
203330.868
  20
4563289.372
  30
690.814
  0
VERTEX
  8
PNOA-H_AMS_1956-57_33k_ES_PAN_21mic_H50_0449_fot_50A-08776_E_tif
  70
32
  10
201118.278
  20
4563379.515
  30
659.37
  0
VERTEX
  8
PNOA-H_AMS_1956-57_33k_ES_PAN_21mic_H50_0449_fot_50A-08776_E_tif
  70
32
  10
200249.508
  20
4563415.328
  30
659.394
  0
VERTEX
  8
PNOA-H_AMS_1956-57_33k_ES_PAN_21mic_H50_0449_fot_50A-08776_E_tif
  70
32
  10
200292.000
  20
4564403.793
  30
644.42
  0
VERTEX
  8
PNOA-H_AMS_1956-57_33k_ES_PAN_21mic_H50_0449_fot_50A-08776_E_tif
  70
32
  10
200292.500
  20
4564406.793
  30
644.05
  0
VERTEX
  8
PNOA-H_AMS_1956-57_33k_ES_PAN_21mic_H50_0449_fot_50A-08776_E_tif
  70
32
  10
200300.000
  20
4564408.793
  30
643
  0
VERTEX
  8
PNOA-H_AMS_1956-57_33k_ES_PAN_21mic_H50_0449_fot_50A-08776_E_tif
  70
32
  10
201853.000
  20
4564791.793
  30
652.1
  0
VERTEX
  8
PNOA-H_AMS_1956-57_33k_ES_PAN_21mic_H50_0449_fot_50A-08776_E_tif
  70
32
  10
202137.500
  20
4564680.293
  30
671.4
  0
VERTEX
  8
PNOA-H_AMS_1956-57_33k_ES_PAN_21mic_H50_0449_fot_50A-08776_E_tif
  70
32
  10
202138.500
  20
4564680.293
  30
671.4
  0
VERTEX
  8
PNOA-H_AMS_1956-57_33k_ES_PAN_21mic_H50_0449_fot_50A-08776_E_tif
  70
32
  10
203381.000
  20
4564193.293
  30
678.64
  0
SEQEND
  8
PNOA-H_AMS_1956-57_33k_ES_PAN_21mic_H50_0449_fot_50A-08776_E_tif
  0
TEXT
  8
PNOA-H_AMS_1956-57_33k_ES_PAN_21mic_H50_0449_fot_50A-08776_E_tif
 62
0
  1
PNOA-H_AMS_1956-57_33k_ES_PAN_21mic_H50_0449_fot_50A-08776_E.tif
 40
41.79052
  10
201815.254
  20
4564040.582
  0
POLYLINE
  8
PNOA-H_AMS_1956-57_33k_ES_PAN_21mic_H50_0450_fot_50A-08777_E_tif
  70
9
  66
1
  0
VERTEX
  8
PNOA-H_AMS_1956-57_33k_ES_PAN_21mic_H50_0450_fot_50A-08777_E_tif
  70
32
  10
204670.192
  20
4564610.232
  30
692.799
  0
VERTEX
  8
PNOA-H_AMS_1956-57_33k_ES_PAN_21mic_H50_0450_fot_50A-08777_E_tif
  70
32
  10
204614.566
  20
4563237.072
  30
690.56
  0
VERTEX
  8
PNOA-H_AMS_1956-57_33k_ES_PAN_21mic_H50_0450_fot_50A-08777_E_tif
  70
32
  10
203330.868
  20
4563289.372
  30
690.814
  0
VERTEX
  8
PNOA-H_AMS_1956-57_33k_ES_PAN_21mic_H50_0450_fot_50A-08777_E_tif
  70
32
  10
203381.000
  20
4564193.293
  30
678.64
  0
VERTEX
  8
PNOA-H_AMS_1956-57_33k_ES_PAN_21mic_H50_0450_fot_50A-08777_E_tif
  70
32
  10
204184.500
  20
4564453.293
  30
687.92
  0
VERTEX
  8
PNOA-H_AMS_1956-57_33k_ES_PAN_21mic_H50_0450_fot_50A-08777_E_tif
  70
32
  10
204186.000
  20
4564453.793
  30
688
  0
SEQEND
  8
PNOA-H_AMS_1956-57_33k_ES_PAN_21mic_H50_0450_fot_50A-08777_E_tif
  0
TEXT
  8
PNOA-H_AMS_1956-57_33k_ES_PAN_21mic_H50_0450_fot_50A-08777_E_tif
 62
0
  1
PNOA-H_AMS_1956-57_33k_ES_PAN_21mic_H50_0450_fot_50A-08777_E.tif
 40
41.79052
  10
204000.530
  20
4563923.652
  0
POLYLINE
  8
PNOA-H_AMS_1956-57_33k_ES_PAN_21mic_H50_0422_fot_47A-06498_E_tif
  70
9
  66
1
  0
VERTEX
  8
PNOA-H_AMS_1956-57_33k_ES_PAN_21mic_H50_0422_fot_47A-06498_E_tif
  70
32
  10
205080.000
  20
4579534.793
  30
-16165.5
  0
VERTEX
  8
PNOA-H_AMS_1956-57_33k_ES_PAN_21mic_H50_0422_fot_47A-06498_E_tif
  70
32
  10
205125.000
  20
4579534.793
  30
-16165.5
  0
VERTEX
  8
PNOA-H_AMS_1956-57_33k_ES_PAN_21mic_H50_0422_fot_47A-06498_E_tif
  70
32
  10
205122.500
  20
4579530.293
  30
436
  0
VERTEX
  8
PNOA-H_AMS_1956-57_33k_ES_PAN_21mic_H50_0422_fot_47A-06498_E_tif
  70
32
  10
205082.500
  20
4579530.293
  30
436
  0
VERTEX
  8
PNOA-H_AMS_1956-57_33k_ES_PAN_21mic_H50_0422_fot_47A-06498_E_tif
  70
32
  10
205080.000
  20
4579533.793
  30
-9524.9
  0
SEQEND
  8
PNOA-H_AMS_1956-57_33k_ES_PAN_21mic_H50_0422_fot_47A-06498_E_tif
  0
TEXT
  8
PNOA-H_AMS_1956-57_33k_ES_PAN_21mic_H50_0422_fot_47A-06498_E_tif
 62
0
  1
PNOA-H_AMS_1956-57_33k_ES_PAN_21mic_H50_0422_fot_47A-06498_E.tif
 40
41.79052
  10
205102.321
  20
4579532.543
  0
ENDSEC
  0
EOF
