  0
SECTION
  2
HEADER
  9
$ACADVER
  1
AC1009
  9
$LUNITS
  70
2
  9
$LIMMIN
  10
512077.571
  20
4631281.963
  9
$LIMMAX
  10
539786.879
  20
4649887.260
  9
$EXTMIN
  10
512077.571
  20
4631281.963
  9
$EXTMAX
  10
539786.879
  20
4649887.260
  999
Created by Global Mapper
  999
Projection: UTM
  999
Datum: ETRS89
  999
Ground Units: meters
  999
ZONE: 30
  0
ENDSEC
  0
SECTION
  2
TABLES
  0
ENDSEC
  0
SECTION
  2
BLOCKS
  0
BLOCK
  8
FeatureAttribs
  70
0
  2
FEATURE
  3
FEATURE
  10
0.00000000
  20
0.00000000
  0
ATTDEF
  8
FeatureAttribs
  70
0
  1
 
  2
NAME
  3
NAME
  10
0.00000000
  20
0.00000000
  40
1.00000000
  0
ENDBLK
  0
ENDSEC
  0
SECTION
  2
ENTITIES
  0
INSERT
  8
FeatureAttribs
  2
FEATURE
  41
1
  42
1
  43
1
  50
0
  10
539634.698
  20
4648832.225
 66
1
  0
ATTRIB
  8
FeatureAttribs
 70
0
  1
PNOA-H_AMS_1956-57_33k_ES_PAN_21mic_H50_0280_fot_29C-50617_E.tif
  2
NAME
  10
539634.698
  20
4648832.225
 40
33.37608
  0
SEQEND
  0
POLYLINE
  8
PNOA-H_AMS_1956-57_33k_ES_PAN_21mic_H50_0280_fot_29C-50617_E_tif
  70
9
  66
1
  0
VERTEX
  8
PNOA-H_AMS_1956-57_33k_ES_PAN_21mic_H50_0280_fot_29C-50617_E_tif
  70
32
  10
539683.493
  20
4649887.260
  30
0
  0
VERTEX
  8
PNOA-H_AMS_1956-57_33k_ES_PAN_21mic_H50_0280_fot_29C-50617_E_tif
  70
32
  10
539695.297
  20
4647777.396
  30
0
  0
VERTEX
  8
PNOA-H_AMS_1956-57_33k_ES_PAN_21mic_H50_0280_fot_29C-50617_E_tif
  70
32
  10
539695.299
  20
4647777.190
  30
1403.475
  0
VERTEX
  8
PNOA-H_AMS_1956-57_33k_ES_PAN_21mic_H50_0280_fot_29C-50617_E_tif
  70
32
  10
539580.000
  20
4647800.527
  30
1412.42
  0
VERTEX
  8
PNOA-H_AMS_1956-57_33k_ES_PAN_21mic_H50_0280_fot_29C-50617_E_tif
  70
32
  10
539580.000
  20
4647800.772
  30
1412.439
  0
VERTEX
  8
PNOA-H_AMS_1956-57_33k_ES_PAN_21mic_H50_0280_fot_29C-50617_E_tif
  70
32
  10
539580.000
  20
4649780.000
  30
1568.022
  0
VERTEX
  8
PNOA-H_AMS_1956-57_33k_ES_PAN_21mic_H50_0280_fot_29C-50617_E_tif
  70
32
  10
539550.000
  20
4649780.000
  30
1568.022
  0
VERTEX
  8
PNOA-H_AMS_1956-57_33k_ES_PAN_21mic_H50_0280_fot_29C-50617_E_tif
  70
32
  10
539550.000
  20
4649886.545
  30
1565.523
  0
VERTEX
  8
PNOA-H_AMS_1956-57_33k_ES_PAN_21mic_H50_0280_fot_29C-50617_E_tif
  70
32
  10
539683.493
  20
4649887.260
  30
0
  0
SEQEND
  8
PNOA-H_AMS_1956-57_33k_ES_PAN_21mic_H50_0280_fot_29C-50617_E_tif
  0
INSERT
  8
FeatureAttribs
  2
FEATURE
  41
1
  42
1
  43
1
  50
0
  10
512538.303
  20
4648525.157
 66
1
  0
ATTRIB
  8
FeatureAttribs
 70
0
  1
PNOA-H_AMS_1956-57_33k_ES_PAN_21mic_H50_0278_fot_29C-50605_E.tif
  2
NAME
  10
512538.303
  20
4648525.157
 40
33.37608
  0
SEQEND
  0
POLYLINE
  8
PNOA-H_AMS_1956-57_33k_ES_PAN_21mic_H50_0278_fot_29C-50605_E_tif
  70
9
  66
1
  0
VERTEX
  8
PNOA-H_AMS_1956-57_33k_ES_PAN_21mic_H50_0278_fot_29C-50605_E_tif
  70
32
  10
512219.000
  20
4647262.000
  30
1837.975
  0
VERTEX
  8
PNOA-H_AMS_1956-57_33k_ES_PAN_21mic_H50_0278_fot_29C-50605_E_tif
  70
32
  10
512218.000
  20
4647262.000
  30
1838.023
  0
VERTEX
  8
PNOA-H_AMS_1956-57_33k_ES_PAN_21mic_H50_0278_fot_29C-50605_E_tif
  70
32
  10
512216.000
  20
4647262.000
  30
1838.117
  0
VERTEX
  8
PNOA-H_AMS_1956-57_33k_ES_PAN_21mic_H50_0278_fot_29C-50605_E_tif
  70
32
  10
512081.822
  20
4647290.284
  30
1830.346
  0
VERTEX
  8
PNOA-H_AMS_1956-57_33k_ES_PAN_21mic_H50_0278_fot_29C-50605_E_tif
  70
32
  10
512081.821
  20
4647290.655
  30
0
  0
VERTEX
  8
PNOA-H_AMS_1956-57_33k_ES_PAN_21mic_H50_0278_fot_29C-50605_E_tif
  70
32
  10
512081.510
  20
4647473.412
  30
0
  0
VERTEX
  8
PNOA-H_AMS_1956-57_33k_ES_PAN_21mic_H50_0278_fot_29C-50605_E_tif
  70
32
  10
512077.571
  20
4649786.509
  30
0
  0
VERTEX
  8
PNOA-H_AMS_1956-57_33k_ES_PAN_21mic_H50_0278_fot_29C-50605_E_tif
  70
32
  10
513005.041
  20
4649788.315
  30
1874.684
  0
VERTEX
  8
PNOA-H_AMS_1956-57_33k_ES_PAN_21mic_H50_0278_fot_29C-50605_E_tif
  70
32
  10
512990.500
  20
4647536.000
  30
1717.653
  0
VERTEX
  8
PNOA-H_AMS_1956-57_33k_ES_PAN_21mic_H50_0278_fot_29C-50605_E_tif
  70
32
  10
512989.972
  20
4647535.812
  30
1717.735
  0
VERTEX
  8
PNOA-H_AMS_1956-57_33k_ES_PAN_21mic_H50_0278_fot_29C-50605_E_tif
  70
32
  10
512233.500
  20
4647267.000
  30
1835.104
  0
VERTEX
  8
PNOA-H_AMS_1956-57_33k_ES_PAN_21mic_H50_0278_fot_29C-50605_E_tif
  70
32
  10
512219.000
  20
4647262.000
  30
1837.975
  0
SEQEND
  8
PNOA-H_AMS_1956-57_33k_ES_PAN_21mic_H50_0278_fot_29C-50605_E_tif
  0
INSERT
  8
FeatureAttribs
  2
FEATURE
  41
1
  42
1
  43
1
  50
0
  10
512122.702
  20
4645262.908
 66
1
  0
ATTRIB
  8
FeatureAttribs
 70
0
  1
PNOA-H_AMS_1956-57_33k_ES_PAN_21mic_H50_0316_fot_30D-50551_W.tif
  2
NAME
  10
512122.702
  20
4645262.908
 40
33.37608
  0
SEQEND
  0
POLYLINE
  8
PNOA-H_AMS_1956-57_33k_ES_PAN_21mic_H50_0316_fot_30D-50551_W_tif
  70
9
  66
1
  0
VERTEX
  8
PNOA-H_AMS_1956-57_33k_ES_PAN_21mic_H50_0316_fot_30D-50551_W_tif
  70
32
  10
512100.235
  20
4643237.269
  30
1457.352
  0
VERTEX
  8
PNOA-H_AMS_1956-57_33k_ES_PAN_21mic_H50_0316_fot_30D-50551_W_tif
  70
32
  10
512088.722
  20
4643235.162
  30
1456.063
  0
VERTEX
  8
PNOA-H_AMS_1956-57_33k_ES_PAN_21mic_H50_0316_fot_30D-50551_W_tif
  70
32
  10
512088.722
  20
4643235.706
  30
0
  0
VERTEX
  8
PNOA-H_AMS_1956-57_33k_ES_PAN_21mic_H50_0316_fot_30D-50551_W_tif
  70
32
  10
512085.447
  20
4645160.322
  30
0
  0
VERTEX
  8
PNOA-H_AMS_1956-57_33k_ES_PAN_21mic_H50_0316_fot_30D-50551_W_tif
  70
32
  10
512081.822
  20
4647290.284
  30
0
  0
VERTEX
  8
PNOA-H_AMS_1956-57_33k_ES_PAN_21mic_H50_0316_fot_30D-50551_W_tif
  70
32
  10
512081.821
  20
4647290.655
  30
1830.135
  0
VERTEX
  8
PNOA-H_AMS_1956-57_33k_ES_PAN_21mic_H50_0316_fot_30D-50551_W_tif
  70
32
  10
512218.000
  20
4647262.000
  30
1838.071
  0
VERTEX
  8
PNOA-H_AMS_1956-57_33k_ES_PAN_21mic_H50_0316_fot_30D-50551_W_tif
  70
32
  10
512101.500
  20
4643237.500
  30
1457.494
  0
VERTEX
  8
PNOA-H_AMS_1956-57_33k_ES_PAN_21mic_H50_0316_fot_30D-50551_W_tif
  70
32
  10
512100.235
  20
4643237.269
  30
1457.352
  0
SEQEND
  8
PNOA-H_AMS_1956-57_33k_ES_PAN_21mic_H50_0316_fot_30D-50551_W_tif
  0
INSERT
  8
FeatureAttribs
  2
FEATURE
  41
1
  42
1
  43
1
  50
0
  10
513309.235
  20
4645241.250
 66
1
  0
ATTRIB
  8
FeatureAttribs
 70
0
  1
PNOA-H_AMS_1956-57_33k_ES_PAN_21mic_H50_0317_fot_30D-50550_W.tif
  2
NAME
  10
513309.235
  20
4645241.250
 40
33.37608
  0
SEQEND
  0
POLYLINE
  8
PNOA-H_AMS_1956-57_33k_ES_PAN_21mic_H50_0317_fot_30D-50550_W_tif
  70
9
  66
1
  0
VERTEX
  8
PNOA-H_AMS_1956-57_33k_ES_PAN_21mic_H50_0317_fot_30D-50550_W_tif
  70
32
  10
512942.770
  20
4642946.579
  30
1468.599
  0
VERTEX
  8
PNOA-H_AMS_1956-57_33k_ES_PAN_21mic_H50_0317_fot_30D-50550_W_tif
  70
32
  10
512941.500
  20
4642946.500
  30
1468.616
  0
VERTEX
  8
PNOA-H_AMS_1956-57_33k_ES_PAN_21mic_H50_0317_fot_30D-50550_W_tif
  70
32
  10
512103.377
  20
4643236.850
  30
1457.519
  0
VERTEX
  8
PNOA-H_AMS_1956-57_33k_ES_PAN_21mic_H50_0317_fot_30D-50550_W_tif
  70
32
  10
512101.500
  20
4643237.500
  30
1457.494
  0
VERTEX
  8
PNOA-H_AMS_1956-57_33k_ES_PAN_21mic_H50_0317_fot_30D-50550_W_tif
  70
32
  10
512218.000
  20
4647262.000
  30
1838.071
  0
VERTEX
  8
PNOA-H_AMS_1956-57_33k_ES_PAN_21mic_H50_0317_fot_30D-50550_W_tif
  70
32
  10
512987.500
  20
4647535.500
  30
1718.456
  0
VERTEX
  8
PNOA-H_AMS_1956-57_33k_ES_PAN_21mic_H50_0317_fot_30D-50550_W_tif
  70
32
  10
512989.000
  20
4647536.000
  30
1717.957
  0
VERTEX
  8
PNOA-H_AMS_1956-57_33k_ES_PAN_21mic_H50_0317_fot_30D-50550_W_tif
  70
32
  10
512989.972
  20
4647535.812
  30
1717.935
  0
VERTEX
  8
PNOA-H_AMS_1956-57_33k_ES_PAN_21mic_H50_0317_fot_30D-50550_W_tif
  70
32
  10
513531.356
  20
4647431.347
  30
1705.55
  0
VERTEX
  8
PNOA-H_AMS_1956-57_33k_ES_PAN_21mic_H50_0317_fot_30D-50550_W_tif
  70
32
  10
514490.740
  20
4647246.225
  30
1683.603
  0
VERTEX
  8
PNOA-H_AMS_1956-57_33k_ES_PAN_21mic_H50_0317_fot_30D-50550_W_tif
  70
32
  10
514494.500
  20
4647245.500
  30
1683.517
  0
VERTEX
  8
PNOA-H_AMS_1956-57_33k_ES_PAN_21mic_H50_0317_fot_30D-50550_W_tif
  70
32
  10
514422.500
  20
4643184.500
  30
1514.818
  0
VERTEX
  8
PNOA-H_AMS_1956-57_33k_ES_PAN_21mic_H50_0317_fot_30D-50550_W_tif
  70
32
  10
512949.500
  20
4642947.000
  30
1468.511
  0
VERTEX
  8
PNOA-H_AMS_1956-57_33k_ES_PAN_21mic_H50_0317_fot_30D-50550_W_tif
  70
32
  10
512943.951
  20
4642946.653
  30
1468.584
  0
VERTEX
  8
PNOA-H_AMS_1956-57_33k_ES_PAN_21mic_H50_0317_fot_30D-50550_W_tif
  70
32
  10
512942.770
  20
4642946.579
  30
1468.599
  0
SEQEND
  8
PNOA-H_AMS_1956-57_33k_ES_PAN_21mic_H50_0317_fot_30D-50550_W_tif
  0
INSERT
  8
FeatureAttribs
  2
FEATURE
  41
1
  42
1
  43
1
  50
0
  10
512513.468
  20
4640941.842
 66
1
  0
ATTRIB
  8
FeatureAttribs
 70
0
  1
PNOA-H_AMS_1956-57_33k_ES_PAN_21mic_H50_0316_fot_31B-36875_E.tif
  2
NAME
  10
512513.468
  20
4640941.842
 40
33.37608
  0
SEQEND
  0
POLYLINE
  8
PNOA-H_AMS_1956-57_33k_ES_PAN_21mic_H50_0316_fot_31B-36875_E_tif
  70
9
  66
1
  0
VERTEX
  8
PNOA-H_AMS_1956-57_33k_ES_PAN_21mic_H50_0316_fot_31B-36875_E_tif
  70
32
  10
512871.006
  20
4638675.477
  30
1330.458
  0
VERTEX
  8
PNOA-H_AMS_1956-57_33k_ES_PAN_21mic_H50_0316_fot_31B-36875_E_tif
  70
32
  10
512096.526
  20
4638646.183
  30
1370.697
  0
VERTEX
  8
PNOA-H_AMS_1956-57_33k_ES_PAN_21mic_H50_0316_fot_31B-36875_E_tif
  70
32
  10
512096.526
  20
4638646.398
  30
0
  0
VERTEX
  8
PNOA-H_AMS_1956-57_33k_ES_PAN_21mic_H50_0316_fot_31B-36875_E_tif
  70
32
  10
512093.316
  20
4640534.169
  30
0
  0
VERTEX
  8
PNOA-H_AMS_1956-57_33k_ES_PAN_21mic_H50_0316_fot_31B-36875_E_tif
  70
32
  10
512089.382
  20
4642847.242
  30
0
  0
VERTEX
  8
PNOA-H_AMS_1956-57_33k_ES_PAN_21mic_H50_0316_fot_31B-36875_E_tif
  70
32
  10
512088.722
  20
4643235.162
  30
0
  0
VERTEX
  8
PNOA-H_AMS_1956-57_33k_ES_PAN_21mic_H50_0316_fot_31B-36875_E_tif
  70
32
  10
512088.722
  20
4643235.706
  30
1455.736
  0
VERTEX
  8
PNOA-H_AMS_1956-57_33k_ES_PAN_21mic_H50_0316_fot_31B-36875_E_tif
  70
32
  10
512098.500
  20
4643237.500
  30
1456.829
  0
VERTEX
  8
PNOA-H_AMS_1956-57_33k_ES_PAN_21mic_H50_0316_fot_31B-36875_E_tif
  70
32
  10
512100.235
  20
4643237.269
  30
1457.184
  0
VERTEX
  8
PNOA-H_AMS_1956-57_33k_ES_PAN_21mic_H50_0316_fot_31B-36875_E_tif
  70
32
  10
512103.377
  20
4643236.850
  30
1457.827
  0
VERTEX
  8
PNOA-H_AMS_1956-57_33k_ES_PAN_21mic_H50_0316_fot_31B-36875_E_tif
  70
32
  10
512106.000
  20
4643236.500
  30
1458.363
  0
VERTEX
  8
PNOA-H_AMS_1956-57_33k_ES_PAN_21mic_H50_0316_fot_31B-36875_E_tif
  70
32
  10
512458.000
  20
4643114.000
  30
1493.697
  0
VERTEX
  8
PNOA-H_AMS_1956-57_33k_ES_PAN_21mic_H50_0316_fot_31B-36875_E_tif
  70
32
  10
512460.000
  20
4643113.500
  30
1493.705
  0
VERTEX
  8
PNOA-H_AMS_1956-57_33k_ES_PAN_21mic_H50_0316_fot_31B-36875_E_tif
  70
32
  10
512942.770
  20
4642946.579
  30
1468.608
  0
VERTEX
  8
PNOA-H_AMS_1956-57_33k_ES_PAN_21mic_H50_0316_fot_31B-36875_E_tif
  70
32
  10
512943.000
  20
4642946.500
  30
1468.596
  0
VERTEX
  8
PNOA-H_AMS_1956-57_33k_ES_PAN_21mic_H50_0316_fot_31B-36875_E_tif
  70
32
  10
512924.500
  20
4638677.500
  30
1327.679
  0
VERTEX
  8
PNOA-H_AMS_1956-57_33k_ES_PAN_21mic_H50_0316_fot_31B-36875_E_tif
  70
32
  10
512871.006
  20
4638675.477
  30
1330.458
  0
SEQEND
  8
PNOA-H_AMS_1956-57_33k_ES_PAN_21mic_H50_0316_fot_31B-36875_E_tif
  0
INSERT
  8
FeatureAttribs
  2
FEATURE
  41
1
  42
1
  43
1
  50
0
  10
512705.255
  20
4636391.250
 66
1
  0
ATTRIB
  8
FeatureAttribs
 70
0
  1
PNOA-H_AMS_1956-57_33k_ES_PAN_21mic_H50_0316_fot_32B-39530_W.tif
  2
NAME
  10
512705.255
  20
4636391.250
 40
33.37608
  0
SEQEND
  0
POLYLINE
  8
PNOA-H_AMS_1956-57_33k_ES_PAN_21mic_H50_0316_fot_32B-39530_W_tif
  70
9
  66
1
  0
VERTEX
  8
PNOA-H_AMS_1956-57_33k_ES_PAN_21mic_H50_0316_fot_32B-39530_W_tif
  70
32
  10
513323.000
  20
4634160.500
  30
1091.725
  0
VERTEX
  8
PNOA-H_AMS_1956-57_33k_ES_PAN_21mic_H50_0316_fot_32B-39530_W_tif
  70
32
  10
513232.000
  20
4634105.000
  30
1095.312
  0
VERTEX
  8
PNOA-H_AMS_1956-57_33k_ES_PAN_21mic_H50_0316_fot_32B-39530_W_tif
  70
32
  10
512104.183
  20
4634139.450
  30
1116.893
  0
VERTEX
  8
PNOA-H_AMS_1956-57_33k_ES_PAN_21mic_H50_0316_fot_32B-39530_W_tif
  70
32
  10
512101.179
  20
4635908.049
  30
0
  0
VERTEX
  8
PNOA-H_AMS_1956-57_33k_ES_PAN_21mic_H50_0316_fot_32B-39530_W_tif
  70
32
  10
512097.249
  20
4638221.105
  30
0
  0
VERTEX
  8
PNOA-H_AMS_1956-57_33k_ES_PAN_21mic_H50_0316_fot_32B-39530_W_tif
  70
32
  10
512096.526
  20
4638646.183
  30
0
  0
VERTEX
  8
PNOA-H_AMS_1956-57_33k_ES_PAN_21mic_H50_0316_fot_32B-39530_W_tif
  70
32
  10
512096.526
  20
4638646.398
  30
1413.22
  0
VERTEX
  8
PNOA-H_AMS_1956-57_33k_ES_PAN_21mic_H50_0316_fot_32B-39530_W_tif
  70
32
  10
512444.500
  20
4638659.500
  30
1405.512
  0
VERTEX
  8
PNOA-H_AMS_1956-57_33k_ES_PAN_21mic_H50_0316_fot_32B-39530_W_tif
  70
32
  10
512458.000
  20
4638660.000
  30
1404.747
  0
VERTEX
  8
PNOA-H_AMS_1956-57_33k_ES_PAN_21mic_H50_0316_fot_32B-39530_W_tif
  70
32
  10
512871.006
  20
4638675.477
  30
1336.581
  0
VERTEX
  8
PNOA-H_AMS_1956-57_33k_ES_PAN_21mic_H50_0316_fot_32B-39530_W_tif
  70
32
  10
512924.533
  20
4638677.482
  30
1327.746
  0
VERTEX
  8
PNOA-H_AMS_1956-57_33k_ES_PAN_21mic_H50_0316_fot_32B-39530_W_tif
  70
32
  10
512925.000
  20
4638677.500
  30
1327.669
  0
VERTEX
  8
PNOA-H_AMS_1956-57_33k_ES_PAN_21mic_H50_0316_fot_32B-39530_W_tif
  70
32
  10
513298.000
  20
4638501.000
  30
1315.72
  0
VERTEX
  8
PNOA-H_AMS_1956-57_33k_ES_PAN_21mic_H50_0316_fot_32B-39530_W_tif
  70
32
  10
513322.997
  20
4634160.998
  30
1091.75
  0
VERTEX
  8
PNOA-H_AMS_1956-57_33k_ES_PAN_21mic_H50_0316_fot_32B-39530_W_tif
  70
32
  10
513323.000
  20
4634160.500
  30
1091.725
  0
SEQEND
  8
PNOA-H_AMS_1956-57_33k_ES_PAN_21mic_H50_0316_fot_32B-39530_W_tif
  0
INSERT
  8
FeatureAttribs
  2
FEATURE
  41
1
  42
1
  43
1
  50
0
  10
512684.021
  20
4632710.704
 66
1
  0
ATTRIB
  8
FeatureAttribs
 70
0
  1
PNOA-H_AMS_1956-57_33k_ES_PAN_21mic_H50_0317_fot_33B-38725_E.tif
  2
NAME
  10
512684.021
  20
4632710.704
 40
33.37608
  0
SEQEND
  0
POLYLINE
  8
PNOA-H_AMS_1956-57_33k_ES_PAN_21mic_H50_0317_fot_33B-38725_E_tif
  70
9
  66
1
  0
VERTEX
  8
PNOA-H_AMS_1956-57_33k_ES_PAN_21mic_H50_0317_fot_33B-38725_E_tif
  70
32
  10
513291.107
  20
4631284.257
  30
0
  0
VERTEX
  8
PNOA-H_AMS_1956-57_33k_ES_PAN_21mic_H50_0317_fot_33B-38725_E_tif
  70
32
  10
512109.036
  20
4631281.963
  30
0
  0
VERTEX
  8
PNOA-H_AMS_1956-57_33k_ES_PAN_21mic_H50_0317_fot_33B-38725_E_tif
  70
32
  10
512105.108
  20
4633595.002
  30
0
  0
VERTEX
  8
PNOA-H_AMS_1956-57_33k_ES_PAN_21mic_H50_0317_fot_33B-38725_E_tif
  70
32
  10
512104.183
  20
4634139.444
  30
1116.908
  0
VERTEX
  8
PNOA-H_AMS_1956-57_33k_ES_PAN_21mic_H50_0317_fot_33B-38725_E_tif
  70
32
  10
513232.000
  20
4634105.000
  30
1095.312
  0
VERTEX
  8
PNOA-H_AMS_1956-57_33k_ES_PAN_21mic_H50_0317_fot_33B-38725_E_tif
  70
32
  10
513291.542
  20
4631284.258
  30
1145.31
  0
VERTEX
  8
PNOA-H_AMS_1956-57_33k_ES_PAN_21mic_H50_0317_fot_33B-38725_E_tif
  70
32
  10
513291.107
  20
4631284.257
  30
0
  0
SEQEND
  8
PNOA-H_AMS_1956-57_33k_ES_PAN_21mic_H50_0317_fot_33B-38725_E_tif
  0
INSERT
  8
FeatureAttribs
  2
FEATURE
  41
1
  42
1
  43
1
  50
0
  10
516739.054
  20
4648497.627
 66
1
  0
ATTRIB
  8
FeatureAttribs
 70
0
  1
PNOA-H_AMS_1956-57_33k_ES_PAN_21mic_H50_0279_fot_29C-50607_E.tif
  2
NAME
  10
516739.054
  20
4648497.627
 40
33.37608
  0
SEQEND
  0
POLYLINE
  8
PNOA-H_AMS_1956-57_33k_ES_PAN_21mic_H50_0279_fot_29C-50607_E_tif
  70
9
  66
1
  0
VERTEX
  8
PNOA-H_AMS_1956-57_33k_ES_PAN_21mic_H50_0279_fot_29C-50607_E_tif
  70
32
  10
518002.234
  20
4647522.429
  30
1281.34
  0
VERTEX
  8
PNOA-H_AMS_1956-57_33k_ES_PAN_21mic_H50_0279_fot_29C-50607_E_tif
  70
32
  10
516776.500
  20
4647196.000
  30
1256.215
  0
VERTEX
  8
PNOA-H_AMS_1956-57_33k_ES_PAN_21mic_H50_0279_fot_29C-50607_E_tif
  70
32
  10
516775.550
  20
4647196.146
  30
1256.344
  0
VERTEX
  8
PNOA-H_AMS_1956-57_33k_ES_PAN_21mic_H50_0279_fot_29C-50607_E_tif
  70
32
  10
516773.302
  20
4647196.492
  30
1256.65
  0
VERTEX
  8
PNOA-H_AMS_1956-57_33k_ES_PAN_21mic_H50_0279_fot_29C-50607_E_tif
  70
32
  10
516770.000
  20
4647197.000
  30
1257.099
  0
VERTEX
  8
PNOA-H_AMS_1956-57_33k_ES_PAN_21mic_H50_0279_fot_29C-50607_E_tif
  70
32
  10
515472.000
  20
4647573.000
  30
1531.411
  0
VERTEX
  8
PNOA-H_AMS_1956-57_33k_ES_PAN_21mic_H50_0279_fot_29C-50607_E_tif
  70
32
  10
515476.968
  20
4649793.126
  30
1458.383
  0
VERTEX
  8
PNOA-H_AMS_1956-57_33k_ES_PAN_21mic_H50_0279_fot_29C-50607_E_tif
  70
32
  10
515528.307
  20
4649793.226
  30
0
  0
VERTEX
  8
PNOA-H_AMS_1956-57_33k_ES_PAN_21mic_H50_0279_fot_29C-50607_E_tif
  70
32
  10
518006.091
  20
4649799.255
  30
1367.945
  0
VERTEX
  8
PNOA-H_AMS_1956-57_33k_ES_PAN_21mic_H50_0279_fot_29C-50607_E_tif
  70
32
  10
518002.501
  20
4647522.500
  30
1281.345
  0
VERTEX
  8
PNOA-H_AMS_1956-57_33k_ES_PAN_21mic_H50_0279_fot_29C-50607_E_tif
  70
32
  10
518002.234
  20
4647522.429
  30
1281.34
  0
SEQEND
  8
PNOA-H_AMS_1956-57_33k_ES_PAN_21mic_H50_0279_fot_29C-50607_E_tif
  0
INSERT
  8
FeatureAttribs
  2
FEATURE
  41
1
  42
1
  43
1
  50
0
  10
519127.769
  20
4648487.621
 66
1
  0
ATTRIB
  8
FeatureAttribs
 70
0
  1
PNOA-H_AMS_1956-57_33k_ES_PAN_21mic_H50_0279_fot_29C-50608_E.tif
  2
NAME
  10
519127.769
  20
4648487.621
 40
33.37608
  0
SEQEND
  0
POLYLINE
  8
PNOA-H_AMS_1956-57_33k_ES_PAN_21mic_H50_0279_fot_29C-50608_E_tif
  70
9
  66
1
  0
VERTEX
  8
PNOA-H_AMS_1956-57_33k_ES_PAN_21mic_H50_0279_fot_29C-50608_E_tif
  70
32
  10
520276.500
  20
4647471.500
  30
1693.703
  0
VERTEX
  8
PNOA-H_AMS_1956-57_33k_ES_PAN_21mic_H50_0279_fot_29C-50608_E_tif
  70
32
  10
519166.500
  20
4647170.000
  30
1374.117
  0
VERTEX
  8
PNOA-H_AMS_1956-57_33k_ES_PAN_21mic_H50_0279_fot_29C-50608_E_tif
  70
32
  10
519166.496
  20
4647170.001
  30
1374.116
  0
VERTEX
  8
PNOA-H_AMS_1956-57_33k_ES_PAN_21mic_H50_0279_fot_29C-50608_E_tif
  70
32
  10
518602.688
  20
4647340.500
  30
1329.142
  0
VERTEX
  8
PNOA-H_AMS_1956-57_33k_ES_PAN_21mic_H50_0279_fot_29C-50608_E_tif
  70
32
  10
518518.532
  20
4647365.949
  30
1322.429
  0
VERTEX
  8
PNOA-H_AMS_1956-57_33k_ES_PAN_21mic_H50_0279_fot_29C-50608_E_tif
  70
32
  10
518002.500
  20
4647522.000
  30
1281.266
  0
VERTEX
  8
PNOA-H_AMS_1956-57_33k_ES_PAN_21mic_H50_0279_fot_29C-50608_E_tif
  70
32
  10
518002.501
  20
4647522.348
  30
1281.279
  0
VERTEX
  8
PNOA-H_AMS_1956-57_33k_ES_PAN_21mic_H50_0279_fot_29C-50608_E_tif
  70
32
  10
518002.501
  20
4647522.500
  30
1281.285
  0
VERTEX
  8
PNOA-H_AMS_1956-57_33k_ES_PAN_21mic_H50_0279_fot_29C-50608_E_tif
  70
32
  10
518006.091
  20
4649799.255
  30
1367.933
  0
VERTEX
  8
PNOA-H_AMS_1956-57_33k_ES_PAN_21mic_H50_0279_fot_29C-50608_E_tif
  70
32
  10
518979.044
  20
4649801.622
  30
0
  0
VERTEX
  8
PNOA-H_AMS_1956-57_33k_ES_PAN_21mic_H50_0279_fot_29C-50608_E_tif
  70
32
  10
520219.116
  20
4649805.242
  30
1827.818
  0
VERTEX
  8
PNOA-H_AMS_1956-57_33k_ES_PAN_21mic_H50_0279_fot_29C-50608_E_tif
  70
32
  10
520276.500
  20
4647471.500
  30
1693.703
  0
SEQEND
  8
PNOA-H_AMS_1956-57_33k_ES_PAN_21mic_H50_0279_fot_29C-50608_E_tif
  0
INSERT
  8
FeatureAttribs
  2
FEATURE
  41
1
  42
1
  43
1
  50
0
  10
514235.484
  20
4648519.313
 66
1
  0
ATTRIB
  8
FeatureAttribs
 70
0
  1
PNOA-H_AMS_1956-57_33k_ES_PAN_21mic_H50_0279_fot_29C-50606_E.tif
  2
NAME
  10
514235.484
  20
4648519.313
 40
33.37608
  0
SEQEND
  0
POLYLINE
  8
PNOA-H_AMS_1956-57_33k_ES_PAN_21mic_H50_0279_fot_29C-50606_E_tif
  70
9
  66
1
  0
VERTEX
  8
PNOA-H_AMS_1956-57_33k_ES_PAN_21mic_H50_0279_fot_29C-50606_E_tif
  70
32
  10
515472.000
  20
4647573.000
  30
1531.411
  0
VERTEX
  8
PNOA-H_AMS_1956-57_33k_ES_PAN_21mic_H50_0279_fot_29C-50606_E_tif
  70
32
  10
514496.000
  20
4647245.500
  30
1683.456
  0
VERTEX
  8
PNOA-H_AMS_1956-57_33k_ES_PAN_21mic_H50_0279_fot_29C-50606_E_tif
  70
32
  10
514494.939
  20
4647245.646
  30
1683.462
  0
VERTEX
  8
PNOA-H_AMS_1956-57_33k_ES_PAN_21mic_H50_0279_fot_29C-50606_E_tif
  70
32
  10
514490.740
  20
4647246.225
  30
1683.488
  0
VERTEX
  8
PNOA-H_AMS_1956-57_33k_ES_PAN_21mic_H50_0279_fot_29C-50606_E_tif
  70
32
  10
514481.500
  20
4647247.500
  30
1683.545
  0
VERTEX
  8
PNOA-H_AMS_1956-57_33k_ES_PAN_21mic_H50_0279_fot_29C-50606_E_tif
  70
32
  10
513531.356
  20
4647431.347
  30
1705.281
  0
VERTEX
  8
PNOA-H_AMS_1956-57_33k_ES_PAN_21mic_H50_0279_fot_29C-50606_E_tif
  70
32
  10
512990.500
  20
4647536.000
  30
1717.653
  0
VERTEX
  8
PNOA-H_AMS_1956-57_33k_ES_PAN_21mic_H50_0279_fot_29C-50606_E_tif
  70
32
  10
513005.044
  20
4649788.315
  30
1874.632
  0
VERTEX
  8
PNOA-H_AMS_1956-57_33k_ES_PAN_21mic_H50_0279_fot_29C-50606_E_tif
  70
32
  10
515476.968
  20
4649793.126
  30
1458.287
  0
VERTEX
  8
PNOA-H_AMS_1956-57_33k_ES_PAN_21mic_H50_0279_fot_29C-50606_E_tif
  70
32
  10
515472.000
  20
4647573.000
  30
1531.411
  0
SEQEND
  8
PNOA-H_AMS_1956-57_33k_ES_PAN_21mic_H50_0279_fot_29C-50606_E_tif
  0
INSERT
  8
FeatureAttribs
  2
FEATURE
  41
1
  42
1
  43
1
  50
0
  10
517950.945
  20
4645207.500
 66
1
  0
ATTRIB
  8
FeatureAttribs
 70
0
  1
PNOA-H_AMS_1956-57_33k_ES_PAN_21mic_H50_0317_fot_30D-50548_W.tif
  2
NAME
  10
517950.945
  20
4645207.500
 40
33.37608
  0
SEQEND
  0
POLYLINE
  8
PNOA-H_AMS_1956-57_33k_ES_PAN_21mic_H50_0317_fot_30D-50548_W_tif
  70
9
  66
1
  0
VERTEX
  8
PNOA-H_AMS_1956-57_33k_ES_PAN_21mic_H50_0317_fot_30D-50548_W_tif
  70
32
  10
518518.532
  20
4647365.949
  30
1310.048
  0
VERTEX
  8
PNOA-H_AMS_1956-57_33k_ES_PAN_21mic_H50_0317_fot_30D-50548_W_tif
  70
32
  10
518602.500
  20
4647340.500
  30
1314.729
  0
VERTEX
  8
PNOA-H_AMS_1956-57_33k_ES_PAN_21mic_H50_0317_fot_30D-50548_W_tif
  70
32
  10
518602.688
  20
4647340.500
  30
1314.795
  0
VERTEX
  8
PNOA-H_AMS_1956-57_33k_ES_PAN_21mic_H50_0317_fot_30D-50548_W_tif
  70
32
  10
518604.000
  20
4647340.500
  30
1315.259
  0
VERTEX
  8
PNOA-H_AMS_1956-57_33k_ES_PAN_21mic_H50_0317_fot_30D-50548_W_tif
  70
32
  10
519166.500
  20
4647170.500
  30
1374.193
  0
VERTEX
  8
PNOA-H_AMS_1956-57_33k_ES_PAN_21mic_H50_0317_fot_30D-50548_W_tif
  70
32
  10
519166.496
  20
4647170.001
  30
1374.163
  0
VERTEX
  8
PNOA-H_AMS_1956-57_33k_ES_PAN_21mic_H50_0317_fot_30D-50548_W_tif
  70
32
  10
519134.500
  20
4643157.000
  30
1132.186
  0
VERTEX
  8
PNOA-H_AMS_1956-57_33k_ES_PAN_21mic_H50_0317_fot_30D-50548_W_tif
  70
32
  10
519133.292
  20
4643156.801
  30
1132.267
  0
VERTEX
  8
PNOA-H_AMS_1956-57_33k_ES_PAN_21mic_H50_0317_fot_30D-50548_W_tif
  70
32
  10
517526.000
  20
4642892.500
  30
1239.902
  0
VERTEX
  8
PNOA-H_AMS_1956-57_33k_ES_PAN_21mic_H50_0317_fot_30D-50548_W_tif
  70
32
  10
517523.000
  20
4642892.500
  30
1240.732
  0
VERTEX
  8
PNOA-H_AMS_1956-57_33k_ES_PAN_21mic_H50_0317_fot_30D-50548_W_tif
  70
32
  10
517521.500
  20
4642892.500
  30
1241.148
  0
VERTEX
  8
PNOA-H_AMS_1956-57_33k_ES_PAN_21mic_H50_0317_fot_30D-50548_W_tif
  70
32
  10
517515.500
  20
4642894.500
  30
1243.013
  0
VERTEX
  8
PNOA-H_AMS_1956-57_33k_ES_PAN_21mic_H50_0317_fot_30D-50548_W_tif
  70
32
  10
517012.102
  20
4643070.594
  30
1401.538
  0
VERTEX
  8
PNOA-H_AMS_1956-57_33k_ES_PAN_21mic_H50_0317_fot_30D-50548_W_tif
  70
32
  10
516726.500
  20
4643170.500
  30
1491.477
  0
VERTEX
  8
PNOA-H_AMS_1956-57_33k_ES_PAN_21mic_H50_0317_fot_30D-50548_W_tif
  70
32
  10
516726.523
  20
4643172.386
  30
1491.367
  0
VERTEX
  8
PNOA-H_AMS_1956-57_33k_ES_PAN_21mic_H50_0317_fot_30D-50548_W_tif
  70
32
  10
516775.000
  20
4647196.000
  30
1256.374
  0
VERTEX
  8
PNOA-H_AMS_1956-57_33k_ES_PAN_21mic_H50_0317_fot_30D-50548_W_tif
  70
32
  10
516775.550
  20
4647196.146
  30
1256.385
  0
VERTEX
  8
PNOA-H_AMS_1956-57_33k_ES_PAN_21mic_H50_0317_fot_30D-50548_W_tif
  70
32
  10
518002.000
  20
4647522.500
  30
1281.258
  0
VERTEX
  8
PNOA-H_AMS_1956-57_33k_ES_PAN_21mic_H50_0317_fot_30D-50548_W_tif
  70
32
  10
518002.234
  20
4647522.429
  30
1281.271
  0
VERTEX
  8
PNOA-H_AMS_1956-57_33k_ES_PAN_21mic_H50_0317_fot_30D-50548_W_tif
  70
32
  10
518002.501
  20
4647522.348
  30
1281.286
  0
VERTEX
  8
PNOA-H_AMS_1956-57_33k_ES_PAN_21mic_H50_0317_fot_30D-50548_W_tif
  70
32
  10
518518.532
  20
4647365.949
  30
1310.048
  0
SEQEND
  8
PNOA-H_AMS_1956-57_33k_ES_PAN_21mic_H50_0317_fot_30D-50548_W_tif
  0
INSERT
  8
FeatureAttribs
  2
FEATURE
  41
1
  42
1
  43
1
  50
0
  10
515605.183
  20
4645236.750
 66
1
  0
ATTRIB
  8
FeatureAttribs
 70
0
  1
PNOA-H_AMS_1956-57_33k_ES_PAN_21mic_H50_0317_fot_30D-50549_W.tif
  2
NAME
  10
515605.183
  20
4645236.750
 40
33.37608
  0
SEQEND
  0
POLYLINE
  8
PNOA-H_AMS_1956-57_33k_ES_PAN_21mic_H50_0317_fot_30D-50549_W_tif
  70
9
  66
1
  0
VERTEX
  8
PNOA-H_AMS_1956-57_33k_ES_PAN_21mic_H50_0317_fot_30D-50549_W_tif
  70
32
  10
515250.826
  20
4642900.560
  30
1460.657
  0
VERTEX
  8
PNOA-H_AMS_1956-57_33k_ES_PAN_21mic_H50_0317_fot_30D-50549_W_tif
  70
32
  10
515250.500
  20
4642900.500
  30
1460.65
  0
VERTEX
  8
PNOA-H_AMS_1956-57_33k_ES_PAN_21mic_H50_0317_fot_30D-50549_W_tif
  70
32
  10
514882.098
  20
4643026.860
  30
1484.751
  0
VERTEX
  8
PNOA-H_AMS_1956-57_33k_ES_PAN_21mic_H50_0317_fot_30D-50549_W_tif
  70
32
  10
514504.586
  20
4643156.345
  30
1509.448
  0
VERTEX
  8
PNOA-H_AMS_1956-57_33k_ES_PAN_21mic_H50_0317_fot_30D-50549_W_tif
  70
32
  10
514422.500
  20
4643184.500
  30
1514.818
  0
VERTEX
  8
PNOA-H_AMS_1956-57_33k_ES_PAN_21mic_H50_0317_fot_30D-50549_W_tif
  70
32
  10
514494.000
  20
4647233.000
  30
1685.641
  0
VERTEX
  8
PNOA-H_AMS_1956-57_33k_ES_PAN_21mic_H50_0317_fot_30D-50549_W_tif
  70
32
  10
514494.500
  20
4647245.500
  30
1683.517
  0
VERTEX
  8
PNOA-H_AMS_1956-57_33k_ES_PAN_21mic_H50_0317_fot_30D-50549_W_tif
  70
32
  10
514494.939
  20
4647245.646
  30
1683.467
  0
VERTEX
  8
PNOA-H_AMS_1956-57_33k_ES_PAN_21mic_H50_0317_fot_30D-50549_W_tif
  70
32
  10
514505.000
  20
4647249.000
  30
1682.327
  0
VERTEX
  8
PNOA-H_AMS_1956-57_33k_ES_PAN_21mic_H50_0317_fot_30D-50549_W_tif
  70
32
  10
514506.500
  20
4647249.500
  30
1682.134
  0
VERTEX
  8
PNOA-H_AMS_1956-57_33k_ES_PAN_21mic_H50_0317_fot_30D-50549_W_tif
  70
32
  10
515404.500
  20
4647551.000
  30
1544.527
  0
VERTEX
  8
PNOA-H_AMS_1956-57_33k_ES_PAN_21mic_H50_0317_fot_30D-50549_W_tif
  70
32
  10
515470.500
  20
4647573.000
  30
1531.561
  0
VERTEX
  8
PNOA-H_AMS_1956-57_33k_ES_PAN_21mic_H50_0317_fot_30D-50549_W_tif
  70
32
  10
515472.000
  20
4647573.000
  30
1531.416
  0
VERTEX
  8
PNOA-H_AMS_1956-57_33k_ES_PAN_21mic_H50_0317_fot_30D-50549_W_tif
  70
32
  10
515474.000
  20
4647573.000
  30
1531.221
  0
VERTEX
  8
PNOA-H_AMS_1956-57_33k_ES_PAN_21mic_H50_0317_fot_30D-50549_W_tif
  70
32
  10
516773.302
  20
4647196.492
  30
1256.733
  0
VERTEX
  8
PNOA-H_AMS_1956-57_33k_ES_PAN_21mic_H50_0317_fot_30D-50549_W_tif
  70
32
  10
516775.000
  20
4647196.000
  30
1256.374
  0
VERTEX
  8
PNOA-H_AMS_1956-57_33k_ES_PAN_21mic_H50_0317_fot_30D-50549_W_tif
  70
32
  10
516727.000
  20
4643173.500
  30
1491.584
  0
VERTEX
  8
PNOA-H_AMS_1956-57_33k_ES_PAN_21mic_H50_0317_fot_30D-50549_W_tif
  70
32
  10
516726.523
  20
4643172.386
  30
1491.558
  0
VERTEX
  8
PNOA-H_AMS_1956-57_33k_ES_PAN_21mic_H50_0317_fot_30D-50549_W_tif
  70
32
  10
516725.686
  20
4643170.435
  30
1491.511
  0
VERTEX
  8
PNOA-H_AMS_1956-57_33k_ES_PAN_21mic_H50_0317_fot_30D-50549_W_tif
  70
32
  10
516725.500
  20
4643170.000
  30
1491.5
  0
VERTEX
  8
PNOA-H_AMS_1956-57_33k_ES_PAN_21mic_H50_0317_fot_30D-50549_W_tif
  70
32
  10
515250.995
  20
4642900.590
  30
1460.66
  0
VERTEX
  8
PNOA-H_AMS_1956-57_33k_ES_PAN_21mic_H50_0317_fot_30D-50549_W_tif
  70
32
  10
515250.826
  20
4642900.560
  30
1460.657
  0
SEQEND
  8
PNOA-H_AMS_1956-57_33k_ES_PAN_21mic_H50_0317_fot_30D-50549_W_tif
  0
INSERT
  8
FeatureAttribs
  2
FEATURE
  41
1
  42
1
  43
1
  50
0
  10
514079.156
  20
4640842.750
 66
1
  0
ATTRIB
  8
FeatureAttribs
 70
0
  1
PNOA-H_AMS_1956-57_33k_ES_PAN_21mic_H50_0317_fot_31B-36876_E.tif
  2
NAME
  10
514079.156
  20
4640842.750
 40
33.37608
  0
SEQEND
  0
POLYLINE
  8
PNOA-H_AMS_1956-57_33k_ES_PAN_21mic_H50_0317_fot_31B-36876_E_tif
  70
9
  66
1
  0
VERTEX
  8
PNOA-H_AMS_1956-57_33k_ES_PAN_21mic_H50_0317_fot_31B-36876_E_tif
  70
32
  10
513298.000
  20
4638501.000
  30
1315.732
  0
VERTEX
  8
PNOA-H_AMS_1956-57_33k_ES_PAN_21mic_H50_0317_fot_31B-36876_E_tif
  70
32
  10
513297.000
  20
4638501.000
  30
1315.854
  0
VERTEX
  8
PNOA-H_AMS_1956-57_33k_ES_PAN_21mic_H50_0317_fot_31B-36876_E_tif
  70
32
  10
513289.500
  20
4638504.500
  30
1315.973
  0
VERTEX
  8
PNOA-H_AMS_1956-57_33k_ES_PAN_21mic_H50_0317_fot_31B-36876_E_tif
  70
32
  10
512932.000
  20
4638673.500
  30
1328.161
  0
VERTEX
  8
PNOA-H_AMS_1956-57_33k_ES_PAN_21mic_H50_0317_fot_31B-36876_E_tif
  70
32
  10
512924.533
  20
4638677.482
  30
1327.681
  0
VERTEX
  8
PNOA-H_AMS_1956-57_33k_ES_PAN_21mic_H50_0317_fot_31B-36876_E_tif
  70
32
  10
512924.500
  20
4638677.500
  30
1327.679
  0
VERTEX
  8
PNOA-H_AMS_1956-57_33k_ES_PAN_21mic_H50_0317_fot_31B-36876_E_tif
  70
32
  10
512924.500
  20
4638690.000
  30
1325.325
  0
VERTEX
  8
PNOA-H_AMS_1956-57_33k_ES_PAN_21mic_H50_0317_fot_31B-36876_E_tif
  70
32
  10
512943.000
  20
4642946.500
  30
1468.596
  0
VERTEX
  8
PNOA-H_AMS_1956-57_33k_ES_PAN_21mic_H50_0317_fot_31B-36876_E_tif
  70
32
  10
512943.951
  20
4642946.653
  30
1468.626
  0
VERTEX
  8
PNOA-H_AMS_1956-57_33k_ES_PAN_21mic_H50_0317_fot_31B-36876_E_tif
  70
32
  10
514420.500
  20
4643184.500
  30
1514.697
  0
VERTEX
  8
PNOA-H_AMS_1956-57_33k_ES_PAN_21mic_H50_0317_fot_31B-36876_E_tif
  70
32
  10
514422.500
  20
4643184.500
  30
1514.828
  0
VERTEX
  8
PNOA-H_AMS_1956-57_33k_ES_PAN_21mic_H50_0317_fot_31B-36876_E_tif
  70
32
  10
514423.500
  20
4643184.500
  30
1514.893
  0
VERTEX
  8
PNOA-H_AMS_1956-57_33k_ES_PAN_21mic_H50_0317_fot_31B-36876_E_tif
  70
32
  10
514437.000
  20
4643180.000
  30
1515.597
  0
VERTEX
  8
PNOA-H_AMS_1956-57_33k_ES_PAN_21mic_H50_0317_fot_31B-36876_E_tif
  70
32
  10
514504.586
  20
4643156.345
  30
1519.606
  0
VERTEX
  8
PNOA-H_AMS_1956-57_33k_ES_PAN_21mic_H50_0317_fot_31B-36876_E_tif
  70
32
  10
514507.000
  20
4643155.500
  30
1519.749
  0
VERTEX
  8
PNOA-H_AMS_1956-57_33k_ES_PAN_21mic_H50_0317_fot_31B-36876_E_tif
  70
32
  10
514508.000
  20
4643155.000
  30
1519.818
  0
VERTEX
  8
PNOA-H_AMS_1956-57_33k_ES_PAN_21mic_H50_0317_fot_31B-36876_E_tif
  70
32
  10
514882.098
  20
4643026.860
  30
1490.043
  0
VERTEX
  8
PNOA-H_AMS_1956-57_33k_ES_PAN_21mic_H50_0317_fot_31B-36876_E_tif
  70
32
  10
515250.826
  20
4642900.560
  30
1460.695
  0
VERTEX
  8
PNOA-H_AMS_1956-57_33k_ES_PAN_21mic_H50_0317_fot_31B-36876_E_tif
  70
32
  10
515250.994
  20
4642900.502
  30
1460.682
  0
VERTEX
  8
PNOA-H_AMS_1956-57_33k_ES_PAN_21mic_H50_0317_fot_31B-36876_E_tif
  70
32
  10
515251.000
  20
4642900.500
  30
1460.681
  0
VERTEX
  8
PNOA-H_AMS_1956-57_33k_ES_PAN_21mic_H50_0317_fot_31B-36876_E_tif
  70
32
  10
515197.500
  20
4638753.000
  30
1189.483
  0
VERTEX
  8
PNOA-H_AMS_1956-57_33k_ES_PAN_21mic_H50_0317_fot_31B-36876_E_tif
  70
32
  10
513301.000
  20
4638501.000
  30
1315.365
  0
VERTEX
  8
PNOA-H_AMS_1956-57_33k_ES_PAN_21mic_H50_0317_fot_31B-36876_E_tif
  70
32
  10
513298.000
  20
4638501.000
  30
1315.732
  0
SEQEND
  8
PNOA-H_AMS_1956-57_33k_ES_PAN_21mic_H50_0317_fot_31B-36876_E_tif
  0
INSERT
  8
FeatureAttribs
  2
FEATURE
  41
1
  42
1
  43
1
  50
0
  10
516372.368
  20
4640808.000
 66
1
  0
ATTRIB
  8
FeatureAttribs
 70
0
  1
PNOA-H_AMS_1956-57_33k_ES_PAN_21mic_H50_0317_fot_31B-36877_E.tif
  2
NAME
  10
516372.368
  20
4640808.000
 40
33.37608
  0
SEQEND
  0
POLYLINE
  8
PNOA-H_AMS_1956-57_33k_ES_PAN_21mic_H50_0317_fot_31B-36877_E_tif
  70
9
  66
1
  0
VERTEX
  8
PNOA-H_AMS_1956-57_33k_ES_PAN_21mic_H50_0317_fot_31B-36877_E_tif
  70
32
  10
515972.000
  20
4638445.500
  30
1175.975
  0
VERTEX
  8
PNOA-H_AMS_1956-57_33k_ES_PAN_21mic_H50_0317_fot_31B-36877_E_tif
  70
32
  10
515971.000
  20
4638445.500
  30
1176.069
  0
VERTEX
  8
PNOA-H_AMS_1956-57_33k_ES_PAN_21mic_H50_0317_fot_31B-36877_E_tif
  70
32
  10
515958.000
  20
4638450.500
  30
1178.597
  0
VERTEX
  8
PNOA-H_AMS_1956-57_33k_ES_PAN_21mic_H50_0317_fot_31B-36877_E_tif
  70
32
  10
515197.500
  20
4638753.000
  30
1189.483
  0
VERTEX
  8
PNOA-H_AMS_1956-57_33k_ES_PAN_21mic_H50_0317_fot_31B-36877_E_tif
  70
32
  10
515250.994
  20
4642900.502
  30
1460.696
  0
VERTEX
  8
PNOA-H_AMS_1956-57_33k_ES_PAN_21mic_H50_0317_fot_31B-36877_E_tif
  70
32
  10
515250.995
  20
4642900.590
  30
1460.702
  0
VERTEX
  8
PNOA-H_AMS_1956-57_33k_ES_PAN_21mic_H50_0317_fot_31B-36877_E_tif
  70
32
  10
515251.000
  20
4642901.000
  30
1460.729
  0
VERTEX
  8
PNOA-H_AMS_1956-57_33k_ES_PAN_21mic_H50_0317_fot_31B-36877_E_tif
  70
32
  10
516722.500
  20
4643170.000
  30
1491.633
  0
VERTEX
  8
PNOA-H_AMS_1956-57_33k_ES_PAN_21mic_H50_0317_fot_31B-36877_E_tif
  70
32
  10
516725.500
  20
4643170.500
  30
1491.516
  0
VERTEX
  8
PNOA-H_AMS_1956-57_33k_ES_PAN_21mic_H50_0317_fot_31B-36877_E_tif
  70
32
  10
516725.686
  20
4643170.435
  30
1491.458
  0
VERTEX
  8
PNOA-H_AMS_1956-57_33k_ES_PAN_21mic_H50_0317_fot_31B-36877_E_tif
  70
32
  10
517012.102
  20
4643070.594
  30
1401.362
  0
VERTEX
  8
PNOA-H_AMS_1956-57_33k_ES_PAN_21mic_H50_0317_fot_31B-36877_E_tif
  70
32
  10
517523.000
  20
4642892.500
  30
1240.651
  0
VERTEX
  8
PNOA-H_AMS_1956-57_33k_ES_PAN_21mic_H50_0317_fot_31B-36877_E_tif
  70
32
  10
517518.500
  20
4638759.000
  30
1435.714
  0
VERTEX
  8
PNOA-H_AMS_1956-57_33k_ES_PAN_21mic_H50_0317_fot_31B-36877_E_tif
  70
32
  10
517227.928
  20
4638700.020
  30
1386.813
  0
VERTEX
  8
PNOA-H_AMS_1956-57_33k_ES_PAN_21mic_H50_0317_fot_31B-36877_E_tif
  70
32
  10
515974.000
  20
4638445.500
  30
1175.787
  0
VERTEX
  8
PNOA-H_AMS_1956-57_33k_ES_PAN_21mic_H50_0317_fot_31B-36877_E_tif
  70
32
  10
515972.000
  20
4638445.500
  30
1175.975
  0
SEQEND
  8
PNOA-H_AMS_1956-57_33k_ES_PAN_21mic_H50_0317_fot_31B-36877_E_tif
  0
INSERT
  8
FeatureAttribs
  2
FEATURE
  41
1
  42
1
  43
1
  50
0
  10
518745.971
  20
4640792.750
 66
1
  0
ATTRIB
  8
FeatureAttribs
 70
0
  1
PNOA-H_AMS_1956-57_33k_ES_PAN_21mic_H50_0317_fot_31B-36878_E.tif
  2
NAME
  10
518745.971
  20
4640792.750
 40
33.37608
  0
SEQEND
  0
POLYLINE
  8
PNOA-H_AMS_1956-57_33k_ES_PAN_21mic_H50_0317_fot_31B-36878_E_tif
  70
9
  66
1
  0
VERTEX
  8
PNOA-H_AMS_1956-57_33k_ES_PAN_21mic_H50_0317_fot_31B-36878_E_tif
  70
32
  10
519979.990
  20
4638846.848
  30
1080.778
  0
VERTEX
  8
PNOA-H_AMS_1956-57_33k_ES_PAN_21mic_H50_0317_fot_31B-36878_E_tif
  70
32
  10
518571.500
  20
4638428.500
  30
1156.652
  0
VERTEX
  8
PNOA-H_AMS_1956-57_33k_ES_PAN_21mic_H50_0317_fot_31B-36878_E_tif
  70
32
  10
518571.010
  20
4638428.654
  30
1156.782
  0
VERTEX
  8
PNOA-H_AMS_1956-57_33k_ES_PAN_21mic_H50_0317_fot_31B-36878_E_tif
  70
32
  10
518045.000
  20
4638593.750
  30
1296.183
  0
VERTEX
  8
PNOA-H_AMS_1956-57_33k_ES_PAN_21mic_H50_0317_fot_31B-36878_E_tif
  70
32
  10
517518.892
  20
4638758.877
  30
1435.61
  0
VERTEX
  8
PNOA-H_AMS_1956-57_33k_ES_PAN_21mic_H50_0317_fot_31B-36878_E_tif
  70
32
  10
517518.500
  20
4638759.000
  30
1435.714
  0
VERTEX
  8
PNOA-H_AMS_1956-57_33k_ES_PAN_21mic_H50_0317_fot_31B-36878_E_tif
  70
32
  10
517523.000
  20
4642892.500
  30
1240.651
  0
VERTEX
  8
PNOA-H_AMS_1956-57_33k_ES_PAN_21mic_H50_0317_fot_31B-36878_E_tif
  70
32
  10
519129.000
  20
4643156.500
  30
1132.061
  0
VERTEX
  8
PNOA-H_AMS_1956-57_33k_ES_PAN_21mic_H50_0317_fot_31B-36878_E_tif
  70
32
  10
519132.000
  20
4643157.000
  30
1132.213
  0
VERTEX
  8
PNOA-H_AMS_1956-57_33k_ES_PAN_21mic_H50_0317_fot_31B-36878_E_tif
  70
32
  10
519133.292
  20
4643156.801
  30
1132.178
  0
VERTEX
  8
PNOA-H_AMS_1956-57_33k_ES_PAN_21mic_H50_0317_fot_31B-36878_E_tif
  70
32
  10
519136.128
  20
4643156.365
  30
1132.103
  0
VERTEX
  8
PNOA-H_AMS_1956-57_33k_ES_PAN_21mic_H50_0317_fot_31B-36878_E_tif
  70
32
  10
519138.500
  20
4643156.000
  30
1132.04
  0
VERTEX
  8
PNOA-H_AMS_1956-57_33k_ES_PAN_21mic_H50_0317_fot_31B-36878_E_tif
  70
32
  10
519623.725
  20
4642966.155
  30
1154.571
  0
VERTEX
  8
PNOA-H_AMS_1956-57_33k_ES_PAN_21mic_H50_0317_fot_31B-36878_E_tif
  70
32
  10
519961.500
  20
4642834.000
  30
1170.254
  0
VERTEX
  8
PNOA-H_AMS_1956-57_33k_ES_PAN_21mic_H50_0317_fot_31B-36878_E_tif
  70
32
  10
519980.500
  20
4638847.000
  30
1080.75
  0
VERTEX
  8
PNOA-H_AMS_1956-57_33k_ES_PAN_21mic_H50_0317_fot_31B-36878_E_tif
  70
32
  10
519979.990
  20
4638846.848
  30
1080.778
  0
SEQEND
  8
PNOA-H_AMS_1956-57_33k_ES_PAN_21mic_H50_0317_fot_31B-36878_E_tif
  0
INSERT
  8
FeatureAttribs
  2
FEATURE
  41
1
  42
1
  43
1
  50
0
  10
519950.386
  20
4636505.500
 66
1
  0
ATTRIB
  8
FeatureAttribs
 70
0
  1
PNOA-H_AMS_1956-57_33k_ES_PAN_21mic_H50_0317_fot_32B-39527_W.tif
  2
NAME
  10
519950.386
  20
4636505.500
 40
33.37608
  0
SEQEND
  0
POLYLINE
  8
PNOA-H_AMS_1956-57_33k_ES_PAN_21mic_H50_0317_fot_32B-39527_W_tif
  70
9
  66
1
  0
VERTEX
  8
PNOA-H_AMS_1956-57_33k_ES_PAN_21mic_H50_0317_fot_32B-39527_W_tif
  70
32
  10
521259.531
  20
4634392.926
  30
1084.601
  0
VERTEX
  8
PNOA-H_AMS_1956-57_33k_ES_PAN_21mic_H50_0317_fot_32B-39527_W_tif
  70
32
  10
518898.000
  20
4634164.000
  30
1092.349
  0
VERTEX
  8
PNOA-H_AMS_1956-57_33k_ES_PAN_21mic_H50_0317_fot_32B-39527_W_tif
  70
32
  10
518897.191
  20
4634164.116
  30
1092.323
  0
VERTEX
  8
PNOA-H_AMS_1956-57_33k_ES_PAN_21mic_H50_0317_fot_32B-39527_W_tif
  70
32
  10
518895.253
  20
4634164.392
  30
1092.26
  0
VERTEX
  8
PNOA-H_AMS_1956-57_33k_ES_PAN_21mic_H50_0317_fot_32B-39527_W_tif
  70
32
  10
518894.500
  20
4634164.500
  30
1092.236
  0
VERTEX
  8
PNOA-H_AMS_1956-57_33k_ES_PAN_21mic_H50_0317_fot_32B-39527_W_tif
  70
32
  10
518650.607
  20
4634292.444
  30
1083.897
  0
VERTEX
  8
PNOA-H_AMS_1956-57_33k_ES_PAN_21mic_H50_0317_fot_32B-39527_W_tif
  70
32
  10
518650.500
  20
4634292.500
  30
1083.893
  0
VERTEX
  8
PNOA-H_AMS_1956-57_33k_ES_PAN_21mic_H50_0317_fot_32B-39527_W_tif
  70
32
  10
518570.500
  20
4638410.500
  30
1156.615
  0
VERTEX
  8
PNOA-H_AMS_1956-57_33k_ES_PAN_21mic_H50_0317_fot_32B-39527_W_tif
  70
32
  10
518570.500
  20
4638428.500
  30
1156.846
  0
VERTEX
  8
PNOA-H_AMS_1956-57_33k_ES_PAN_21mic_H50_0317_fot_32B-39527_W_tif
  70
32
  10
518571.010
  20
4638428.654
  30
1156.701
  0
VERTEX
  8
PNOA-H_AMS_1956-57_33k_ES_PAN_21mic_H50_0317_fot_32B-39527_W_tif
  70
32
  10
518602.000
  20
4638438.000
  30
1147.892
  0
VERTEX
  8
PNOA-H_AMS_1956-57_33k_ES_PAN_21mic_H50_0317_fot_32B-39527_W_tif
  70
32
  10
518603.500
  20
4638438.500
  30
1147.385
  0
VERTEX
  8
PNOA-H_AMS_1956-57_33k_ES_PAN_21mic_H50_0317_fot_32B-39527_W_tif
  70
32
  10
519979.500
  20
4638847.000
  30
1080.751
  0
VERTEX
  8
PNOA-H_AMS_1956-57_33k_ES_PAN_21mic_H50_0317_fot_32B-39527_W_tif
  70
32
  10
519979.990
  20
4638846.848
  30
1080.762
  0
VERTEX
  8
PNOA-H_AMS_1956-57_33k_ES_PAN_21mic_H50_0317_fot_32B-39527_W_tif
  70
32
  10
520528.398
  20
4638677.067
  30
1093.38
  0
VERTEX
  8
PNOA-H_AMS_1956-57_33k_ES_PAN_21mic_H50_0317_fot_32B-39527_W_tif
  70
32
  10
521251.827
  20
4638453.102
  30
1110.024
  0
VERTEX
  8
PNOA-H_AMS_1956-57_33k_ES_PAN_21mic_H50_0317_fot_32B-39527_W_tif
  70
32
  10
521257.000
  20
4638451.500
  30
1110.143
  0
VERTEX
  8
PNOA-H_AMS_1956-57_33k_ES_PAN_21mic_H50_0317_fot_32B-39527_W_tif
  70
32
  10
521332.487
  20
4634400.675
  30
1084.366
  0
VERTEX
  8
PNOA-H_AMS_1956-57_33k_ES_PAN_21mic_H50_0317_fot_32B-39527_W_tif
  70
32
  10
521332.500
  20
4634400.000
  30
1084.361
  0
VERTEX
  8
PNOA-H_AMS_1956-57_33k_ES_PAN_21mic_H50_0317_fot_32B-39527_W_tif
  70
32
  10
521259.531
  20
4634392.926
  30
1084.601
  0
SEQEND
  8
PNOA-H_AMS_1956-57_33k_ES_PAN_21mic_H50_0317_fot_32B-39527_W_tif
  0
INSERT
  8
FeatureAttribs
  2
FEATURE
  41
1
  42
1
  43
1
  50
0
  10
514635.963
  20
4636457.000
 66
1
  0
ATTRIB
  8
FeatureAttribs
 70
0
  1
PNOA-H_AMS_1956-57_33k_ES_PAN_21mic_H50_0317_fot_32B-39529_W.tif
  2
NAME
  10
514635.963
  20
4636457.000
 40
33.37608
  0
SEQEND
  0
POLYLINE
  8
PNOA-H_AMS_1956-57_33k_ES_PAN_21mic_H50_0317_fot_32B-39529_W_tif
  70
9
  66
1
  0
VERTEX
  8
PNOA-H_AMS_1956-57_33k_ES_PAN_21mic_H50_0317_fot_32B-39529_W_tif
  70
32
  10
515904.895
  20
4634204.228
  30
1080.928
  0
VERTEX
  8
PNOA-H_AMS_1956-57_33k_ES_PAN_21mic_H50_0317_fot_32B-39529_W_tif
  70
32
  10
513323.000
  20
4634161.000
  30
1091.704
  0
VERTEX
  8
PNOA-H_AMS_1956-57_33k_ES_PAN_21mic_H50_0317_fot_32B-39529_W_tif
  70
32
  10
513298.000
  20
4638501.000
  30
1315.72
  0
VERTEX
  8
PNOA-H_AMS_1956-57_33k_ES_PAN_21mic_H50_0317_fot_32B-39529_W_tif
  70
32
  10
515190.000
  20
4638752.500
  30
1189.097
  0
VERTEX
  8
PNOA-H_AMS_1956-57_33k_ES_PAN_21mic_H50_0317_fot_32B-39529_W_tif
  70
32
  10
515193.500
  20
4638753.000
  30
1189.344
  0
VERTEX
  8
PNOA-H_AMS_1956-57_33k_ES_PAN_21mic_H50_0317_fot_32B-39529_W_tif
  70
32
  10
515197.500
  20
4638753.000
  30
1189.526
  0
VERTEX
  8
PNOA-H_AMS_1956-57_33k_ES_PAN_21mic_H50_0317_fot_32B-39529_W_tif
  70
32
  10
515199.000
  20
4638753.000
  30
1189.594
  0
VERTEX
  8
PNOA-H_AMS_1956-57_33k_ES_PAN_21mic_H50_0317_fot_32B-39529_W_tif
  70
32
  10
515972.000
  20
4638445.500
  30
1175.973
  0
VERTEX
  8
PNOA-H_AMS_1956-57_33k_ES_PAN_21mic_H50_0317_fot_32B-39529_W_tif
  70
32
  10
515951.000
  20
4634205.000
  30
1080.735
  0
VERTEX
  8
PNOA-H_AMS_1956-57_33k_ES_PAN_21mic_H50_0317_fot_32B-39529_W_tif
  70
32
  10
515904.895
  20
4634204.228
  30
1080.928
  0
SEQEND
  8
PNOA-H_AMS_1956-57_33k_ES_PAN_21mic_H50_0317_fot_32B-39529_W_tif
  0
INSERT
  8
FeatureAttribs
  2
FEATURE
  41
1
  42
1
  43
1
  50
0
  10
517285.537
  20
4636437.000
 66
1
  0
ATTRIB
  8
FeatureAttribs
 70
0
  1
PNOA-H_AMS_1956-57_33k_ES_PAN_21mic_H50_0317_fot_32B-39528_W.tif
  2
NAME
  10
517285.537
  20
4636437.000
 40
33.37608
  0
SEQEND
  0
POLYLINE
  8
PNOA-H_AMS_1956-57_33k_ES_PAN_21mic_H50_0317_fot_32B-39528_W_tif
  70
9
  66
1
  0
VERTEX
  8
PNOA-H_AMS_1956-57_33k_ES_PAN_21mic_H50_0317_fot_32B-39528_W_tif
  70
32
  10
516110.000
  20
4634115.000
  30
1080.717
  0
VERTEX
  8
PNOA-H_AMS_1956-57_33k_ES_PAN_21mic_H50_0317_fot_32B-39528_W_tif
  70
32
  10
516109.500
  20
4634115.000
  30
1080.717
  0
VERTEX
  8
PNOA-H_AMS_1956-57_33k_ES_PAN_21mic_H50_0317_fot_32B-39528_W_tif
  70
32
  10
516105.500
  20
4634117.000
  30
1080.717
  0
VERTEX
  8
PNOA-H_AMS_1956-57_33k_ES_PAN_21mic_H50_0317_fot_32B-39528_W_tif
  70
32
  10
515951.014
  20
4634204.992
  30
1080.735
  0
VERTEX
  8
PNOA-H_AMS_1956-57_33k_ES_PAN_21mic_H50_0317_fot_32B-39528_W_tif
  70
32
  10
515951.000
  20
4634205.000
  30
1080.735
  0
VERTEX
  8
PNOA-H_AMS_1956-57_33k_ES_PAN_21mic_H50_0317_fot_32B-39528_W_tif
  70
32
  10
515972.000
  20
4638445.500
  30
1175.973
  0
VERTEX
  8
PNOA-H_AMS_1956-57_33k_ES_PAN_21mic_H50_0317_fot_32B-39528_W_tif
  70
32
  10
516553.000
  20
4638563.500
  30
1277.18
  0
VERTEX
  8
PNOA-H_AMS_1956-57_33k_ES_PAN_21mic_H50_0317_fot_32B-39528_W_tif
  70
32
  10
516555.500
  20
4638564.000
  30
1277.752
  0
VERTEX
  8
PNOA-H_AMS_1956-57_33k_ES_PAN_21mic_H50_0317_fot_32B-39528_W_tif
  70
32
  10
517227.928
  20
4638700.020
  30
1387.973
  0
VERTEX
  8
PNOA-H_AMS_1956-57_33k_ES_PAN_21mic_H50_0317_fot_32B-39528_W_tif
  70
32
  10
517518.892
  20
4638758.877
  30
1435.666
  0
VERTEX
  8
PNOA-H_AMS_1956-57_33k_ES_PAN_21mic_H50_0317_fot_32B-39528_W_tif
  70
32
  10
517519.500
  20
4638759.000
  30
1435.766
  0
VERTEX
  8
PNOA-H_AMS_1956-57_33k_ES_PAN_21mic_H50_0317_fot_32B-39528_W_tif
  70
32
  10
518045.000
  20
4638593.750
  30
1296.306
  0
VERTEX
  8
PNOA-H_AMS_1956-57_33k_ES_PAN_21mic_H50_0317_fot_32B-39528_W_tif
  70
32
  10
518570.500
  20
4638428.500
  30
1156.846
  0
VERTEX
  8
PNOA-H_AMS_1956-57_33k_ES_PAN_21mic_H50_0317_fot_32B-39528_W_tif
  70
32
  10
518650.500
  20
4634292.500
  30
1083.893
  0
VERTEX
  8
PNOA-H_AMS_1956-57_33k_ES_PAN_21mic_H50_0317_fot_32B-39528_W_tif
  70
32
  10
518641.314
  20
4634291.857
  30
1083.882
  0
VERTEX
  8
PNOA-H_AMS_1956-57_33k_ES_PAN_21mic_H50_0317_fot_32B-39528_W_tif
  70
32
  10
516116.000
  20
4634115.000
  30
1080.716
  0
VERTEX
  8
PNOA-H_AMS_1956-57_33k_ES_PAN_21mic_H50_0317_fot_32B-39528_W_tif
  70
32
  10
516110.000
  20
4634115.000
  30
1080.717
  0
SEQEND
  8
PNOA-H_AMS_1956-57_33k_ES_PAN_21mic_H50_0317_fot_32B-39528_W_tif
  0
INSERT
  8
FeatureAttribs
  2
FEATURE
  41
1
  42
1
  43
1
  50
0
  10
514699.603
  20
4632744.628
 66
1
  0
ATTRIB
  8
FeatureAttribs
 70
0
  1
PNOA-H_AMS_1956-57_33k_ES_PAN_21mic_H50_0317_fot_33B-38726_E.tif
  2
NAME
  10
514699.603
  20
4632744.628
 40
33.37608
  0
SEQEND
  0
POLYLINE
  8
PNOA-H_AMS_1956-57_33k_ES_PAN_21mic_H50_0317_fot_33B-38726_E_tif
  70
9
  66
1
  0
VERTEX
  8
PNOA-H_AMS_1956-57_33k_ES_PAN_21mic_H50_0317_fot_33B-38726_E_tif
  70
32
  10
513291.542
  20
4631284.258
  30
0
  0
VERTEX
  8
PNOA-H_AMS_1956-57_33k_ES_PAN_21mic_H50_0317_fot_33B-38726_E_tif
  70
32
  10
513291.107
  20
4631284.257
  30
1128.487
  0
VERTEX
  8
PNOA-H_AMS_1956-57_33k_ES_PAN_21mic_H50_0317_fot_33B-38726_E_tif
  70
32
  10
513232.000
  20
4634089.000
  30
1096.815
  0
VERTEX
  8
PNOA-H_AMS_1956-57_33k_ES_PAN_21mic_H50_0317_fot_33B-38726_E_tif
  70
32
  10
513232.000
  20
4634105.000
  30
1095.319
  0
VERTEX
  8
PNOA-H_AMS_1956-57_33k_ES_PAN_21mic_H50_0317_fot_33B-38726_E_tif
  70
32
  10
513232.000
  20
4634105.500
  30
1095.272
  0
VERTEX
  8
PNOA-H_AMS_1956-57_33k_ES_PAN_21mic_H50_0317_fot_33B-38726_E_tif
  70
32
  10
513322.997
  20
4634160.998
  30
1091.704
  0
VERTEX
  8
PNOA-H_AMS_1956-57_33k_ES_PAN_21mic_H50_0317_fot_33B-38726_E_tif
  70
32
  10
513323.000
  20
4634161.000
  30
1091.704
  0
VERTEX
  8
PNOA-H_AMS_1956-57_33k_ES_PAN_21mic_H50_0317_fot_33B-38726_E_tif
  70
32
  10
514472.500
  20
4634180.500
  30
1080.84
  0
VERTEX
  8
PNOA-H_AMS_1956-57_33k_ES_PAN_21mic_H50_0317_fot_33B-38726_E_tif
  70
32
  10
514502.500
  20
4634181.000
  30
1080.734
  0
VERTEX
  8
PNOA-H_AMS_1956-57_33k_ES_PAN_21mic_H50_0317_fot_33B-38726_E_tif
  70
32
  10
515904.895
  20
4634204.228
  30
1080.735
  0
VERTEX
  8
PNOA-H_AMS_1956-57_33k_ES_PAN_21mic_H50_0317_fot_33B-38726_E_tif
  70
32
  10
515951.014
  20
4634204.992
  30
1080.735
  0
VERTEX
  8
PNOA-H_AMS_1956-57_33k_ES_PAN_21mic_H50_0317_fot_33B-38726_E_tif
  70
32
  10
515951.500
  20
4634205.000
  30
1080.735
  0
VERTEX
  8
PNOA-H_AMS_1956-57_33k_ES_PAN_21mic_H50_0317_fot_33B-38726_E_tif
  70
32
  10
516110.000
  20
4634115.000
  30
1080.717
  0
VERTEX
  8
PNOA-H_AMS_1956-57_33k_ES_PAN_21mic_H50_0317_fot_33B-38726_E_tif
  70
32
  10
516169.520
  20
4631290.133
  30
1138.699
  0
VERTEX
  8
PNOA-H_AMS_1956-57_33k_ES_PAN_21mic_H50_0317_fot_33B-38726_E_tif
  70
32
  10
516169.464
  20
4631290.133
  30
1138.649
  0
VERTEX
  8
PNOA-H_AMS_1956-57_33k_ES_PAN_21mic_H50_0317_fot_33B-38726_E_tif
  70
32
  10
515568.761
  20
4631288.676
  30
0
  0
VERTEX
  8
PNOA-H_AMS_1956-57_33k_ES_PAN_21mic_H50_0317_fot_33B-38726_E_tif
  70
32
  10
513291.542
  20
4631284.258
  30
0
  0
SEQEND
  8
PNOA-H_AMS_1956-57_33k_ES_PAN_21mic_H50_0317_fot_33B-38726_E_tif
  0
INSERT
  8
FeatureAttribs
  2
FEATURE
  41
1
  42
1
  43
1
  50
0
  10
520328.976
  20
4632848.504
 66
1
  0
ATTRIB
  8
FeatureAttribs
 70
0
  1
PNOA-H_AMS_1956-57_33k_ES_PAN_21mic_H50_0317_fot_33B-38728_E.tif
  2
NAME
  10
520328.976
  20
4632848.504
 40
33.37608
  0
SEQEND
  0
POLYLINE
  8
PNOA-H_AMS_1956-57_33k_ES_PAN_21mic_H50_0317_fot_33B-38728_E_tif
  70
9
  66
1
  0
VERTEX
  8
PNOA-H_AMS_1956-57_33k_ES_PAN_21mic_H50_0317_fot_33B-38728_E_tif
  70
32
  10
519028.488
  20
4631297.066
  30
0
  0
VERTEX
  8
PNOA-H_AMS_1956-57_33k_ES_PAN_21mic_H50_0317_fot_33B-38728_E_tif
  70
32
  10
519004.504
  20
4631297.008
  30
1094.331
  0
VERTEX
  8
PNOA-H_AMS_1956-57_33k_ES_PAN_21mic_H50_0317_fot_33B-38728_E_tif
  70
32
  10
518896.000
  20
4634164.000
  30
1092.316
  0
VERTEX
  8
PNOA-H_AMS_1956-57_33k_ES_PAN_21mic_H50_0317_fot_33B-38728_E_tif
  70
32
  10
518897.191
  20
4634164.116
  30
1092.31
  0
VERTEX
  8
PNOA-H_AMS_1956-57_33k_ES_PAN_21mic_H50_0317_fot_33B-38728_E_tif
  70
32
  10
520642.500
  20
4634333.500
  30
1083.269
  0
VERTEX
  8
PNOA-H_AMS_1956-57_33k_ES_PAN_21mic_H50_0317_fot_33B-38728_E_tif
  70
32
  10
520647.500
  20
4634334.000
  30
1083.474
  0
VERTEX
  8
PNOA-H_AMS_1956-57_33k_ES_PAN_21mic_H50_0317_fot_33B-38728_E_tif
  70
32
  10
521259.531
  20
4634392.926
  30
1084.281
  0
VERTEX
  8
PNOA-H_AMS_1956-57_33k_ES_PAN_21mic_H50_0317_fot_33B-38728_E_tif
  70
32
  10
521333.000
  20
4634400.000
  30
1084.377
  0
VERTEX
  8
PNOA-H_AMS_1956-57_33k_ES_PAN_21mic_H50_0317_fot_33B-38728_E_tif
  70
32
  10
521335.198
  20
4634398.868
  30
1084.353
  0
VERTEX
  8
PNOA-H_AMS_1956-57_33k_ES_PAN_21mic_H50_0317_fot_33B-38728_E_tif
  70
32
  10
521665.915
  20
4634228.544
  30
1080.719
  0
VERTEX
  8
PNOA-H_AMS_1956-57_33k_ES_PAN_21mic_H50_0317_fot_33B-38728_E_tif
  70
32
  10
521666.000
  20
4634228.500
  30
1080.718
  0
VERTEX
  8
PNOA-H_AMS_1956-57_33k_ES_PAN_21mic_H50_0317_fot_33B-38728_E_tif
  70
32
  10
521763.801
  20
4631305.026
  30
1093.011
  0
VERTEX
  8
PNOA-H_AMS_1956-57_33k_ES_PAN_21mic_H50_0317_fot_33B-38728_E_tif
  70
32
  10
519028.488
  20
4631297.066
  30
0
  0
SEQEND
  8
PNOA-H_AMS_1956-57_33k_ES_PAN_21mic_H50_0317_fot_33B-38728_E_tif
  0
INSERT
  8
FeatureAttribs
  2
FEATURE
  41
1
  42
1
  43
1
  50
0
  10
517542.907
  20
4632791.316
 66
1
  0
ATTRIB
  8
FeatureAttribs
 70
0
  1
PNOA-H_AMS_1956-57_33k_ES_PAN_21mic_H50_0317_fot_33B-38727_E.tif
  2
NAME
  10
517542.907
  20
4632791.316
 40
33.37608
  0
SEQEND
  0
POLYLINE
  8
PNOA-H_AMS_1956-57_33k_ES_PAN_21mic_H50_0317_fot_33B-38727_E_tif
  70
9
  66
1
  0
VERTEX
  8
PNOA-H_AMS_1956-57_33k_ES_PAN_21mic_H50_0317_fot_33B-38727_E_tif
  70
32
  10
516169.520
  20
4631290.133
  30
0
  0
VERTEX
  8
PNOA-H_AMS_1956-57_33k_ES_PAN_21mic_H50_0317_fot_33B-38727_E_tif
  70
32
  10
516169.464
  20
4631290.133
  30
1138.354
  0
VERTEX
  8
PNOA-H_AMS_1956-57_33k_ES_PAN_21mic_H50_0317_fot_33B-38727_E_tif
  70
32
  10
516110.000
  20
4634115.000
  30
1080.717
  0
VERTEX
  8
PNOA-H_AMS_1956-57_33k_ES_PAN_21mic_H50_0317_fot_33B-38727_E_tif
  70
32
  10
518602.000
  20
4634289.500
  30
1085.229
  0
VERTEX
  8
PNOA-H_AMS_1956-57_33k_ES_PAN_21mic_H50_0317_fot_33B-38727_E_tif
  70
32
  10
518604.000
  20
4634289.500
  30
1085.106
  0
VERTEX
  8
PNOA-H_AMS_1956-57_33k_ES_PAN_21mic_H50_0317_fot_33B-38727_E_tif
  70
32
  10
518641.314
  20
4634291.857
  30
1084.147
  0
VERTEX
  8
PNOA-H_AMS_1956-57_33k_ES_PAN_21mic_H50_0317_fot_33B-38727_E_tif
  70
32
  10
518650.607
  20
4634292.444
  30
1083.908
  0
VERTEX
  8
PNOA-H_AMS_1956-57_33k_ES_PAN_21mic_H50_0317_fot_33B-38727_E_tif
  70
32
  10
518651.500
  20
4634292.500
  30
1083.885
  0
VERTEX
  8
PNOA-H_AMS_1956-57_33k_ES_PAN_21mic_H50_0317_fot_33B-38727_E_tif
  70
32
  10
518895.253
  20
4634164.392
  30
1092.29
  0
VERTEX
  8
PNOA-H_AMS_1956-57_33k_ES_PAN_21mic_H50_0317_fot_33B-38727_E_tif
  70
32
  10
518896.000
  20
4634164.000
  30
1092.316
  0
VERTEX
  8
PNOA-H_AMS_1956-57_33k_ES_PAN_21mic_H50_0317_fot_33B-38727_E_tif
  70
32
  10
519004.504
  20
4631297.008
  30
1094.331
  0
VERTEX
  8
PNOA-H_AMS_1956-57_33k_ES_PAN_21mic_H50_0317_fot_33B-38727_E_tif
  70
32
  10
516169.520
  20
4631290.133
  30
0
  0
SEQEND
  8
PNOA-H_AMS_1956-57_33k_ES_PAN_21mic_H50_0317_fot_33B-38727_E_tif
  0
INSERT
  8
FeatureAttribs
  2
FEATURE
  41
1
  42
1
  43
1
  50
0
  10
521376.434
  20
4648506.428
 66
1
  0
ATTRIB
  8
FeatureAttribs
 70
0
  1
PNOA-H_AMS_1956-57_33k_ES_PAN_21mic_H50_0279_fot_29C-50609_E.tif
  2
NAME
  10
521376.434
  20
4648506.428
 40
33.37608
  0
SEQEND
  0
POLYLINE
  8
PNOA-H_AMS_1956-57_33k_ES_PAN_21mic_H50_0279_fot_29C-50609_E_tif
  70
9
  66
1
  0
VERTEX
  8
PNOA-H_AMS_1956-57_33k_ES_PAN_21mic_H50_0279_fot_29C-50609_E_tif
  70
32
  10
522520.500
  20
4647552.000
  30
1572.839
  0
VERTEX
  8
PNOA-H_AMS_1956-57_33k_ES_PAN_21mic_H50_0279_fot_29C-50609_E_tif
  70
32
  10
521628.500
  20
4647201.000
  30
1840.141
  0
VERTEX
  8
PNOA-H_AMS_1956-57_33k_ES_PAN_21mic_H50_0279_fot_29C-50609_E_tif
  70
32
  10
521627.506
  20
4647201.199
  30
1840.034
  0
VERTEX
  8
PNOA-H_AMS_1956-57_33k_ES_PAN_21mic_H50_0279_fot_29C-50609_E_tif
  70
32
  10
520943.152
  20
4647338.120
  30
1765.91
  0
VERTEX
  8
PNOA-H_AMS_1956-57_33k_ES_PAN_21mic_H50_0279_fot_29C-50609_E_tif
  70
32
  10
520651.361
  20
4647396.500
  30
1734.306
  0
VERTEX
  8
PNOA-H_AMS_1956-57_33k_ES_PAN_21mic_H50_0279_fot_29C-50609_E_tif
  70
32
  10
520555.301
  20
4647415.719
  30
1723.901
  0
VERTEX
  8
PNOA-H_AMS_1956-57_33k_ES_PAN_21mic_H50_0279_fot_29C-50609_E_tif
  70
32
  10
520276.500
  20
4647471.500
  30
1693.703
  0
VERTEX
  8
PNOA-H_AMS_1956-57_33k_ES_PAN_21mic_H50_0279_fot_29C-50609_E_tif
  70
32
  10
520219.116
  20
4649805.242
  30
1827.818
  0
VERTEX
  8
PNOA-H_AMS_1956-57_33k_ES_PAN_21mic_H50_0279_fot_29C-50609_E_tif
  70
32
  10
522429.781
  20
4649811.697
  30
0
  0
VERTEX
  8
PNOA-H_AMS_1956-57_33k_ES_PAN_21mic_H50_0279_fot_29C-50609_E_tif
  70
32
  10
522476.260
  20
4649811.855
  30
1717.743
  0
VERTEX
  8
PNOA-H_AMS_1956-57_33k_ES_PAN_21mic_H50_0279_fot_29C-50609_E_tif
  70
32
  10
522520.490
  20
4647552.496
  30
1572.871
  0
VERTEX
  8
PNOA-H_AMS_1956-57_33k_ES_PAN_21mic_H50_0279_fot_29C-50609_E_tif
  70
32
  10
522520.500
  20
4647552.000
  30
1572.839
  0
SEQEND
  8
PNOA-H_AMS_1956-57_33k_ES_PAN_21mic_H50_0279_fot_29C-50609_E_tif
  0
INSERT
  8
FeatureAttribs
  2
FEATURE
  41
1
  42
1
  43
1
  50
0
  10
525434.485
  20
4648593.496
 66
1
  0
ATTRIB
  8
FeatureAttribs
 70
0
  1
PNOA-H_AMS_1956-57_33k_ES_PAN_21mic_H50_0279_fot_29C-50611_E.tif
  2
NAME
  10
525434.485
  20
4648593.496
 40
33.37608
  0
SEQEND
  0
POLYLINE
  8
PNOA-H_AMS_1956-57_33k_ES_PAN_21mic_H50_0279_fot_29C-50611_E_tif
  70
9
  66
1
  0
VERTEX
  8
PNOA-H_AMS_1956-57_33k_ES_PAN_21mic_H50_0279_fot_29C-50611_E_tif
  70
32
  10
524869.500
  20
4647560.000
  30
1660.089
  0
VERTEX
  8
PNOA-H_AMS_1956-57_33k_ES_PAN_21mic_H50_0279_fot_29C-50611_E_tif
  70
32
  10
524868.343
  20
4649820.003
  30
1814.661
  0
VERTEX
  8
PNOA-H_AMS_1956-57_33k_ES_PAN_21mic_H50_0279_fot_29C-50611_E_tif
  70
32
  10
525880.520
  20
4649823.451
  30
0
  0
VERTEX
  8
PNOA-H_AMS_1956-57_33k_ES_PAN_21mic_H50_0279_fot_29C-50611_E_tif
  70
32
  10
526000.000
  20
4649823.916
  30
1764.473
  0
VERTEX
  8
PNOA-H_AMS_1956-57_33k_ES_PAN_21mic_H50_0279_fot_29C-50611_E_tif
  70
32
  10
526000.000
  20
4647363.077
  30
1568.107
  0
VERTEX
  8
PNOA-H_AMS_1956-57_33k_ES_PAN_21mic_H50_0279_fot_29C-50611_E_tif
  70
32
  10
524869.500
  20
4647560.000
  30
1660.089
  0
SEQEND
  8
PNOA-H_AMS_1956-57_33k_ES_PAN_21mic_H50_0279_fot_29C-50611_E_tif
  0
INSERT
  8
FeatureAttribs
  2
FEATURE
  41
1
  42
1
  43
1
  50
0
  10
523685.033
  20
4648544.752
 66
1
  0
ATTRIB
  8
FeatureAttribs
 70
0
  1
PNOA-H_AMS_1956-57_33k_ES_PAN_21mic_H50_0279_fot_29C-50610_E.tif
  2
NAME
  10
523685.033
  20
4648544.752
 40
33.37608
  0
SEQEND
  0
POLYLINE
  8
PNOA-H_AMS_1956-57_33k_ES_PAN_21mic_H50_0279_fot_29C-50610_E_tif
  70
9
  66
1
  0
VERTEX
  8
PNOA-H_AMS_1956-57_33k_ES_PAN_21mic_H50_0279_fot_29C-50610_E_tif
  70
32
  10
524869.173
  20
4647559.883
  30
1659.998
  0
VERTEX
  8
PNOA-H_AMS_1956-57_33k_ES_PAN_21mic_H50_0279_fot_29C-50610_E_tif
  70
32
  10
524060.000
  20
4647269.500
  30
1434.758
  0
VERTEX
  8
PNOA-H_AMS_1956-57_33k_ES_PAN_21mic_H50_0279_fot_29C-50610_E_tif
  70
32
  10
524059.339
  20
4647269.622
  30
1434.818
  0
VERTEX
  8
PNOA-H_AMS_1956-57_33k_ES_PAN_21mic_H50_0279_fot_29C-50610_E_tif
  70
32
  10
522520.500
  20
4647552.500
  30
1572.696
  0
VERTEX
  8
PNOA-H_AMS_1956-57_33k_ES_PAN_21mic_H50_0279_fot_29C-50610_E_tif
  70
32
  10
522476.260
  20
4649811.855
  30
1717.706
  0
VERTEX
  8
PNOA-H_AMS_1956-57_33k_ES_PAN_21mic_H50_0279_fot_29C-50610_E_tif
  70
32
  10
524868.343
  20
4649820.003
  30
1814.661
  0
VERTEX
  8
PNOA-H_AMS_1956-57_33k_ES_PAN_21mic_H50_0279_fot_29C-50610_E_tif
  70
32
  10
524869.500
  20
4647560.000
  30
1660.089
  0
VERTEX
  8
PNOA-H_AMS_1956-57_33k_ES_PAN_21mic_H50_0279_fot_29C-50610_E_tif
  70
32
  10
524869.173
  20
4647559.883
  30
1659.998
  0
SEQEND
  8
PNOA-H_AMS_1956-57_33k_ES_PAN_21mic_H50_0279_fot_29C-50610_E_tif
  0
INSERT
  8
FeatureAttribs
  2
FEATURE
  41
1
  42
1
  43
1
  50
0
  10
525244.781
  20
4645218.250
 66
1
  0
ATTRIB
  8
FeatureAttribs
 70
0
  1
PNOA-H_AMS_1956-57_33k_ES_PAN_21mic_H50_0317_fot_30D-50545_W.tif
  2
NAME
  10
525244.781
  20
4645218.250
 40
33.37608
  0
SEQEND
  0
POLYLINE
  8
PNOA-H_AMS_1956-57_33k_ES_PAN_21mic_H50_0317_fot_30D-50545_W_tif
  70
9
  66
1
  0
VERTEX
  8
PNOA-H_AMS_1956-57_33k_ES_PAN_21mic_H50_0317_fot_30D-50545_W_tif
  70
32
  10
526000.000
  20
4647362.902
  30
1567.855
  0
VERTEX
  8
PNOA-H_AMS_1956-57_33k_ES_PAN_21mic_H50_0317_fot_30D-50545_W_tif
  70
32
  10
526000.000
  20
4645330.000
  30
1467.832
  0
VERTEX
  8
PNOA-H_AMS_1956-57_33k_ES_PAN_21mic_H50_0317_fot_30D-50545_W_tif
  70
32
  10
526391.765
  20
4645330.000
  30
1407.102
  0
VERTEX
  8
PNOA-H_AMS_1956-57_33k_ES_PAN_21mic_H50_0317_fot_30D-50545_W_tif
  70
32
  10
526433.500
  20
4643234.500
  30
1266.71
  0
VERTEX
  8
PNOA-H_AMS_1956-57_33k_ES_PAN_21mic_H50_0317_fot_30D-50545_W_tif
  70
32
  10
526433.004
  20
4643234.351
  30
1266.706
  0
VERTEX
  8
PNOA-H_AMS_1956-57_33k_ES_PAN_21mic_H50_0317_fot_30D-50545_W_tif
  70
32
  10
525240.500
  20
4642876.500
  30
1256.553
  0
VERTEX
  8
PNOA-H_AMS_1956-57_33k_ES_PAN_21mic_H50_0317_fot_30D-50545_W_tif
  70
32
  10
525240.248
  20
4642876.574
  30
1256.599
  0
VERTEX
  8
PNOA-H_AMS_1956-57_33k_ES_PAN_21mic_H50_0317_fot_30D-50545_W_tif
  70
32
  10
525240.005
  20
4642876.646
  30
1256.643
  0
VERTEX
  8
PNOA-H_AMS_1956-57_33k_ES_PAN_21mic_H50_0317_fot_30D-50545_W_tif
  70
32
  10
524133.142
  20
4643202.517
  30
1457.502
  0
VERTEX
  8
PNOA-H_AMS_1956-57_33k_ES_PAN_21mic_H50_0317_fot_30D-50545_W_tif
  70
32
  10
524131.500
  20
4643203.000
  30
1457.8
  0
VERTEX
  8
PNOA-H_AMS_1956-57_33k_ES_PAN_21mic_H50_0317_fot_30D-50545_W_tif
  70
32
  10
524059.000
  20
4647269.500
  30
1435.176
  0
VERTEX
  8
PNOA-H_AMS_1956-57_33k_ES_PAN_21mic_H50_0317_fot_30D-50545_W_tif
  70
32
  10
524059.339
  20
4647269.622
  30
1435.27
  0
VERTEX
  8
PNOA-H_AMS_1956-57_33k_ES_PAN_21mic_H50_0317_fot_30D-50545_W_tif
  70
32
  10
524867.000
  20
4647559.500
  30
1659.516
  0
VERTEX
  8
PNOA-H_AMS_1956-57_33k_ES_PAN_21mic_H50_0317_fot_30D-50545_W_tif
  70
32
  10
524868.500
  20
4647560.000
  30
1659.879
  0
VERTEX
  8
PNOA-H_AMS_1956-57_33k_ES_PAN_21mic_H50_0317_fot_30D-50545_W_tif
  70
32
  10
524869.173
  20
4647559.883
  30
1659.824
  0
VERTEX
  8
PNOA-H_AMS_1956-57_33k_ES_PAN_21mic_H50_0317_fot_30D-50545_W_tif
  70
32
  10
526000.000
  20
4647362.902
  30
1567.855
  0
SEQEND
  8
PNOA-H_AMS_1956-57_33k_ES_PAN_21mic_H50_0317_fot_30D-50545_W_tif
  0
INSERT
  8
FeatureAttribs
  2
FEATURE
  41
1
  42
1
  43
1
  50
0
  10
522872.946
  20
4645198.500
 66
1
  0
ATTRIB
  8
FeatureAttribs
 70
0
  1
PNOA-H_AMS_1956-57_33k_ES_PAN_21mic_H50_0317_fot_30D-50546_W.tif
  2
NAME
  10
522872.946
  20
4645198.500
 40
33.37608
  0
SEQEND
  0
POLYLINE
  8
PNOA-H_AMS_1956-57_33k_ES_PAN_21mic_H50_0317_fot_30D-50546_W_tif
  70
9
  66
1
  0
VERTEX
  8
PNOA-H_AMS_1956-57_33k_ES_PAN_21mic_H50_0317_fot_30D-50546_W_tif
  70
32
  10
522605.622
  20
4642844.640
  30
1558.372
  0
VERTEX
  8
PNOA-H_AMS_1956-57_33k_ES_PAN_21mic_H50_0317_fot_30D-50546_W_tif
  70
32
  10
522604.500
  20
4642844.500
  30
1558.209
  0
VERTEX
  8
PNOA-H_AMS_1956-57_33k_ES_PAN_21mic_H50_0317_fot_30D-50546_W_tif
  70
32
  10
521673.000
  20
4643190.500
  30
1448.014
  0
VERTEX
  8
PNOA-H_AMS_1956-57_33k_ES_PAN_21mic_H50_0317_fot_30D-50546_W_tif
  70
32
  10
521627.000
  20
4647201.000
  30
1840.296
  0
VERTEX
  8
PNOA-H_AMS_1956-57_33k_ES_PAN_21mic_H50_0317_fot_30D-50546_W_tif
  70
32
  10
521627.506
  20
4647201.199
  30
1840.144
  0
VERTEX
  8
PNOA-H_AMS_1956-57_33k_ES_PAN_21mic_H50_0317_fot_30D-50546_W_tif
  70
32
  10
522520.490
  20
4647552.496
  30
1572.698
  0
VERTEX
  8
PNOA-H_AMS_1956-57_33k_ES_PAN_21mic_H50_0317_fot_30D-50546_W_tif
  70
32
  10
522520.500
  20
4647552.500
  30
1572.696
  0
VERTEX
  8
PNOA-H_AMS_1956-57_33k_ES_PAN_21mic_H50_0317_fot_30D-50546_W_tif
  70
32
  10
522697.500
  20
4647519.500
  30
1520.871
  0
VERTEX
  8
PNOA-H_AMS_1956-57_33k_ES_PAN_21mic_H50_0317_fot_30D-50546_W_tif
  70
32
  10
522700.000
  20
4647519.000
  30
1520.367
  0
VERTEX
  8
PNOA-H_AMS_1956-57_33k_ES_PAN_21mic_H50_0317_fot_30D-50546_W_tif
  70
32
  10
524059.000
  20
4647269.500
  30
1435.176
  0
VERTEX
  8
PNOA-H_AMS_1956-57_33k_ES_PAN_21mic_H50_0317_fot_30D-50546_W_tif
  70
32
  10
524131.500
  20
4643203.000
  30
1457.8
  0
VERTEX
  8
PNOA-H_AMS_1956-57_33k_ES_PAN_21mic_H50_0317_fot_30D-50546_W_tif
  70
32
  10
524130.907
  20
4643202.860
  30
1457.84
  0
VERTEX
  8
PNOA-H_AMS_1956-57_33k_ES_PAN_21mic_H50_0317_fot_30D-50546_W_tif
  70
32
  10
522612.500
  20
4642845.500
  30
1559.372
  0
VERTEX
  8
PNOA-H_AMS_1956-57_33k_ES_PAN_21mic_H50_0317_fot_30D-50546_W_tif
  70
32
  10
522607.705
  20
4642844.901
  30
1558.675
  0
VERTEX
  8
PNOA-H_AMS_1956-57_33k_ES_PAN_21mic_H50_0317_fot_30D-50546_W_tif
  70
32
  10
522605.622
  20
4642844.640
  30
1558.372
  0
SEQEND
  8
PNOA-H_AMS_1956-57_33k_ES_PAN_21mic_H50_0317_fot_30D-50546_W_tif
  0
INSERT
  8
FeatureAttribs
  2
FEATURE
  41
1
  42
1
  43
1
  50
0
  10
520400.454
  20
4645152.750
 66
1
  0
ATTRIB
  8
FeatureAttribs
 70
0
  1
PNOA-H_AMS_1956-57_33k_ES_PAN_21mic_H50_0317_fot_30D-50547_W.tif
  2
NAME
  10
520400.454
  20
4645152.750
 40
33.37608
  0
SEQEND
  0
POLYLINE
  8
PNOA-H_AMS_1956-57_33k_ES_PAN_21mic_H50_0317_fot_30D-50547_W_tif
  70
9
  66
1
  0
VERTEX
  8
PNOA-H_AMS_1956-57_33k_ES_PAN_21mic_H50_0317_fot_30D-50547_W_tif
  70
32
  10
520650.500
  20
4647396.500
  30
1716.372
  0
VERTEX
  8
PNOA-H_AMS_1956-57_33k_ES_PAN_21mic_H50_0317_fot_30D-50547_W_tif
  70
32
  10
520651.361
  20
4647396.500
  30
1716.56
  0
VERTEX
  8
PNOA-H_AMS_1956-57_33k_ES_PAN_21mic_H50_0317_fot_30D-50547_W_tif
  70
32
  10
520652.000
  20
4647396.500
  30
1716.699
  0
VERTEX
  8
PNOA-H_AMS_1956-57_33k_ES_PAN_21mic_H50_0317_fot_30D-50547_W_tif
  70
32
  10
520943.152
  20
4647338.120
  30
1753.607
  0
VERTEX
  8
PNOA-H_AMS_1956-57_33k_ES_PAN_21mic_H50_0317_fot_30D-50547_W_tif
  70
32
  10
521627.000
  20
4647201.000
  30
1840.296
  0
VERTEX
  8
PNOA-H_AMS_1956-57_33k_ES_PAN_21mic_H50_0317_fot_30D-50547_W_tif
  70
32
  10
521673.000
  20
4643190.500
  30
1448.014
  0
VERTEX
  8
PNOA-H_AMS_1956-57_33k_ES_PAN_21mic_H50_0317_fot_30D-50547_W_tif
  70
32
  10
519962.500
  20
4642834.000
  30
1170.283
  0
VERTEX
  8
PNOA-H_AMS_1956-57_33k_ES_PAN_21mic_H50_0317_fot_30D-50547_W_tif
  70
32
  10
519962.152
  20
4642834.136
  30
1170.267
  0
VERTEX
  8
PNOA-H_AMS_1956-57_33k_ES_PAN_21mic_H50_0317_fot_30D-50547_W_tif
  70
32
  10
519623.725
  20
4642966.155
  30
1154.696
  0
VERTEX
  8
PNOA-H_AMS_1956-57_33k_ES_PAN_21mic_H50_0317_fot_30D-50547_W_tif
  70
32
  10
519136.128
  20
4643156.365
  30
1132.261
  0
VERTEX
  8
PNOA-H_AMS_1956-57_33k_ES_PAN_21mic_H50_0317_fot_30D-50547_W_tif
  70
32
  10
519134.500
  20
4643157.000
  30
1132.186
  0
VERTEX
  8
PNOA-H_AMS_1956-57_33k_ES_PAN_21mic_H50_0317_fot_30D-50547_W_tif
  70
32
  10
519166.500
  20
4647170.000
  30
1374.117
  0
VERTEX
  8
PNOA-H_AMS_1956-57_33k_ES_PAN_21mic_H50_0317_fot_30D-50547_W_tif
  70
32
  10
520274.500
  20
4647471.500
  30
1693.368
  0
VERTEX
  8
PNOA-H_AMS_1956-57_33k_ES_PAN_21mic_H50_0317_fot_30D-50547_W_tif
  70
32
  10
520276.500
  20
4647471.500
  30
1693.713
  0
VERTEX
  8
PNOA-H_AMS_1956-57_33k_ES_PAN_21mic_H50_0317_fot_30D-50547_W_tif
  70
32
  10
520279.000
  20
4647471.500
  30
1694.143
  0
VERTEX
  8
PNOA-H_AMS_1956-57_33k_ES_PAN_21mic_H50_0317_fot_30D-50547_W_tif
  70
32
  10
520555.301
  20
4647415.719
  30
1710.676
  0
VERTEX
  8
PNOA-H_AMS_1956-57_33k_ES_PAN_21mic_H50_0317_fot_30D-50547_W_tif
  70
32
  10
520650.500
  20
4647396.500
  30
1716.372
  0
SEQEND
  8
PNOA-H_AMS_1956-57_33k_ES_PAN_21mic_H50_0317_fot_30D-50547_W_tif
  0
INSERT
  8
FeatureAttribs
  2
FEATURE
  41
1
  42
1
  43
1
  50
0
  10
521297.114
  20
4640821.000
 66
1
  0
ATTRIB
  8
FeatureAttribs
 70
0
  1
PNOA-H_AMS_1956-57_33k_ES_PAN_21mic_H50_0317_fot_31B-36879_E.tif
  2
NAME
  10
521297.114
  20
4640821.000
 40
33.37608
  0
SEQEND
  0
POLYLINE
  8
PNOA-H_AMS_1956-57_33k_ES_PAN_21mic_H50_0317_fot_31B-36879_E_tif
  70
9
  66
1
  0
VERTEX
  8
PNOA-H_AMS_1956-57_33k_ES_PAN_21mic_H50_0317_fot_31B-36879_E_tif
  70
32
  10
522638.770
  20
4638888.269
  30
1246.714
  0
VERTEX
  8
PNOA-H_AMS_1956-57_33k_ES_PAN_21mic_H50_0317_fot_31B-36879_E_tif
  70
32
  10
521258.500
  20
4638451.500
  30
1110.014
  0
VERTEX
  8
PNOA-H_AMS_1956-57_33k_ES_PAN_21mic_H50_0317_fot_31B-36879_E_tif
  70
32
  10
521257.647
  20
4638451.705
  30
1110.088
  0
VERTEX
  8
PNOA-H_AMS_1956-57_33k_ES_PAN_21mic_H50_0317_fot_31B-36879_E_tif
  70
32
  10
521251.827
  20
4638453.102
  30
1110.59
  0
VERTEX
  8
PNOA-H_AMS_1956-57_33k_ES_PAN_21mic_H50_0317_fot_31B-36879_E_tif
  70
32
  10
521246.000
  20
4638454.500
  30
1111.093
  0
VERTEX
  8
PNOA-H_AMS_1956-57_33k_ES_PAN_21mic_H50_0317_fot_31B-36879_E_tif
  70
32
  10
520528.398
  20
4638677.067
  30
1093.887
  0
VERTEX
  8
PNOA-H_AMS_1956-57_33k_ES_PAN_21mic_H50_0317_fot_31B-36879_E_tif
  70
32
  10
519980.500
  20
4638847.000
  30
1080.75
  0
VERTEX
  8
PNOA-H_AMS_1956-57_33k_ES_PAN_21mic_H50_0317_fot_31B-36879_E_tif
  70
32
  10
519961.500
  20
4642834.000
  30
1170.254
  0
VERTEX
  8
PNOA-H_AMS_1956-57_33k_ES_PAN_21mic_H50_0317_fot_31B-36879_E_tif
  70
32
  10
519962.152
  20
4642834.136
  30
1170.359
  0
VERTEX
  8
PNOA-H_AMS_1956-57_33k_ES_PAN_21mic_H50_0317_fot_31B-36879_E_tif
  70
32
  10
521668.000
  20
4643190.000
  30
1446.156
  0
VERTEX
  8
PNOA-H_AMS_1956-57_33k_ES_PAN_21mic_H50_0317_fot_31B-36879_E_tif
  70
32
  10
521670.500
  20
4643190.500
  30
1447.138
  0
VERTEX
  8
PNOA-H_AMS_1956-57_33k_ES_PAN_21mic_H50_0317_fot_31B-36879_E_tif
  70
32
  10
521673.000
  20
4643190.500
  30
1448.01
  0
VERTEX
  8
PNOA-H_AMS_1956-57_33k_ES_PAN_21mic_H50_0317_fot_31B-36879_E_tif
  70
32
  10
521674.000
  20
4643190.500
  30
1448.359
  0
VERTEX
  8
PNOA-H_AMS_1956-57_33k_ES_PAN_21mic_H50_0317_fot_31B-36879_E_tif
  70
32
  10
521682.500
  20
4643187.500
  30
1450.527
  0
VERTEX
  8
PNOA-H_AMS_1956-57_33k_ES_PAN_21mic_H50_0317_fot_31B-36879_E_tif
  70
32
  10
522605.622
  20
4642844.640
  30
1558.421
  0
VERTEX
  8
PNOA-H_AMS_1956-57_33k_ES_PAN_21mic_H50_0317_fot_31B-36879_E_tif
  70
32
  10
522606.000
  20
4642844.500
  30
1558.465
  0
VERTEX
  8
PNOA-H_AMS_1956-57_33k_ES_PAN_21mic_H50_0317_fot_31B-36879_E_tif
  70
32
  10
522639.500
  20
4638888.500
  30
1246.787
  0
VERTEX
  8
PNOA-H_AMS_1956-57_33k_ES_PAN_21mic_H50_0317_fot_31B-36879_E_tif
  70
32
  10
522638.770
  20
4638888.269
  30
1246.714
  0
SEQEND
  8
PNOA-H_AMS_1956-57_33k_ES_PAN_21mic_H50_0317_fot_31B-36879_E_tif
  0
INSERT
  8
FeatureAttribs
  2
FEATURE
  41
1
  42
1
  43
1
  50
0
  10
526593.202
  20
4640879.750
 66
1
  0
ATTRIB
  8
FeatureAttribs
 70
0
  1
PNOA-H_AMS_1956-57_33k_ES_PAN_21mic_H50_0317_fot_31B-36881_E.tif
  2
NAME
  10
526593.202
  20
4640879.750
 40
33.37608
  0
SEQEND
  0
POLYLINE
  8
PNOA-H_AMS_1956-57_33k_ES_PAN_21mic_H50_0317_fot_31B-36881_E_tif
  70
9
  66
1
  0
VERTEX
  8
PNOA-H_AMS_1956-57_33k_ES_PAN_21mic_H50_0317_fot_31B-36881_E_tif
  70
32
  10
526782.860
  20
4643160.588
  30
1273.166
  0
VERTEX
  8
PNOA-H_AMS_1956-57_33k_ES_PAN_21mic_H50_0317_fot_31B-36881_E_tif
  70
32
  10
526795.000
  20
4643158.000
  30
1273.39
  0
VERTEX
  8
PNOA-H_AMS_1956-57_33k_ES_PAN_21mic_H50_0317_fot_31B-36881_E_tif
  70
32
  10
526795.092
  20
4643158.000
  30
1273.398
  0
VERTEX
  8
PNOA-H_AMS_1956-57_33k_ES_PAN_21mic_H50_0317_fot_31B-36881_E_tif
  70
32
  10
526796.000
  20
4643158.000
  30
1273.474
  0
VERTEX
  8
PNOA-H_AMS_1956-57_33k_ES_PAN_21mic_H50_0317_fot_31B-36881_E_tif
  70
32
  10
527922.729
  20
4642919.557
  30
1218.586
  0
VERTEX
  8
PNOA-H_AMS_1956-57_33k_ES_PAN_21mic_H50_0317_fot_31B-36881_E_tif
  70
32
  10
527922.999
  20
4642919.500
  30
1218.573
  0
VERTEX
  8
PNOA-H_AMS_1956-57_33k_ES_PAN_21mic_H50_0317_fot_31B-36881_E_tif
  70
32
  10
527910.000
  20
4638934.000
  30
1055.98
  0
VERTEX
  8
PNOA-H_AMS_1956-57_33k_ES_PAN_21mic_H50_0317_fot_31B-36881_E_tif
  70
32
  10
527907.094
  20
4638933.070
  30
1055.96
  0
VERTEX
  8
PNOA-H_AMS_1956-57_33k_ES_PAN_21mic_H50_0317_fot_31B-36881_E_tif
  70
32
  10
526632.000
  20
4638525.000
  30
1047.539
  0
VERTEX
  8
PNOA-H_AMS_1956-57_33k_ES_PAN_21mic_H50_0317_fot_31B-36881_E_tif
  70
32
  10
526631.483
  20
4638525.155
  30
1047.571
  0
VERTEX
  8
PNOA-H_AMS_1956-57_33k_ES_PAN_21mic_H50_0317_fot_31B-36881_E_tif
  70
32
  10
525299.500
  20
4638924.000
  30
1128.938
  0
VERTEX
  8
PNOA-H_AMS_1956-57_33k_ES_PAN_21mic_H50_0317_fot_31B-36881_E_tif
  70
32
  10
525240.000
  20
4642876.500
  30
1256.577
  0
VERTEX
  8
PNOA-H_AMS_1956-57_33k_ES_PAN_21mic_H50_0317_fot_31B-36881_E_tif
  70
32
  10
525240.007
  20
4642876.502
  30
1256.577
  0
VERTEX
  8
PNOA-H_AMS_1956-57_33k_ES_PAN_21mic_H50_0317_fot_31B-36881_E_tif
  70
32
  10
525240.248
  20
4642876.574
  30
1256.579
  0
VERTEX
  8
PNOA-H_AMS_1956-57_33k_ES_PAN_21mic_H50_0317_fot_31B-36881_E_tif
  70
32
  10
526432.000
  20
4643234.500
  30
1266.675
  0
VERTEX
  8
PNOA-H_AMS_1956-57_33k_ES_PAN_21mic_H50_0317_fot_31B-36881_E_tif
  70
32
  10
526433.004
  20
4643234.351
  30
1266.694
  0
VERTEX
  8
PNOA-H_AMS_1956-57_33k_ES_PAN_21mic_H50_0317_fot_31B-36881_E_tif
  70
32
  10
526437.004
  20
4643233.759
  30
1266.771
  0
VERTEX
  8
PNOA-H_AMS_1956-57_33k_ES_PAN_21mic_H50_0317_fot_31B-36881_E_tif
  70
32
  10
526445.500
  20
4643232.500
  30
1266.935
  0
VERTEX
  8
PNOA-H_AMS_1956-57_33k_ES_PAN_21mic_H50_0317_fot_31B-36881_E_tif
  70
32
  10
526782.860
  20
4643160.588
  30
1273.166
  0
SEQEND
  8
PNOA-H_AMS_1956-57_33k_ES_PAN_21mic_H50_0317_fot_31B-36881_E_tif
  0
INSERT
  8
FeatureAttribs
  2
FEATURE
  41
1
  42
1
  43
1
  50
0
  10
523946.706
  20
4640849.500
 66
1
  0
ATTRIB
  8
FeatureAttribs
 70
0
  1
PNOA-H_AMS_1956-57_33k_ES_PAN_21mic_H50_0317_fot_31B-36880_E.tif
  2
NAME
  10
523946.706
  20
4640849.500
 40
33.37608
  0
SEQEND
  0
POLYLINE
  8
PNOA-H_AMS_1956-57_33k_ES_PAN_21mic_H50_0317_fot_31B-36880_E_tif
  70
9
  66
1
  0
VERTEX
  8
PNOA-H_AMS_1956-57_33k_ES_PAN_21mic_H50_0317_fot_31B-36880_E_tif
  70
32
  10
525299.011
  20
4638923.847
  30
1128.99
  0
VERTEX
  8
PNOA-H_AMS_1956-57_33k_ES_PAN_21mic_H50_0317_fot_31B-36880_E_tif
  70
32
  10
523931.000
  20
4638496.000
  30
1274.302
  0
VERTEX
  8
PNOA-H_AMS_1956-57_33k_ES_PAN_21mic_H50_0317_fot_31B-36880_E_tif
  70
32
  10
523930.493
  20
4638496.154
  30
1274.291
  0
VERTEX
  8
PNOA-H_AMS_1956-57_33k_ES_PAN_21mic_H50_0317_fot_31B-36880_E_tif
  70
32
  10
522639.500
  20
4638888.500
  30
1246.787
  0
VERTEX
  8
PNOA-H_AMS_1956-57_33k_ES_PAN_21mic_H50_0317_fot_31B-36880_E_tif
  70
32
  10
522606.000
  20
4642844.500
  30
1558.465
  0
VERTEX
  8
PNOA-H_AMS_1956-57_33k_ES_PAN_21mic_H50_0317_fot_31B-36880_E_tif
  70
32
  10
522607.705
  20
4642844.901
  30
1558.735
  0
VERTEX
  8
PNOA-H_AMS_1956-57_33k_ES_PAN_21mic_H50_0317_fot_31B-36880_E_tif
  70
32
  10
522697.500
  20
4642866.000
  30
1572.95
  0
VERTEX
  8
PNOA-H_AMS_1956-57_33k_ES_PAN_21mic_H50_0317_fot_31B-36880_E_tif
  70
32
  10
522699.500
  20
4642866.500
  30
1573.441
  0
VERTEX
  8
PNOA-H_AMS_1956-57_33k_ES_PAN_21mic_H50_0317_fot_31B-36880_E_tif
  70
32
  10
524130.000
  20
4643203.000
  30
1458.093
  0
VERTEX
  8
PNOA-H_AMS_1956-57_33k_ES_PAN_21mic_H50_0317_fot_31B-36880_E_tif
  70
32
  10
524130.907
  20
4643202.860
  30
1457.887
  0
VERTEX
  8
PNOA-H_AMS_1956-57_33k_ES_PAN_21mic_H50_0317_fot_31B-36880_E_tif
  70
32
  10
524133.142
  20
4643202.517
  30
1457.379
  0
VERTEX
  8
PNOA-H_AMS_1956-57_33k_ES_PAN_21mic_H50_0317_fot_31B-36880_E_tif
  70
32
  10
524136.500
  20
4643202.000
  30
1456.615
  0
VERTEX
  8
PNOA-H_AMS_1956-57_33k_ES_PAN_21mic_H50_0317_fot_31B-36880_E_tif
  70
32
  10
525240.000
  20
4642877.000
  30
1256.509
  0
VERTEX
  8
PNOA-H_AMS_1956-57_33k_ES_PAN_21mic_H50_0317_fot_31B-36880_E_tif
  70
32
  10
525240.005
  20
4642876.646
  30
1256.497
  0
VERTEX
  8
PNOA-H_AMS_1956-57_33k_ES_PAN_21mic_H50_0317_fot_31B-36880_E_tif
  70
32
  10
525240.007
  20
4642876.502
  30
1256.493
  0
VERTEX
  8
PNOA-H_AMS_1956-57_33k_ES_PAN_21mic_H50_0317_fot_31B-36880_E_tif
  70
32
  10
525299.500
  20
4638924.000
  30
1128.938
  0
VERTEX
  8
PNOA-H_AMS_1956-57_33k_ES_PAN_21mic_H50_0317_fot_31B-36880_E_tif
  70
32
  10
525299.011
  20
4638923.847
  30
1128.99
  0
SEQEND
  8
PNOA-H_AMS_1956-57_33k_ES_PAN_21mic_H50_0317_fot_31B-36880_E_tif
  0
INSERT
  8
FeatureAttribs
  2
FEATURE
  41
1
  42
1
  43
1
  50
0
  10
522630.309
  20
4636558.500
 66
1
  0
ATTRIB
  8
FeatureAttribs
 70
0
  1
PNOA-H_AMS_1956-57_33k_ES_PAN_21mic_H50_0317_fot_32B-39526_W.tif
  2
NAME
  10
522630.309
  20
4636558.500
 40
33.37608
  0
SEQEND
  0
POLYLINE
  8
PNOA-H_AMS_1956-57_33k_ES_PAN_21mic_H50_0317_fot_32B-39526_W_tif
  70
9
  66
1
  0
VERTEX
  8
PNOA-H_AMS_1956-57_33k_ES_PAN_21mic_H50_0317_fot_32B-39526_W_tif
  70
32
  10
521665.915
  20
4634228.544
  30
1080.719
  0
VERTEX
  8
PNOA-H_AMS_1956-57_33k_ES_PAN_21mic_H50_0317_fot_32B-39526_W_tif
  70
32
  10
521665.500
  20
4634228.500
  30
1080.718
  0
VERTEX
  8
PNOA-H_AMS_1956-57_33k_ES_PAN_21mic_H50_0317_fot_32B-39526_W_tif
  70
32
  10
521339.500
  20
4634396.000
  30
1084.74
  0
VERTEX
  8
PNOA-H_AMS_1956-57_33k_ES_PAN_21mic_H50_0317_fot_32B-39526_W_tif
  70
32
  10
521335.198
  20
4634398.868
  30
1084.497
  0
VERTEX
  8
PNOA-H_AMS_1956-57_33k_ES_PAN_21mic_H50_0317_fot_32B-39526_W_tif
  70
32
  10
521332.487
  20
4634400.675
  30
1084.344
  0
VERTEX
  8
PNOA-H_AMS_1956-57_33k_ES_PAN_21mic_H50_0317_fot_32B-39526_W_tif
  70
32
  10
521332.000
  20
4634401.000
  30
1084.316
  0
VERTEX
  8
PNOA-H_AMS_1956-57_33k_ES_PAN_21mic_H50_0317_fot_32B-39526_W_tif
  70
32
  10
521257.000
  20
4638451.500
  30
1110.143
  0
VERTEX
  8
PNOA-H_AMS_1956-57_33k_ES_PAN_21mic_H50_0317_fot_32B-39526_W_tif
  70
32
  10
521257.647
  20
4638451.705
  30
1110.207
  0
VERTEX
  8
PNOA-H_AMS_1956-57_33k_ES_PAN_21mic_H50_0317_fot_32B-39526_W_tif
  70
32
  10
522638.000
  20
4638888.500
  30
1246.519
  0
VERTEX
  8
PNOA-H_AMS_1956-57_33k_ES_PAN_21mic_H50_0317_fot_32B-39526_W_tif
  70
32
  10
522638.770
  20
4638888.269
  30
1246.647
  0
VERTEX
  8
PNOA-H_AMS_1956-57_33k_ES_PAN_21mic_H50_0317_fot_32B-39526_W_tif
  70
32
  10
522698.000
  20
4638870.500
  30
1256.482
  0
VERTEX
  8
PNOA-H_AMS_1956-57_33k_ES_PAN_21mic_H50_0317_fot_32B-39526_W_tif
  70
32
  10
522700.000
  20
4638870.000
  30
1256.775
  0
VERTEX
  8
PNOA-H_AMS_1956-57_33k_ES_PAN_21mic_H50_0317_fot_32B-39526_W_tif
  70
32
  10
523930.000
  20
4638496.000
  30
1274.589
  0
VERTEX
  8
PNOA-H_AMS_1956-57_33k_ES_PAN_21mic_H50_0317_fot_32B-39526_W_tif
  70
32
  10
524010.000
  20
4634477.000
  30
1088.982
  0
VERTEX
  8
PNOA-H_AMS_1956-57_33k_ES_PAN_21mic_H50_0317_fot_32B-39526_W_tif
  70
32
  10
523797.766
  20
4634454.505
  30
1088.234
  0
VERTEX
  8
PNOA-H_AMS_1956-57_33k_ES_PAN_21mic_H50_0317_fot_32B-39526_W_tif
  70
32
  10
521844.520
  20
4634247.475
  30
1081.349
  0
VERTEX
  8
PNOA-H_AMS_1956-57_33k_ES_PAN_21mic_H50_0317_fot_32B-39526_W_tif
  70
32
  10
521665.915
  20
4634228.544
  30
1080.719
  0
SEQEND
  8
PNOA-H_AMS_1956-57_33k_ES_PAN_21mic_H50_0317_fot_32B-39526_W_tif
  0
INSERT
  8
FeatureAttribs
  2
FEATURE
  41
1
  42
1
  43
1
  50
0
  10
525297.189
  20
4636612.250
 66
1
  0
ATTRIB
  8
FeatureAttribs
 70
0
  1
PNOA-H_AMS_1956-57_33k_ES_PAN_21mic_H50_0317_fot_32B-39525_W.tif
  2
NAME
  10
525297.189
  20
4636612.250
 40
33.37608
  0
SEQEND
  0
POLYLINE
  8
PNOA-H_AMS_1956-57_33k_ES_PAN_21mic_H50_0317_fot_32B-39525_W_tif
  70
9
  66
1
  0
VERTEX
  8
PNOA-H_AMS_1956-57_33k_ES_PAN_21mic_H50_0317_fot_32B-39525_W_tif
  70
32
  10
524365.000
  20
4634300.500
  30
1100.186
  0
VERTEX
  8
PNOA-H_AMS_1956-57_33k_ES_PAN_21mic_H50_0317_fot_32B-39525_W_tif
  70
32
  10
524364.500
  20
4634300.500
  30
1100.174
  0
VERTEX
  8
PNOA-H_AMS_1956-57_33k_ES_PAN_21mic_H50_0317_fot_32B-39525_W_tif
  70
32
  10
524010.088
  20
4634476.956
  30
1088.985
  0
VERTEX
  8
PNOA-H_AMS_1956-57_33k_ES_PAN_21mic_H50_0317_fot_32B-39525_W_tif
  70
32
  10
524010.000
  20
4634477.000
  30
1088.982
  0
VERTEX
  8
PNOA-H_AMS_1956-57_33k_ES_PAN_21mic_H50_0317_fot_32B-39525_W_tif
  70
32
  10
523930.000
  20
4638496.000
  30
1274.589
  0
VERTEX
  8
PNOA-H_AMS_1956-57_33k_ES_PAN_21mic_H50_0317_fot_32B-39525_W_tif
  70
32
  10
523930.493
  20
4638496.154
  30
1274.536
  0
VERTEX
  8
PNOA-H_AMS_1956-57_33k_ES_PAN_21mic_H50_0317_fot_32B-39525_W_tif
  70
32
  10
525297.000
  20
4638923.500
  30
1128.818
  0
VERTEX
  8
PNOA-H_AMS_1956-57_33k_ES_PAN_21mic_H50_0317_fot_32B-39525_W_tif
  70
32
  10
525298.500
  20
4638924.000
  30
1128.901
  0
VERTEX
  8
PNOA-H_AMS_1956-57_33k_ES_PAN_21mic_H50_0317_fot_32B-39525_W_tif
  70
32
  10
525299.011
  20
4638923.847
  30
1128.87
  0
VERTEX
  8
PNOA-H_AMS_1956-57_33k_ES_PAN_21mic_H50_0317_fot_32B-39525_W_tif
  70
32
  10
526631.000
  20
4638525.000
  30
1047.563
  0
VERTEX
  8
PNOA-H_AMS_1956-57_33k_ES_PAN_21mic_H50_0317_fot_32B-39525_W_tif
  70
32
  10
526622.500
  20
4634577.500
  30
1273.915
  0
VERTEX
  8
PNOA-H_AMS_1956-57_33k_ES_PAN_21mic_H50_0317_fot_32B-39525_W_tif
  70
32
  10
526622.000
  20
4634565.000
  30
1270.93
  0
VERTEX
  8
PNOA-H_AMS_1956-57_33k_ES_PAN_21mic_H50_0317_fot_32B-39525_W_tif
  70
32
  10
526621.517
  20
4634564.759
  30
1270.841
  0
VERTEX
  8
PNOA-H_AMS_1956-57_33k_ES_PAN_21mic_H50_0317_fot_32B-39525_W_tif
  70
32
  10
526621.000
  20
4634564.500
  30
1270.746
  0
VERTEX
  8
PNOA-H_AMS_1956-57_33k_ES_PAN_21mic_H50_0317_fot_32B-39525_W_tif
  70
32
  10
524366.500
  20
4634300.500
  30
1100.225
  0
VERTEX
  8
PNOA-H_AMS_1956-57_33k_ES_PAN_21mic_H50_0317_fot_32B-39525_W_tif
  70
32
  10
524365.000
  20
4634300.500
  30
1100.186
  0
SEQEND
  8
PNOA-H_AMS_1956-57_33k_ES_PAN_21mic_H50_0317_fot_32B-39525_W_tif
  0
INSERT
  8
FeatureAttribs
  2
FEATURE
  41
1
  42
1
  43
1
  50
0
  10
523066.924
  20
4632891.013
 66
1
  0
ATTRIB
  8
FeatureAttribs
 70
0
  1
PNOA-H_AMS_1956-57_33k_ES_PAN_21mic_H50_0317_fot_33B-38729_E.tif
  2
NAME
  10
523066.924
  20
4632891.013
 40
33.37608
  0
SEQEND
  0
POLYLINE
  8
PNOA-H_AMS_1956-57_33k_ES_PAN_21mic_H50_0317_fot_33B-38729_E_tif
  70
9
  66
1
  0
VERTEX
  8
PNOA-H_AMS_1956-57_33k_ES_PAN_21mic_H50_0317_fot_33B-38729_E_tif
  70
32
  10
522488.216
  20
4631307.135
  30
0
  0
VERTEX
  8
PNOA-H_AMS_1956-57_33k_ES_PAN_21mic_H50_0317_fot_33B-38729_E_tif
  70
32
  10
521763.801
  20
4631305.026
  30
1093.011
  0
VERTEX
  8
PNOA-H_AMS_1956-57_33k_ES_PAN_21mic_H50_0317_fot_33B-38729_E_tif
  70
32
  10
521666.000
  20
4634228.500
  30
1080.718
  0
VERTEX
  8
PNOA-H_AMS_1956-57_33k_ES_PAN_21mic_H50_0317_fot_33B-38729_E_tif
  70
32
  10
521844.520
  20
4634247.475
  30
1080.719
  0
VERTEX
  8
PNOA-H_AMS_1956-57_33k_ES_PAN_21mic_H50_0317_fot_33B-38729_E_tif
  70
32
  10
522691.500
  20
4634337.500
  30
1080.724
  0
VERTEX
  8
PNOA-H_AMS_1956-57_33k_ES_PAN_21mic_H50_0317_fot_33B-38729_E_tif
  70
32
  10
522696.000
  20
4634338.000
  30
1080.724
  0
VERTEX
  8
PNOA-H_AMS_1956-57_33k_ES_PAN_21mic_H50_0317_fot_33B-38729_E_tif
  70
32
  10
523797.766
  20
4634454.505
  30
1087.605
  0
VERTEX
  8
PNOA-H_AMS_1956-57_33k_ES_PAN_21mic_H50_0317_fot_33B-38729_E_tif
  70
32
  10
524010.088
  20
4634476.956
  30
1088.931
  0
VERTEX
  8
PNOA-H_AMS_1956-57_33k_ES_PAN_21mic_H50_0317_fot_33B-38729_E_tif
  70
32
  10
524010.500
  20
4634477.000
  30
1088.934
  0
VERTEX
  8
PNOA-H_AMS_1956-57_33k_ES_PAN_21mic_H50_0317_fot_33B-38729_E_tif
  70
32
  10
524365.000
  20
4634300.500
  30
1100.186
  0
VERTEX
  8
PNOA-H_AMS_1956-57_33k_ES_PAN_21mic_H50_0317_fot_33B-38729_E_tif
  70
32
  10
524488.119
  20
4631313.925
  30
1106.586
  0
VERTEX
  8
PNOA-H_AMS_1956-57_33k_ES_PAN_21mic_H50_0317_fot_33B-38729_E_tif
  70
32
  10
524487.893
  20
4631313.924
  30
0
  0
VERTEX
  8
PNOA-H_AMS_1956-57_33k_ES_PAN_21mic_H50_0317_fot_33B-38729_E_tif
  70
32
  10
522488.216
  20
4631307.135
  30
0
  0
SEQEND
  8
PNOA-H_AMS_1956-57_33k_ES_PAN_21mic_H50_0317_fot_33B-38729_E_tif
  0
INSERT
  8
FeatureAttribs
  2
FEATURE
  41
1
  42
1
  43
1
  50
0
  10
525788.482
  20
4632939.462
 66
1
  0
ATTRIB
  8
FeatureAttribs
 70
0
  1
PNOA-H_AMS_1956-57_33k_ES_PAN_21mic_H50_0317_fot_33B-38730_E.tif
  2
NAME
  10
525788.482
  20
4632939.462
 40
33.37608
  0
SEQEND
  0
POLYLINE
  8
PNOA-H_AMS_1956-57_33k_ES_PAN_21mic_H50_0317_fot_33B-38730_E_tif
  70
9
  66
1
  0
VERTEX
  8
PNOA-H_AMS_1956-57_33k_ES_PAN_21mic_H50_0317_fot_33B-38730_E_tif
  70
32
  10
524488.119
  20
4631313.925
  30
1106.586
  0
VERTEX
  8
PNOA-H_AMS_1956-57_33k_ES_PAN_21mic_H50_0317_fot_33B-38730_E_tif
  70
32
  10
524487.893
  20
4631313.924
  30
1106.85
  0
VERTEX
  8
PNOA-H_AMS_1956-57_33k_ES_PAN_21mic_H50_0317_fot_33B-38730_E_tif
  70
32
  10
524365.000
  20
4634300.500
  30
1100.186
  0
VERTEX
  8
PNOA-H_AMS_1956-57_33k_ES_PAN_21mic_H50_0317_fot_33B-38730_E_tif
  70
32
  10
526621.000
  20
4634565.000
  30
1270.853
  0
VERTEX
  8
PNOA-H_AMS_1956-57_33k_ES_PAN_21mic_H50_0317_fot_33B-38730_E_tif
  70
32
  10
526621.517
  20
4634564.759
  30
1270.869
  0
VERTEX
  8
PNOA-H_AMS_1956-57_33k_ES_PAN_21mic_H50_0317_fot_33B-38730_E_tif
  70
32
  10
526633.820
  20
4634559.017
  30
1271.248
  0
VERTEX
  8
PNOA-H_AMS_1956-57_33k_ES_PAN_21mic_H50_0317_fot_33B-38730_E_tif
  70
32
  10
526643.500
  20
4634554.500
  30
1271.546
  0
VERTEX
  8
PNOA-H_AMS_1956-57_33k_ES_PAN_21mic_H50_0317_fot_33B-38730_E_tif
  70
32
  10
526714.225
  20
4634518.320
  30
1261.32
  0
VERTEX
  8
PNOA-H_AMS_1956-57_33k_ES_PAN_21mic_H50_0317_fot_33B-38730_E_tif
  70
32
  10
526795.000
  20
4634477.000
  30
1249.64
  0
VERTEX
  8
PNOA-H_AMS_1956-57_33k_ES_PAN_21mic_H50_0317_fot_33B-38730_E_tif
  70
32
  10
526796.000
  20
4634476.500
  30
1249.547
  0
VERTEX
  8
PNOA-H_AMS_1956-57_33k_ES_PAN_21mic_H50_0317_fot_33B-38730_E_tif
  70
32
  10
527017.150
  20
4634364.996
  30
1231.614
  0
VERTEX
  8
PNOA-H_AMS_1956-57_33k_ES_PAN_21mic_H50_0317_fot_33B-38730_E_tif
  70
32
  10
527093.500
  20
4634326.500
  30
1225.423
  0
VERTEX
  8
PNOA-H_AMS_1956-57_33k_ES_PAN_21mic_H50_0317_fot_33B-38730_E_tif
  70
32
  10
527108.384
  20
4634318.818
  30
1223.847
  0
VERTEX
  8
PNOA-H_AMS_1956-57_33k_ES_PAN_21mic_H50_0317_fot_33B-38730_E_tif
  70
32
  10
527109.000
  20
4634318.500
  30
1223.782
  0
VERTEX
  8
PNOA-H_AMS_1956-57_33k_ES_PAN_21mic_H50_0317_fot_33B-38730_E_tif
  70
32
  10
527109.121
  20
4634318.017
  30
1223.699
  0
VERTEX
  8
PNOA-H_AMS_1956-57_33k_ES_PAN_21mic_H50_0317_fot_33B-38730_E_tif
  70
32
  10
527109.500
  20
4634316.500
  30
1223.441
  0
VERTEX
  8
PNOA-H_AMS_1956-57_33k_ES_PAN_21mic_H50_0317_fot_33B-38730_E_tif
  70
32
  10
527210.472
  20
4631323.780
  30
1154.298
  0
VERTEX
  8
PNOA-H_AMS_1956-57_33k_ES_PAN_21mic_H50_0317_fot_33B-38730_E_tif
  70
32
  10
527210.334
  20
4631323.780
  30
0
  0
VERTEX
  8
PNOA-H_AMS_1956-57_33k_ES_PAN_21mic_H50_0317_fot_33B-38730_E_tif
  70
32
  10
525947.945
  20
4631318.881
  30
0
  0
VERTEX
  8
PNOA-H_AMS_1956-57_33k_ES_PAN_21mic_H50_0317_fot_33B-38730_E_tif
  70
32
  10
524488.119
  20
4631313.925
  30
1106.586
  0
SEQEND
  8
PNOA-H_AMS_1956-57_33k_ES_PAN_21mic_H50_0317_fot_33B-38730_E_tif
  0
INSERT
  8
FeatureAttribs
  2
FEATURE
  41
1
  42
1
  43
1
  50
0
  10
529265.506
  20
4640881.250
 66
1
  0
ATTRIB
  8
FeatureAttribs
 70
0
  1
PNOA-H_AMS_1956-57_33k_ES_PAN_21mic_H50_0317_fot_31B-36882_E.tif
  2
NAME
  10
529265.506
  20
4640881.250
 40
33.37608
  0
SEQEND
  0
POLYLINE
  8
PNOA-H_AMS_1956-57_33k_ES_PAN_21mic_H50_0317_fot_31B-36882_E_tif
  70
9
  66
1
  0
VERTEX
  8
PNOA-H_AMS_1956-57_33k_ES_PAN_21mic_H50_0317_fot_31B-36882_E_tif
  70
32
  10
529289.977
  20
4638520.657
  30
1039.083
  0
VERTEX
  8
PNOA-H_AMS_1956-57_33k_ES_PAN_21mic_H50_0317_fot_31B-36882_E_tif
  70
32
  10
529289.500
  20
4638520.500
  30
1039.043
  0
VERTEX
  8
PNOA-H_AMS_1956-57_33k_ES_PAN_21mic_H50_0317_fot_31B-36882_E_tif
  70
32
  10
527910.443
  20
4638933.867
  30
1055.974
  0
VERTEX
  8
PNOA-H_AMS_1956-57_33k_ES_PAN_21mic_H50_0317_fot_31B-36882_E_tif
  70
32
  10
527910.000
  20
4638934.000
  30
1055.98
  0
VERTEX
  8
PNOA-H_AMS_1956-57_33k_ES_PAN_21mic_H50_0317_fot_31B-36882_E_tif
  70
32
  10
527922.999
  20
4642919.500
  30
1218.626
  0
VERTEX
  8
PNOA-H_AMS_1956-57_33k_ES_PAN_21mic_H50_0317_fot_31B-36882_E_tif
  70
32
  10
527922.999
  20
4642919.625
  30
1218.631
  0
VERTEX
  8
PNOA-H_AMS_1956-57_33k_ES_PAN_21mic_H50_0317_fot_31B-36882_E_tif
  70
32
  10
527923.000
  20
4642920.000
  30
1218.646
  0
VERTEX
  8
PNOA-H_AMS_1956-57_33k_ES_PAN_21mic_H50_0317_fot_31B-36882_E_tif
  70
32
  10
528749.500
  20
4643241.500
  30
1242.959
  0
VERTEX
  8
PNOA-H_AMS_1956-57_33k_ES_PAN_21mic_H50_0317_fot_31B-36882_E_tif
  70
32
  10
528751.046
  20
4643241.629
  30
1243.148
  0
VERTEX
  8
PNOA-H_AMS_1956-57_33k_ES_PAN_21mic_H50_0317_fot_31B-36882_E_tif
  70
32
  10
528753.449
  20
4643241.829
  30
1243.442
  0
VERTEX
  8
PNOA-H_AMS_1956-57_33k_ES_PAN_21mic_H50_0317_fot_31B-36882_E_tif
  70
32
  10
528755.500
  20
4643242.000
  30
1243.692
  0
VERTEX
  8
PNOA-H_AMS_1956-57_33k_ES_PAN_21mic_H50_0317_fot_31B-36882_E_tif
  70
32
  10
528821.590
  20
4643233.788
  30
1244.482
  0
VERTEX
  8
PNOA-H_AMS_1956-57_33k_ES_PAN_21mic_H50_0317_fot_31B-36882_E_tif
  70
32
  10
528840.000
  20
4643231.500
  30
1244.702
  0
VERTEX
  8
PNOA-H_AMS_1956-57_33k_ES_PAN_21mic_H50_0317_fot_31B-36882_E_tif
  70
32
  10
528844.000
  20
4643231.000
  30
1244.232
  0
VERTEX
  8
PNOA-H_AMS_1956-57_33k_ES_PAN_21mic_H50_0317_fot_31B-36882_E_tif
  70
32
  10
530611.500
  20
4643022.500
  30
1165.19
  0
VERTEX
  8
PNOA-H_AMS_1956-57_33k_ES_PAN_21mic_H50_0317_fot_31B-36882_E_tif
  70
32
  10
530617.500
  20
4638957.000
  30
1149.348
  0
VERTEX
  8
PNOA-H_AMS_1956-57_33k_ES_PAN_21mic_H50_0317_fot_31B-36882_E_tif
  70
32
  10
530616.955
  20
4638956.821
  30
1149.303
  0
VERTEX
  8
PNOA-H_AMS_1956-57_33k_ES_PAN_21mic_H50_0317_fot_31B-36882_E_tif
  70
32
  10
529820.700
  20
4638695.100
  30
1083.165
  0
VERTEX
  8
PNOA-H_AMS_1956-57_33k_ES_PAN_21mic_H50_0317_fot_31B-36882_E_tif
  70
32
  10
529289.977
  20
4638520.657
  30
1039.083
  0
SEQEND
  8
PNOA-H_AMS_1956-57_33k_ES_PAN_21mic_H50_0317_fot_31B-36882_E_tif
  0
INSERT
  8
FeatureAttribs
  2
FEATURE
  41
1
  42
1
  43
1
  50
0
  10
532025.267
  20
4640874.750
 66
1
  0
ATTRIB
  8
FeatureAttribs
 70
0
  1
PNOA-H_AMS_1956-57_33k_ES_PAN_21mic_H50_0317_fot_31B-36883_E.tif
  2
NAME
  10
532025.267
  20
4640874.750
 40
33.37608
  0
SEQEND
  0
POLYLINE
  8
PNOA-H_AMS_1956-57_33k_ES_PAN_21mic_H50_0317_fot_31B-36883_E_tif
  70
9
  66
1
  0
VERTEX
  8
PNOA-H_AMS_1956-57_33k_ES_PAN_21mic_H50_0317_fot_31B-36883_E_tif
  70
32
  10
533467.446
  20
4638972.834
  30
1358.936
  0
VERTEX
  8
PNOA-H_AMS_1956-57_33k_ES_PAN_21mic_H50_0317_fot_31B-36883_E_tif
  70
32
  10
531994.500
  20
4638532.500
  30
1332.436
  0
VERTEX
  8
PNOA-H_AMS_1956-57_33k_ES_PAN_21mic_H50_0317_fot_31B-36883_E_tif
  70
32
  10
531993.727
  20
4638532.717
  30
1332.703
  0
VERTEX
  8
PNOA-H_AMS_1956-57_33k_ES_PAN_21mic_H50_0317_fot_31B-36883_E_tif
  70
32
  10
531978.020
  20
4638537.126
  30
1338.128
  0
VERTEX
  8
PNOA-H_AMS_1956-57_33k_ES_PAN_21mic_H50_0317_fot_31B-36883_E_tif
  70
32
  10
531966.000
  20
4638540.500
  30
1342.28
  0
VERTEX
  8
PNOA-H_AMS_1956-57_33k_ES_PAN_21mic_H50_0317_fot_31B-36883_E_tif
  70
32
  10
530891.085
  20
4638872.500
  30
1188.491
  0
VERTEX
  8
PNOA-H_AMS_1956-57_33k_ES_PAN_21mic_H50_0317_fot_31B-36883_E_tif
  70
32
  10
530877.835
  20
4638876.592
  30
1186.595
  0
VERTEX
  8
PNOA-H_AMS_1956-57_33k_ES_PAN_21mic_H50_0317_fot_31B-36883_E_tif
  70
32
  10
530619.817
  20
4638956.284
  30
1149.68
  0
VERTEX
  8
PNOA-H_AMS_1956-57_33k_ES_PAN_21mic_H50_0317_fot_31B-36883_E_tif
  70
32
  10
530617.500
  20
4638957.000
  30
1149.348
  0
VERTEX
  8
PNOA-H_AMS_1956-57_33k_ES_PAN_21mic_H50_0317_fot_31B-36883_E_tif
  70
32
  10
530611.500
  20
4643022.500
  30
1165.19
  0
VERTEX
  8
PNOA-H_AMS_1956-57_33k_ES_PAN_21mic_H50_0317_fot_31B-36883_E_tif
  70
32
  10
530611.598
  20
4643022.547
  30
1165.186
  0
VERTEX
  8
PNOA-H_AMS_1956-57_33k_ES_PAN_21mic_H50_0317_fot_31B-36883_E_tif
  70
32
  10
530890.000
  20
4643157.000
  30
1153.715
  0
VERTEX
  8
PNOA-H_AMS_1956-57_33k_ES_PAN_21mic_H50_0317_fot_31B-36883_E_tif
  70
32
  10
530891.000
  20
4643157.500
  30
1153.664
  0
VERTEX
  8
PNOA-H_AMS_1956-57_33k_ES_PAN_21mic_H50_0317_fot_31B-36883_E_tif
  70
32
  10
531014.500
  20
4643217.000
  30
1143.787
  0
VERTEX
  8
PNOA-H_AMS_1956-57_33k_ES_PAN_21mic_H50_0317_fot_31B-36883_E_tif
  70
32
  10
531015.500
  20
4643217.000
  30
1143.791
  0
VERTEX
  8
PNOA-H_AMS_1956-57_33k_ES_PAN_21mic_H50_0317_fot_31B-36883_E_tif
  70
32
  10
531027.500
  20
4643217.000
  30
1143.846
  0
VERTEX
  8
PNOA-H_AMS_1956-57_33k_ES_PAN_21mic_H50_0317_fot_31B-36883_E_tif
  70
32
  10
533215.654
  20
4643123.308
  30
1115.922
  0
VERTEX
  8
PNOA-H_AMS_1956-57_33k_ES_PAN_21mic_H50_0317_fot_31B-36883_E_tif
  70
32
  10
533398.000
  20
4643115.500
  30
1113.595
  0
VERTEX
  8
PNOA-H_AMS_1956-57_33k_ES_PAN_21mic_H50_0317_fot_31B-36883_E_tif
  70
32
  10
533468.000
  20
4638973.000
  30
1358.946
  0
VERTEX
  8
PNOA-H_AMS_1956-57_33k_ES_PAN_21mic_H50_0317_fot_31B-36883_E_tif
  70
32
  10
533467.446
  20
4638972.834
  30
1358.936
  0
SEQEND
  8
PNOA-H_AMS_1956-57_33k_ES_PAN_21mic_H50_0317_fot_31B-36883_E_tif
  0
INSERT
  8
FeatureAttribs
  2
FEATURE
  41
1
  42
1
  43
1
  50
0
  10
532251.583
  20
4644242.750
 66
1
  0
ATTRIB
  8
FeatureAttribs
 70
0
  1
PNOA-H_AMS_1956-57_33k_ES_PAN_21mic_H50_0317_fot_30D-50542_W.tif
  2
NAME
  10
532251.583
  20
4644242.750
 40
33.37608
  0
SEQEND
  0
POLYLINE
  8
PNOA-H_AMS_1956-57_33k_ES_PAN_21mic_H50_0317_fot_30D-50542_W_tif
  70
9
  66
1
  0
VERTEX
  8
PNOA-H_AMS_1956-57_33k_ES_PAN_21mic_H50_0317_fot_30D-50542_W_tif
  70
32
  10
533568.500
  20
4643217.000
  30
1112.309
  0
VERTEX
  8
PNOA-H_AMS_1956-57_33k_ES_PAN_21mic_H50_0317_fot_30D-50542_W_tif
  70
32
  10
533399.000
  20
4643115.500
  30
1113.56
  0
VERTEX
  8
PNOA-H_AMS_1956-57_33k_ES_PAN_21mic_H50_0317_fot_30D-50542_W_tif
  70
32
  10
533398.066
  20
4643115.540
  30
1113.572
  0
VERTEX
  8
PNOA-H_AMS_1956-57_33k_ES_PAN_21mic_H50_0317_fot_30D-50542_W_tif
  70
32
  10
533215.654
  20
4643123.308
  30
1115.886
  0
VERTEX
  8
PNOA-H_AMS_1956-57_33k_ES_PAN_21mic_H50_0317_fot_30D-50542_W_tif
  70
32
  10
531015.500
  20
4643217.000
  30
1143.796
  0
VERTEX
  8
PNOA-H_AMS_1956-57_33k_ES_PAN_21mic_H50_0317_fot_30D-50542_W_tif
  70
32
  10
530983.075
  20
4645330.000
  30
1247.539
  0
VERTEX
  8
PNOA-H_AMS_1956-57_33k_ES_PAN_21mic_H50_0317_fot_30D-50542_W_tif
  70
32
  10
532700.000
  20
4645330.000
  30
1288.02
  0
VERTEX
  8
PNOA-H_AMS_1956-57_33k_ES_PAN_21mic_H50_0317_fot_30D-50542_W_tif
  70
32
  10
532700.000
  20
4645370.000
  30
1288.02
  0
VERTEX
  8
PNOA-H_AMS_1956-57_33k_ES_PAN_21mic_H50_0317_fot_30D-50542_W_tif
  70
32
  10
533430.372
  20
4645370.000
  30
1279.551
  0
VERTEX
  8
PNOA-H_AMS_1956-57_33k_ES_PAN_21mic_H50_0317_fot_30D-50542_W_tif
  70
32
  10
533430.721
  20
4645370.000
  30
1279.547
  0
VERTEX
  8
PNOA-H_AMS_1956-57_33k_ES_PAN_21mic_H50_0317_fot_30D-50542_W_tif
  70
32
  10
533569.000
  20
4643225.500
  30
1112.083
  0
VERTEX
  8
PNOA-H_AMS_1956-57_33k_ES_PAN_21mic_H50_0317_fot_30D-50542_W_tif
  70
32
  10
533568.766
  20
4643221.516
  30
1112.189
  0
VERTEX
  8
PNOA-H_AMS_1956-57_33k_ES_PAN_21mic_H50_0317_fot_30D-50542_W_tif
  70
32
  10
533568.543
  20
4643217.726
  30
1112.29
  0
VERTEX
  8
PNOA-H_AMS_1956-57_33k_ES_PAN_21mic_H50_0317_fot_30D-50542_W_tif
  70
32
  10
533568.500
  20
4643217.000
  30
1112.309
  0
SEQEND
  8
PNOA-H_AMS_1956-57_33k_ES_PAN_21mic_H50_0317_fot_30D-50542_W_tif
  0
INSERT
  8
FeatureAttribs
  2
FEATURE
  41
1
  42
1
  43
1
  50
0
  10
527563.689
  20
4644124.750
 66
1
  0
ATTRIB
  8
FeatureAttribs
 70
0
  1
PNOA-H_AMS_1956-57_33k_ES_PAN_21mic_H50_0317_fot_30D-50544_W.tif
  2
NAME
  10
527563.689
  20
4644124.750
 40
33.37608
  0
SEQEND
  0
POLYLINE
  8
PNOA-H_AMS_1956-57_33k_ES_PAN_21mic_H50_0317_fot_30D-50544_W_tif
  70
9
  66
1
  0
VERTEX
  8
PNOA-H_AMS_1956-57_33k_ES_PAN_21mic_H50_0317_fot_30D-50544_W_tif
  70
32
  10
527922.729
  20
4642919.557
  30
1218.607
  0
VERTEX
  8
PNOA-H_AMS_1956-57_33k_ES_PAN_21mic_H50_0317_fot_30D-50544_W_tif
  70
32
  10
527922.500
  20
4642919.500
  30
1218.62
  0
VERTEX
  8
PNOA-H_AMS_1956-57_33k_ES_PAN_21mic_H50_0317_fot_30D-50544_W_tif
  70
32
  10
527903.500
  20
4642923.500
  30
1220.661
  0
VERTEX
  8
PNOA-H_AMS_1956-57_33k_ES_PAN_21mic_H50_0317_fot_30D-50544_W_tif
  70
32
  10
526795.092
  20
4643158.000
  30
1255.383
  0
VERTEX
  8
PNOA-H_AMS_1956-57_33k_ES_PAN_21mic_H50_0317_fot_30D-50544_W_tif
  70
32
  10
526782.860
  20
4643160.588
  30
1255.766
  0
VERTEX
  8
PNOA-H_AMS_1956-57_33k_ES_PAN_21mic_H50_0317_fot_30D-50544_W_tif
  70
32
  10
526437.004
  20
4643233.759
  30
1266.6
  0
VERTEX
  8
PNOA-H_AMS_1956-57_33k_ES_PAN_21mic_H50_0317_fot_30D-50544_W_tif
  70
32
  10
526433.500
  20
4643234.500
  30
1266.71
  0
VERTEX
  8
PNOA-H_AMS_1956-57_33k_ES_PAN_21mic_H50_0317_fot_30D-50544_W_tif
  70
32
  10
526391.765
  20
4645330.000
  30
1407.102
  0
VERTEX
  8
PNOA-H_AMS_1956-57_33k_ES_PAN_21mic_H50_0317_fot_30D-50544_W_tif
  70
32
  10
528656.462
  20
4645330.000
  30
1452.662
  0
VERTEX
  8
PNOA-H_AMS_1956-57_33k_ES_PAN_21mic_H50_0317_fot_30D-50544_W_tif
  70
32
  10
528752.000
  20
4643242.000
  30
1243.295
  0
VERTEX
  8
PNOA-H_AMS_1956-57_33k_ES_PAN_21mic_H50_0317_fot_30D-50544_W_tif
  70
32
  10
528751.046
  20
4643241.629
  30
1243.266
  0
VERTEX
  8
PNOA-H_AMS_1956-57_33k_ES_PAN_21mic_H50_0317_fot_30D-50544_W_tif
  70
32
  10
527924.500
  20
4642920.000
  30
1218.502
  0
VERTEX
  8
PNOA-H_AMS_1956-57_33k_ES_PAN_21mic_H50_0317_fot_30D-50544_W_tif
  70
32
  10
527922.999
  20
4642919.625
  30
1218.591
  0
VERTEX
  8
PNOA-H_AMS_1956-57_33k_ES_PAN_21mic_H50_0317_fot_30D-50544_W_tif
  70
32
  10
527922.729
  20
4642919.557
  30
1218.607
  0
SEQEND
  8
PNOA-H_AMS_1956-57_33k_ES_PAN_21mic_H50_0317_fot_30D-50544_W_tif
  0
INSERT
  8
FeatureAttribs
  2
FEATURE
  41
1
  42
1
  43
1
  50
0
  10
529855.016
  20
4644176.250
 66
1
  0
ATTRIB
  8
FeatureAttribs
 70
0
  1
PNOA-H_AMS_1956-57_33k_ES_PAN_21mic_H50_0317_fot_30D-50543_W.tif
  2
NAME
  10
529855.016
  20
4644176.250
 40
33.37608
  0
SEQEND
  0
POLYLINE
  8
PNOA-H_AMS_1956-57_33k_ES_PAN_21mic_H50_0317_fot_30D-50543_W_tif
  70
9
  66
1
  0
VERTEX
  8
PNOA-H_AMS_1956-57_33k_ES_PAN_21mic_H50_0317_fot_30D-50543_W_tif
  70
32
  10
531015.500
  20
4643217.000
  30
1143.796
  0
VERTEX
  8
PNOA-H_AMS_1956-57_33k_ES_PAN_21mic_H50_0317_fot_30D-50543_W_tif
  70
32
  10
530612.000
  20
4643022.500
  30
1165.235
  0
VERTEX
  8
PNOA-H_AMS_1956-57_33k_ES_PAN_21mic_H50_0317_fot_30D-50543_W_tif
  70
32
  10
530611.598
  20
4643022.547
  30
1165.252
  0
VERTEX
  8
PNOA-H_AMS_1956-57_33k_ES_PAN_21mic_H50_0317_fot_30D-50543_W_tif
  70
32
  10
528821.590
  20
4643233.788
  30
1240.374
  0
VERTEX
  8
PNOA-H_AMS_1956-57_33k_ES_PAN_21mic_H50_0317_fot_30D-50543_W_tif
  70
32
  10
528753.449
  20
4643241.829
  30
1243.234
  0
VERTEX
  8
PNOA-H_AMS_1956-57_33k_ES_PAN_21mic_H50_0317_fot_30D-50543_W_tif
  70
32
  10
528752.000
  20
4643242.000
  30
1243.295
  0
VERTEX
  8
PNOA-H_AMS_1956-57_33k_ES_PAN_21mic_H50_0317_fot_30D-50543_W_tif
  70
32
  10
528656.462
  20
4645330.000
  30
1452.662
  0
VERTEX
  8
PNOA-H_AMS_1956-57_33k_ES_PAN_21mic_H50_0317_fot_30D-50543_W_tif
  70
32
  10
530983.075
  20
4645330.000
  30
1247.539
  0
VERTEX
  8
PNOA-H_AMS_1956-57_33k_ES_PAN_21mic_H50_0317_fot_30D-50543_W_tif
  70
32
  10
531015.500
  20
4643217.000
  30
1143.796
  0
SEQEND
  8
PNOA-H_AMS_1956-57_33k_ES_PAN_21mic_H50_0317_fot_30D-50543_W_tif
  0
INSERT
  8
FeatureAttribs
  2
FEATURE
  41
1
  42
1
  43
1
  50
0
  10
533272.035
  20
4636677.500
 66
1
  0
ATTRIB
  8
FeatureAttribs
 70
0
  1
PNOA-H_AMS_1956-57_33k_ES_PAN_21mic_H50_0317_fot_32B-39522_W.tif
  2
NAME
  10
533272.035
  20
4636677.500
 40
33.37608
  0
SEQEND
  0
POLYLINE
  8
PNOA-H_AMS_1956-57_33k_ES_PAN_21mic_H50_0317_fot_32B-39522_W_tif
  70
9
  66
1
  0
VERTEX
  8
PNOA-H_AMS_1956-57_33k_ES_PAN_21mic_H50_0317_fot_32B-39522_W_tif
  70
32
  10
532519.000
  20
4634382.000
  30
1030.751
  0
VERTEX
  8
PNOA-H_AMS_1956-57_33k_ES_PAN_21mic_H50_0317_fot_32B-39522_W_tif
  70
32
  10
532518.000
  20
4634382.000
  30
1030.753
  0
VERTEX
  8
PNOA-H_AMS_1956-57_33k_ES_PAN_21mic_H50_0317_fot_32B-39522_W_tif
  70
32
  10
532494.500
  20
4634393.500
  30
1030.887
  0
VERTEX
  8
PNOA-H_AMS_1956-57_33k_ES_PAN_21mic_H50_0317_fot_32B-39522_W_tif
  70
32
  10
531934.110
  20
4634671.445
  30
1034.032
  0
VERTEX
  8
PNOA-H_AMS_1956-57_33k_ES_PAN_21mic_H50_0317_fot_32B-39522_W_tif
  70
32
  10
531934.000
  20
4634671.500
  30
1034.033
  0
VERTEX
  8
PNOA-H_AMS_1956-57_33k_ES_PAN_21mic_H50_0317_fot_32B-39522_W_tif
  70
32
  10
531993.000
  20
4638532.500
  30
1333.002
  0
VERTEX
  8
PNOA-H_AMS_1956-57_33k_ES_PAN_21mic_H50_0317_fot_32B-39522_W_tif
  70
32
  10
531993.727
  20
4638532.717
  30
1333.015
  0
VERTEX
  8
PNOA-H_AMS_1956-57_33k_ES_PAN_21mic_H50_0317_fot_32B-39522_W_tif
  70
32
  10
533465.500
  20
4638972.500
  30
1358.726
  0
VERTEX
  8
PNOA-H_AMS_1956-57_33k_ES_PAN_21mic_H50_0317_fot_32B-39522_W_tif
  70
32
  10
533467.000
  20
4638973.000
  30
1358.913
  0
VERTEX
  8
PNOA-H_AMS_1956-57_33k_ES_PAN_21mic_H50_0317_fot_32B-39522_W_tif
  70
32
  10
533467.446
  20
4638972.834
  30
1358.899
  0
VERTEX
  8
PNOA-H_AMS_1956-57_33k_ES_PAN_21mic_H50_0317_fot_32B-39522_W_tif
  70
32
  10
534569.000
  20
4638564.000
  30
1324.105
  0
VERTEX
  8
PNOA-H_AMS_1956-57_33k_ES_PAN_21mic_H50_0317_fot_32B-39522_W_tif
  70
32
  10
534590.000
  20
4634760.500
  30
1118.803
  0
VERTEX
  8
PNOA-H_AMS_1956-57_33k_ES_PAN_21mic_H50_0317_fot_32B-39522_W_tif
  70
32
  10
534106.150
  20
4634671.985
  30
1098.21
  0
VERTEX
  8
PNOA-H_AMS_1956-57_33k_ES_PAN_21mic_H50_0317_fot_32B-39522_W_tif
  70
32
  10
532521.000
  20
4634382.000
  30
1030.746
  0
VERTEX
  8
PNOA-H_AMS_1956-57_33k_ES_PAN_21mic_H50_0317_fot_32B-39522_W_tif
  70
32
  10
532519.000
  20
4634382.000
  30
1030.751
  0
SEQEND
  8
PNOA-H_AMS_1956-57_33k_ES_PAN_21mic_H50_0317_fot_32B-39522_W_tif
  0
INSERT
  8
FeatureAttribs
  2
FEATURE
  41
1
  42
1
  43
1
  50
0
  10
530636.568
  20
4636667.250
 66
1
  0
ATTRIB
  8
FeatureAttribs
 70
0
  1
PNOA-H_AMS_1956-57_33k_ES_PAN_21mic_H50_0317_fot_32B-39523_W.tif
  2
NAME
  10
530636.568
  20
4636667.250
 40
33.37608
  0
SEQEND
  0
POLYLINE
  8
PNOA-H_AMS_1956-57_33k_ES_PAN_21mic_H50_0317_fot_32B-39523_W_tif
  70
9
  66
1
  0
VERTEX
  8
PNOA-H_AMS_1956-57_33k_ES_PAN_21mic_H50_0317_fot_32B-39523_W_tif
  70
32
  10
530877.835
  20
4638876.592
  30
1193.615
  0
VERTEX
  8
PNOA-H_AMS_1956-57_33k_ES_PAN_21mic_H50_0317_fot_32B-39523_W_tif
  70
32
  10
530891.000
  20
4638872.500
  30
1195.883
  0
VERTEX
  8
PNOA-H_AMS_1956-57_33k_ES_PAN_21mic_H50_0317_fot_32B-39523_W_tif
  70
32
  10
530891.085
  20
4638872.500
  30
1195.89
  0
VERTEX
  8
PNOA-H_AMS_1956-57_33k_ES_PAN_21mic_H50_0317_fot_32B-39523_W_tif
  70
32
  10
530892.000
  20
4638872.500
  30
1195.967
  0
VERTEX
  8
PNOA-H_AMS_1956-57_33k_ES_PAN_21mic_H50_0317_fot_32B-39523_W_tif
  70
32
  10
531978.020
  20
4638537.126
  30
1331.138
  0
VERTEX
  8
PNOA-H_AMS_1956-57_33k_ES_PAN_21mic_H50_0317_fot_32B-39523_W_tif
  70
32
  10
531993.000
  20
4638532.500
  30
1333.002
  0
VERTEX
  8
PNOA-H_AMS_1956-57_33k_ES_PAN_21mic_H50_0317_fot_32B-39523_W_tif
  70
32
  10
531934.000
  20
4634671.500
  30
1034.033
  0
VERTEX
  8
PNOA-H_AMS_1956-57_33k_ES_PAN_21mic_H50_0317_fot_32B-39523_W_tif
  70
32
  10
531763.505
  20
4634647.505
  30
1040.203
  0
VERTEX
  8
PNOA-H_AMS_1956-57_33k_ES_PAN_21mic_H50_0317_fot_32B-39523_W_tif
  70
32
  10
529845.000
  20
4634377.500
  30
1109.627
  0
VERTEX
  8
PNOA-H_AMS_1956-57_33k_ES_PAN_21mic_H50_0317_fot_32B-39523_W_tif
  70
32
  10
529844.890
  20
4634377.555
  30
1109.631
  0
VERTEX
  8
PNOA-H_AMS_1956-57_33k_ES_PAN_21mic_H50_0317_fot_32B-39523_W_tif
  70
32
  10
529844.507
  20
4634377.745
  30
1109.646
  0
VERTEX
  8
PNOA-H_AMS_1956-57_33k_ES_PAN_21mic_H50_0317_fot_32B-39523_W_tif
  70
32
  10
529329.500
  20
4634634.000
  30
1129.209
  0
VERTEX
  8
PNOA-H_AMS_1956-57_33k_ES_PAN_21mic_H50_0317_fot_32B-39523_W_tif
  70
32
  10
529329.379
  20
4634634.483
  30
1129.069
  0
VERTEX
  8
PNOA-H_AMS_1956-57_33k_ES_PAN_21mic_H50_0317_fot_32B-39523_W_tif
  70
32
  10
529328.985
  20
4634636.062
  30
1128.61
  0
VERTEX
  8
PNOA-H_AMS_1956-57_33k_ES_PAN_21mic_H50_0317_fot_32B-39523_W_tif
  70
32
  10
529328.500
  20
4634638.000
  30
1128.048
  0
VERTEX
  8
PNOA-H_AMS_1956-57_33k_ES_PAN_21mic_H50_0317_fot_32B-39523_W_tif
  70
32
  10
529290.500
  20
4638520.500
  30
1039.047
  0
VERTEX
  8
PNOA-H_AMS_1956-57_33k_ES_PAN_21mic_H50_0317_fot_32B-39523_W_tif
  70
32
  10
529820.700
  20
4638695.100
  30
1083.082
  0
VERTEX
  8
PNOA-H_AMS_1956-57_33k_ES_PAN_21mic_H50_0317_fot_32B-39523_W_tif
  70
32
  10
530616.000
  20
4638957.000
  30
1149.135
  0
VERTEX
  8
PNOA-H_AMS_1956-57_33k_ES_PAN_21mic_H50_0317_fot_32B-39523_W_tif
  70
32
  10
530616.955
  20
4638956.821
  30
1149.224
  0
VERTEX
  8
PNOA-H_AMS_1956-57_33k_ES_PAN_21mic_H50_0317_fot_32B-39523_W_tif
  70
32
  10
530619.817
  20
4638956.284
  30
1149.491
  0
VERTEX
  8
PNOA-H_AMS_1956-57_33k_ES_PAN_21mic_H50_0317_fot_32B-39523_W_tif
  70
32
  10
530624.000
  20
4638955.500
  30
1149.88
  0
VERTEX
  8
PNOA-H_AMS_1956-57_33k_ES_PAN_21mic_H50_0317_fot_32B-39523_W_tif
  70
32
  10
530877.835
  20
4638876.592
  30
1193.615
  0
SEQEND
  8
PNOA-H_AMS_1956-57_33k_ES_PAN_21mic_H50_0317_fot_32B-39523_W_tif
  0
INSERT
  8
FeatureAttribs
  2
FEATURE
  41
1
  42
1
  43
1
  50
0
  10
527967.977
  20
4636626.000
 66
1
  0
ATTRIB
  8
FeatureAttribs
 70
0
  1
PNOA-H_AMS_1956-57_33k_ES_PAN_21mic_H50_0317_fot_32B-39524_W.tif
  2
NAME
  10
527967.977
  20
4636626.000
 40
33.37608
  0
SEQEND
  0
POLYLINE
  8
PNOA-H_AMS_1956-57_33k_ES_PAN_21mic_H50_0317_fot_32B-39524_W_tif
  70
9
  66
1
  0
VERTEX
  8
PNOA-H_AMS_1956-57_33k_ES_PAN_21mic_H50_0317_fot_32B-39524_W_tif
  70
32
  10
529264.273
  20
4634625.268
  30
1131.813
  0
VERTEX
  8
PNOA-H_AMS_1956-57_33k_ES_PAN_21mic_H50_0317_fot_32B-39524_W_tif
  70
32
  10
527110.000
  20
4634318.000
  30
1223.744
  0
VERTEX
  8
PNOA-H_AMS_1956-57_33k_ES_PAN_21mic_H50_0317_fot_32B-39524_W_tif
  70
32
  10
527109.780
  20
4634318.111
  30
1223.765
  0
VERTEX
  8
PNOA-H_AMS_1956-57_33k_ES_PAN_21mic_H50_0317_fot_32B-39524_W_tif
  70
32
  10
527108.384
  20
4634318.818
  30
1223.9
  0
VERTEX
  8
PNOA-H_AMS_1956-57_33k_ES_PAN_21mic_H50_0317_fot_32B-39524_W_tif
  70
32
  10
527017.150
  20
4634364.996
  30
1232.722
  0
VERTEX
  8
PNOA-H_AMS_1956-57_33k_ES_PAN_21mic_H50_0317_fot_32B-39524_W_tif
  70
32
  10
526714.225
  20
4634518.320
  30
1262.012
  0
VERTEX
  8
PNOA-H_AMS_1956-57_33k_ES_PAN_21mic_H50_0317_fot_32B-39524_W_tif
  70
32
  10
526633.820
  20
4634559.017
  30
1269.787
  0
VERTEX
  8
PNOA-H_AMS_1956-57_33k_ES_PAN_21mic_H50_0317_fot_32B-39524_W_tif
  70
32
  10
526622.000
  20
4634565.000
  30
1270.93
  0
VERTEX
  8
PNOA-H_AMS_1956-57_33k_ES_PAN_21mic_H50_0317_fot_32B-39524_W_tif
  70
32
  10
526631.000
  20
4638525.000
  30
1047.563
  0
VERTEX
  8
PNOA-H_AMS_1956-57_33k_ES_PAN_21mic_H50_0317_fot_32B-39524_W_tif
  70
32
  10
526631.483
  20
4638525.155
  30
1047.557
  0
VERTEX
  8
PNOA-H_AMS_1956-57_33k_ES_PAN_21mic_H50_0317_fot_32B-39524_W_tif
  70
32
  10
526793.000
  20
4638577.000
  30
1045.202
  0
VERTEX
  8
PNOA-H_AMS_1956-57_33k_ES_PAN_21mic_H50_0317_fot_32B-39524_W_tif
  70
32
  10
526794.500
  20
4638577.500
  30
1045.196
  0
VERTEX
  8
PNOA-H_AMS_1956-57_33k_ES_PAN_21mic_H50_0317_fot_32B-39524_W_tif
  70
32
  10
527900.500
  20
4638931.500
  30
1055.796
  0
VERTEX
  8
PNOA-H_AMS_1956-57_33k_ES_PAN_21mic_H50_0317_fot_32B-39524_W_tif
  70
32
  10
527907.094
  20
4638933.070
  30
1055.905
  0
VERTEX
  8
PNOA-H_AMS_1956-57_33k_ES_PAN_21mic_H50_0317_fot_32B-39524_W_tif
  70
32
  10
527910.443
  20
4638933.867
  30
1055.961
  0
VERTEX
  8
PNOA-H_AMS_1956-57_33k_ES_PAN_21mic_H50_0317_fot_32B-39524_W_tif
  70
32
  10
527911.000
  20
4638934.000
  30
1055.97
  0
VERTEX
  8
PNOA-H_AMS_1956-57_33k_ES_PAN_21mic_H50_0317_fot_32B-39524_W_tif
  70
32
  10
529289.977
  20
4638520.657
  30
1039.053
  0
VERTEX
  8
PNOA-H_AMS_1956-57_33k_ES_PAN_21mic_H50_0317_fot_32B-39524_W_tif
  70
32
  10
529290.500
  20
4638520.500
  30
1039.047
  0
VERTEX
  8
PNOA-H_AMS_1956-57_33k_ES_PAN_21mic_H50_0317_fot_32B-39524_W_tif
  70
32
  10
529328.985
  20
4634636.062
  30
1129.015
  0
VERTEX
  8
PNOA-H_AMS_1956-57_33k_ES_PAN_21mic_H50_0317_fot_32B-39524_W_tif
  70
32
  10
529329.000
  20
4634634.500
  30
1129.051
  0
VERTEX
  8
PNOA-H_AMS_1956-57_33k_ES_PAN_21mic_H50_0317_fot_32B-39524_W_tif
  70
32
  10
529264.273
  20
4634625.268
  30
1131.813
  0
SEQEND
  8
PNOA-H_AMS_1956-57_33k_ES_PAN_21mic_H50_0317_fot_32B-39524_W_tif
  0
INSERT
  8
FeatureAttribs
  2
FEATURE
  41
1
  42
1
  43
1
  50
0
  10
528518.937
  20
4632979.140
 66
1
  0
ATTRIB
  8
FeatureAttribs
 70
0
  1
PNOA-H_AMS_1956-57_33k_ES_PAN_21mic_H50_0317_fot_33B-38731_E.tif
  2
NAME
  10
528518.937
  20
4632979.140
 40
33.37608
  0
SEQEND
  0
POLYLINE
  8
PNOA-H_AMS_1956-57_33k_ES_PAN_21mic_H50_0317_fot_33B-38731_E_tif
  70
9
  66
1
  0
VERTEX
  8
PNOA-H_AMS_1956-57_33k_ES_PAN_21mic_H50_0317_fot_33B-38731_E_tif
  70
32
  10
527210.472
  20
4631323.780
  30
0
  0
VERTEX
  8
PNOA-H_AMS_1956-57_33k_ES_PAN_21mic_H50_0317_fot_33B-38731_E_tif
  70
32
  10
527210.334
  20
4631323.780
  30
1154.362
  0
VERTEX
  8
PNOA-H_AMS_1956-57_33k_ES_PAN_21mic_H50_0317_fot_33B-38731_E_tif
  70
32
  10
527109.000
  20
4634318.000
  30
1223.687
  0
VERTEX
  8
PNOA-H_AMS_1956-57_33k_ES_PAN_21mic_H50_0317_fot_33B-38731_E_tif
  70
32
  10
527109.121
  20
4634318.017
  30
1223.68
  0
VERTEX
  8
PNOA-H_AMS_1956-57_33k_ES_PAN_21mic_H50_0317_fot_33B-38731_E_tif
  70
32
  10
527109.780
  20
4634318.111
  30
1223.642
  0
VERTEX
  8
PNOA-H_AMS_1956-57_33k_ES_PAN_21mic_H50_0317_fot_33B-38731_E_tif
  70
32
  10
528838.500
  20
4634565.000
  30
1123.935
  0
VERTEX
  8
PNOA-H_AMS_1956-57_33k_ES_PAN_21mic_H50_0317_fot_33B-38731_E_tif
  70
32
  10
528842.000
  20
4634565.500
  30
1124.261
  0
VERTEX
  8
PNOA-H_AMS_1956-57_33k_ES_PAN_21mic_H50_0317_fot_33B-38731_E_tif
  70
32
  10
529264.273
  20
4634625.268
  30
1128.433
  0
VERTEX
  8
PNOA-H_AMS_1956-57_33k_ES_PAN_21mic_H50_0317_fot_33B-38731_E_tif
  70
32
  10
529329.379
  20
4634634.483
  30
1129.077
  0
VERTEX
  8
PNOA-H_AMS_1956-57_33k_ES_PAN_21mic_H50_0317_fot_33B-38731_E_tif
  70
32
  10
529329.500
  20
4634634.500
  30
1129.078
  0
VERTEX
  8
PNOA-H_AMS_1956-57_33k_ES_PAN_21mic_H50_0317_fot_33B-38731_E_tif
  70
32
  10
529844.500
  20
4634378.000
  30
1109.597
  0
VERTEX
  8
PNOA-H_AMS_1956-57_33k_ES_PAN_21mic_H50_0317_fot_33B-38731_E_tif
  70
32
  10
529844.507
  20
4634377.745
  30
1109.596
  0
VERTEX
  8
PNOA-H_AMS_1956-57_33k_ES_PAN_21mic_H50_0317_fot_33B-38731_E_tif
  70
32
  10
529844.514
  20
4634377.502
  30
1109.595
  0
VERTEX
  8
PNOA-H_AMS_1956-57_33k_ES_PAN_21mic_H50_0317_fot_33B-38731_E_tif
  70
32
  10
529929.488
  20
4631334.584
  30
1097.802
  0
VERTEX
  8
PNOA-H_AMS_1956-57_33k_ES_PAN_21mic_H50_0317_fot_33B-38731_E_tif
  70
32
  10
529929.152
  20
4631334.582
  30
0
  0
VERTEX
  8
PNOA-H_AMS_1956-57_33k_ES_PAN_21mic_H50_0317_fot_33B-38731_E_tif
  70
32
  10
529407.676
  20
4631332.306
  30
0
  0
VERTEX
  8
PNOA-H_AMS_1956-57_33k_ES_PAN_21mic_H50_0317_fot_33B-38731_E_tif
  70
32
  10
527210.472
  20
4631323.780
  30
0
  0
SEQEND
  8
PNOA-H_AMS_1956-57_33k_ES_PAN_21mic_H50_0317_fot_33B-38731_E_tif
  0
INSERT
  8
FeatureAttribs
  2
FEATURE
  41
1
  42
1
  43
1
  50
0
  10
531237.017
  20
4633003.041
 66
1
  0
ATTRIB
  8
FeatureAttribs
 70
0
  1
PNOA-H_AMS_1956-57_33k_ES_PAN_21mic_H50_0317_fot_33B-38732_E.tif
  2
NAME
  10
531237.017
  20
4633003.041
 40
33.37608
  0
SEQEND
  0
POLYLINE
  8
PNOA-H_AMS_1956-57_33k_ES_PAN_21mic_H50_0317_fot_33B-38732_E_tif
  70
9
  66
1
  0
VERTEX
  8
PNOA-H_AMS_1956-57_33k_ES_PAN_21mic_H50_0317_fot_33B-38732_E_tif
  70
32
  10
529929.488
  20
4631334.584
  30
0
  0
VERTEX
  8
PNOA-H_AMS_1956-57_33k_ES_PAN_21mic_H50_0317_fot_33B-38732_E_tif
  70
32
  10
529929.152
  20
4631334.582
  30
1098.007
  0
VERTEX
  8
PNOA-H_AMS_1956-57_33k_ES_PAN_21mic_H50_0317_fot_33B-38732_E_tif
  70
32
  10
529844.500
  20
4634377.500
  30
1109.625
  0
VERTEX
  8
PNOA-H_AMS_1956-57_33k_ES_PAN_21mic_H50_0317_fot_33B-38732_E_tif
  70
32
  10
529844.514
  20
4634377.502
  30
1109.624
  0
VERTEX
  8
PNOA-H_AMS_1956-57_33k_ES_PAN_21mic_H50_0317_fot_33B-38732_E_tif
  70
32
  10
529844.890
  20
4634377.555
  30
1109.598
  0
VERTEX
  8
PNOA-H_AMS_1956-57_33k_ES_PAN_21mic_H50_0317_fot_33B-38732_E_tif
  70
32
  10
530887.000
  20
4634524.500
  30
1035.25
  0
VERTEX
  8
PNOA-H_AMS_1956-57_33k_ES_PAN_21mic_H50_0317_fot_33B-38732_E_tif
  70
32
  10
530890.500
  20
4634525.000
  30
1035.238
  0
VERTEX
  8
PNOA-H_AMS_1956-57_33k_ES_PAN_21mic_H50_0317_fot_33B-38732_E_tif
  70
32
  10
531763.505
  20
4634647.505
  30
1034.231
  0
VERTEX
  8
PNOA-H_AMS_1956-57_33k_ES_PAN_21mic_H50_0317_fot_33B-38732_E_tif
  70
32
  10
531934.110
  20
4634671.445
  30
1034.035
  0
VERTEX
  8
PNOA-H_AMS_1956-57_33k_ES_PAN_21mic_H50_0317_fot_33B-38732_E_tif
  70
32
  10
531934.500
  20
4634671.500
  30
1034.034
  0
VERTEX
  8
PNOA-H_AMS_1956-57_33k_ES_PAN_21mic_H50_0317_fot_33B-38732_E_tif
  70
32
  10
532519.000
  20
4634382.000
  30
1030.751
  0
VERTEX
  8
PNOA-H_AMS_1956-57_33k_ES_PAN_21mic_H50_0317_fot_33B-38732_E_tif
  70
32
  10
532678.146
  20
4631346.583
  30
1053.742
  0
VERTEX
  8
PNOA-H_AMS_1956-57_33k_ES_PAN_21mic_H50_0317_fot_33B-38732_E_tif
  70
32
  10
529929.488
  20
4631334.584
  30
0
  0
SEQEND
  8
PNOA-H_AMS_1956-57_33k_ES_PAN_21mic_H50_0317_fot_33B-38732_E_tif
  0
INSERT
  8
FeatureAttribs
  2
FEATURE
  41
1
  42
1
  43
1
  50
0
  10
534006.837
  20
4633053.541
 66
1
  0
ATTRIB
  8
FeatureAttribs
 70
0
  1
PNOA-H_AMS_1956-57_33k_ES_PAN_21mic_H50_0317_fot_33B-38733_E.tif
  2
NAME
  10
534006.837
  20
4633053.541
 40
33.37608
  0
SEQEND
  0
POLYLINE
  8
PNOA-H_AMS_1956-57_33k_ES_PAN_21mic_H50_0317_fot_33B-38733_E_tif
  70
9
  66
1
  0
VERTEX
  8
PNOA-H_AMS_1956-57_33k_ES_PAN_21mic_H50_0317_fot_33B-38733_E_tif
  70
32
  10
532867.408
  20
4631347.409
  30
0
  0
VERTEX
  8
PNOA-H_AMS_1956-57_33k_ES_PAN_21mic_H50_0317_fot_33B-38733_E_tif
  70
32
  10
532678.146
  20
4631346.583
  30
1053.742
  0
VERTEX
  8
PNOA-H_AMS_1956-57_33k_ES_PAN_21mic_H50_0317_fot_33B-38733_E_tif
  70
32
  10
532519.000
  20
4634382.000
  30
1030.751
  0
VERTEX
  8
PNOA-H_AMS_1956-57_33k_ES_PAN_21mic_H50_0317_fot_33B-38733_E_tif
  70
32
  10
532937.000
  20
4634458.500
  30
1030.085
  0
VERTEX
  8
PNOA-H_AMS_1956-57_33k_ES_PAN_21mic_H50_0317_fot_33B-38733_E_tif
  70
32
  10
532939.500
  20
4634459.000
  30
1030.076
  0
VERTEX
  8
PNOA-H_AMS_1956-57_33k_ES_PAN_21mic_H50_0317_fot_33B-38733_E_tif
  70
32
  10
534106.150
  20
4634671.985
  30
1092.837
  0
VERTEX
  8
PNOA-H_AMS_1956-57_33k_ES_PAN_21mic_H50_0317_fot_33B-38733_E_tif
  70
32
  10
534590.276
  20
4634760.368
  30
1118.881
  0
VERTEX
  8
PNOA-H_AMS_1956-57_33k_ES_PAN_21mic_H50_0317_fot_33B-38733_E_tif
  70
32
  10
534591.000
  20
4634760.500
  30
1118.92
  0
VERTEX
  8
PNOA-H_AMS_1956-57_33k_ES_PAN_21mic_H50_0317_fot_33B-38733_E_tif
  70
32
  10
535403.201
  20
4634371.300
  30
1027.644
  0
VERTEX
  8
PNOA-H_AMS_1956-57_33k_ES_PAN_21mic_H50_0317_fot_33B-38733_E_tif
  70
32
  10
535407.503
  20
4634369.238
  30
1027.16
  0
VERTEX
  8
PNOA-H_AMS_1956-57_33k_ES_PAN_21mic_H50_0317_fot_33B-38733_E_tif
  70
32
  10
535408.000
  20
4634369.000
  30
1027.104
  0
VERTEX
  8
PNOA-H_AMS_1956-57_33k_ES_PAN_21mic_H50_0317_fot_33B-38733_E_tif
  70
32
  10
535446.940
  20
4631359.921
  30
1054.378
  0
VERTEX
  8
PNOA-H_AMS_1956-57_33k_ES_PAN_21mic_H50_0317_fot_33B-38733_E_tif
  70
32
  10
535446.794
  20
4631359.920
  30
0
  0
VERTEX
  8
PNOA-H_AMS_1956-57_33k_ES_PAN_21mic_H50_0317_fot_33B-38733_E_tif
  70
32
  10
532867.408
  20
4631347.409
  30
0
  0
SEQEND
  8
PNOA-H_AMS_1956-57_33k_ES_PAN_21mic_H50_0317_fot_33B-38733_E_tif
  0
INSERT
  8
FeatureAttribs
  2
FEATURE
  41
1
  42
1
  43
1
  50
0
  10
537556.360
  20
4640941.750
 66
1
  0
ATTRIB
  8
FeatureAttribs
 70
0
  1
PNOA-H_AMS_1956-57_33k_ES_PAN_21mic_H50_0317_fot_31B-36885_E.tif
  2
NAME
  10
537556.360
  20
4640941.750
 40
33.37608
  0
SEQEND
  0
POLYLINE
  8
PNOA-H_AMS_1956-57_33k_ES_PAN_21mic_H50_0317_fot_31B-36885_E_tif
  70
9
  66
1
  0
VERTEX
  8
PNOA-H_AMS_1956-57_33k_ES_PAN_21mic_H50_0317_fot_31B-36885_E_tif
  70
32
  10
538404.000
  20
4643367.000
  30
1319.305
  0
VERTEX
  8
PNOA-H_AMS_1956-57_33k_ES_PAN_21mic_H50_0317_fot_31B-36885_E_tif
  70
32
  10
538409.500
  20
4643367.000
  30
1318.7
  0
VERTEX
  8
PNOA-H_AMS_1956-57_33k_ES_PAN_21mic_H50_0317_fot_31B-36885_E_tif
  70
32
  10
538411.000
  20
4643367.000
  30
1318.535
  0
VERTEX
  8
PNOA-H_AMS_1956-57_33k_ES_PAN_21mic_H50_0317_fot_31B-36885_E_tif
  70
32
  10
538942.500
  20
4643139.000
  30
1332.728
  0
VERTEX
  8
PNOA-H_AMS_1956-57_33k_ES_PAN_21mic_H50_0317_fot_31B-36885_E_tif
  70
32
  10
538875.000
  20
4638909.500
  30
1098.82
  0
VERTEX
  8
PNOA-H_AMS_1956-57_33k_ES_PAN_21mic_H50_0317_fot_31B-36885_E_tif
  70
32
  10
538874.230
  20
4638909.317
  30
1098.907
  0
VERTEX
  8
PNOA-H_AMS_1956-57_33k_ES_PAN_21mic_H50_0317_fot_31B-36885_E_tif
  70
32
  10
537218.000
  20
4638516.500
  30
1285.928
  0
VERTEX
  8
PNOA-H_AMS_1956-57_33k_ES_PAN_21mic_H50_0317_fot_31B-36885_E_tif
  70
32
  10
537216.000
  20
4638516.500
  30
1286.368
  0
VERTEX
  8
PNOA-H_AMS_1956-57_33k_ES_PAN_21mic_H50_0317_fot_31B-36885_E_tif
  70
32
  10
537215.000
  20
4638516.500
  30
1286.588
  0
VERTEX
  8
PNOA-H_AMS_1956-57_33k_ES_PAN_21mic_H50_0317_fot_31B-36885_E_tif
  70
32
  10
537204.000
  20
4638520.500
  30
1287.569
  0
VERTEX
  8
PNOA-H_AMS_1956-57_33k_ES_PAN_21mic_H50_0317_fot_31B-36885_E_tif
  70
32
  10
536141.688
  20
4638924.928
  30
1402.938
  0
VERTEX
  8
PNOA-H_AMS_1956-57_33k_ES_PAN_21mic_H50_0317_fot_31B-36885_E_tif
  70
32
  10
536141.500
  20
4638925.000
  30
1402.958
  0
VERTEX
  8
PNOA-H_AMS_1956-57_33k_ES_PAN_21mic_H50_0317_fot_31B-36885_E_tif
  70
32
  10
536276.000
  20
4643177.500
  30
1121.004
  0
VERTEX
  8
PNOA-H_AMS_1956-57_33k_ES_PAN_21mic_H50_0317_fot_31B-36885_E_tif
  70
32
  10
538398.500
  20
4643366.500
  30
1319.795
  0
VERTEX
  8
PNOA-H_AMS_1956-57_33k_ES_PAN_21mic_H50_0317_fot_31B-36885_E_tif
  70
32
  10
538404.000
  20
4643367.000
  30
1319.305
  0
SEQEND
  8
PNOA-H_AMS_1956-57_33k_ES_PAN_21mic_H50_0317_fot_31B-36885_E_tif
  0
INSERT
  8
FeatureAttribs
  2
FEATURE
  41
1
  42
1
  43
1
  50
0
  10
534820.059
  20
4640948.500
 66
1
  0
ATTRIB
  8
FeatureAttribs
 70
0
  1
PNOA-H_AMS_1956-57_33k_ES_PAN_21mic_H50_0317_fot_31B-36884_E.tif
  2
NAME
  10
534820.059
  20
4640948.500
 40
33.37608
  0
SEQEND
  0
POLYLINE
  8
PNOA-H_AMS_1956-57_33k_ES_PAN_21mic_H50_0317_fot_31B-36884_E_tif
  70
9
  66
1
  0
VERTEX
  8
PNOA-H_AMS_1956-57_33k_ES_PAN_21mic_H50_0317_fot_31B-36884_E_tif
  70
32
  10
535901.749
  20
4638869.925
  30
1390.944
  0
VERTEX
  8
PNOA-H_AMS_1956-57_33k_ES_PAN_21mic_H50_0317_fot_31B-36884_E_tif
  70
32
  10
534570.000
  20
4638564.000
  30
1324.209
  0
VERTEX
  8
PNOA-H_AMS_1956-57_33k_ES_PAN_21mic_H50_0317_fot_31B-36884_E_tif
  70
32
  10
534569.617
  20
4638564.142
  30
1324.222
  0
VERTEX
  8
PNOA-H_AMS_1956-57_33k_ES_PAN_21mic_H50_0317_fot_31B-36884_E_tif
  70
32
  10
533468.000
  20
4638973.000
  30
1358.946
  0
VERTEX
  8
PNOA-H_AMS_1956-57_33k_ES_PAN_21mic_H50_0317_fot_31B-36884_E_tif
  70
32
  10
533398.000
  20
4643115.500
  30
1113.595
  0
VERTEX
  8
PNOA-H_AMS_1956-57_33k_ES_PAN_21mic_H50_0317_fot_31B-36884_E_tif
  70
32
  10
533398.066
  20
4643115.540
  30
1113.595
  0
VERTEX
  8
PNOA-H_AMS_1956-57_33k_ES_PAN_21mic_H50_0317_fot_31B-36884_E_tif
  70
32
  10
533568.543
  20
4643217.726
  30
1112.215
  0
VERTEX
  8
PNOA-H_AMS_1956-57_33k_ES_PAN_21mic_H50_0317_fot_31B-36884_E_tif
  70
32
  10
533569.000
  20
4643218.000
  30
1112.211
  0
VERTEX
  8
PNOA-H_AMS_1956-57_33k_ES_PAN_21mic_H50_0317_fot_31B-36884_E_tif
  70
32
  10
535920.500
  20
4643332.500
  30
1131.905
  0
VERTEX
  8
PNOA-H_AMS_1956-57_33k_ES_PAN_21mic_H50_0317_fot_31B-36884_E_tif
  70
32
  10
535931.000
  20
4643333.000
  30
1132.043
  0
VERTEX
  8
PNOA-H_AMS_1956-57_33k_ES_PAN_21mic_H50_0317_fot_31B-36884_E_tif
  70
32
  10
535933.293
  20
4643332.771
  30
1132.031
  0
VERTEX
  8
PNOA-H_AMS_1956-57_33k_ES_PAN_21mic_H50_0317_fot_31B-36884_E_tif
  70
32
  10
535939.235
  20
4643332.176
  30
1132.002
  0
VERTEX
  8
PNOA-H_AMS_1956-57_33k_ES_PAN_21mic_H50_0317_fot_31B-36884_E_tif
  70
32
  10
535941.000
  20
4643332.000
  30
1131.993
  0
VERTEX
  8
PNOA-H_AMS_1956-57_33k_ES_PAN_21mic_H50_0317_fot_31B-36884_E_tif
  70
32
  10
536276.000
  20
4643177.500
  30
1121.004
  0
VERTEX
  8
PNOA-H_AMS_1956-57_33k_ES_PAN_21mic_H50_0317_fot_31B-36884_E_tif
  70
32
  10
536141.500
  20
4638925.000
  30
1402.958
  0
VERTEX
  8
PNOA-H_AMS_1956-57_33k_ES_PAN_21mic_H50_0317_fot_31B-36884_E_tif
  70
32
  10
535901.749
  20
4638869.925
  30
1390.944
  0
SEQEND
  8
PNOA-H_AMS_1956-57_33k_ES_PAN_21mic_H50_0317_fot_31B-36884_E_tif
  0
INSERT
  8
FeatureAttribs
  2
FEATURE
  41
1
  42
1
  43
1
  50
0
  10
539320.141
  20
4640895.582
 66
1
  0
ATTRIB
  8
FeatureAttribs
 70
0
  1
PNOA-H_AMS_1956-57_33k_ES_PAN_21mic_H50_0318_fot_31B-36886_E.tif
  2
NAME
  10
539320.141
  20
4640895.582
 40
33.37608
  0
SEQEND
  0
POLYLINE
  8
PNOA-H_AMS_1956-57_33k_ES_PAN_21mic_H50_0318_fot_31B-36886_E_tif
  70
9
  66
1
  0
VERTEX
  8
PNOA-H_AMS_1956-57_33k_ES_PAN_21mic_H50_0318_fot_31B-36886_E_tif
  70
32
  10
539746.897
  20
4638545.889
  30
0
  0
VERTEX
  8
PNOA-H_AMS_1956-57_33k_ES_PAN_21mic_H50_0318_fot_31B-36886_E_tif
  70
32
  10
539746.899
  20
4638545.565
  30
1119.782
  0
VERTEX
  8
PNOA-H_AMS_1956-57_33k_ES_PAN_21mic_H50_0318_fot_31B-36886_E_tif
  70
32
  10
539083.431
  20
4638822.500
  30
1103.831
  0
VERTEX
  8
PNOA-H_AMS_1956-57_33k_ES_PAN_21mic_H50_0318_fot_31B-36886_E_tif
  70
32
  10
539017.447
  20
4638850.042
  30
1102.245
  0
VERTEX
  8
PNOA-H_AMS_1956-57_33k_ES_PAN_21mic_H50_0318_fot_31B-36886_E_tif
  70
32
  10
538877.240
  20
4638908.565
  30
1098.874
  0
VERTEX
  8
PNOA-H_AMS_1956-57_33k_ES_PAN_21mic_H50_0318_fot_31B-36886_E_tif
  70
32
  10
538875.000
  20
4638909.500
  30
1098.82
  0
VERTEX
  8
PNOA-H_AMS_1956-57_33k_ES_PAN_21mic_H50_0318_fot_31B-36886_E_tif
  70
32
  10
538942.000
  20
4643132.500
  30
1330.901
  0
VERTEX
  8
PNOA-H_AMS_1956-57_33k_ES_PAN_21mic_H50_0318_fot_31B-36886_E_tif
  70
32
  10
538942.500
  20
4643139.000
  30
1332.728
  0
VERTEX
  8
PNOA-H_AMS_1956-57_33k_ES_PAN_21mic_H50_0318_fot_31B-36886_E_tif
  70
32
  10
538944.500
  20
4643139.500
  30
1332.888
  0
VERTEX
  8
PNOA-H_AMS_1956-57_33k_ES_PAN_21mic_H50_0318_fot_31B-36886_E_tif
  70
32
  10
539079.500
  20
4643158.000
  30
1343.02
  0
VERTEX
  8
PNOA-H_AMS_1956-57_33k_ES_PAN_21mic_H50_0318_fot_31B-36886_E_tif
  70
32
  10
539083.000
  20
4643158.500
  30
1343.421
  0
VERTEX
  8
PNOA-H_AMS_1956-57_33k_ES_PAN_21mic_H50_0318_fot_31B-36886_E_tif
  70
32
  10
539720.638
  20
4643245.599
  30
1359.507
  0
VERTEX
  8
PNOA-H_AMS_1956-57_33k_ES_PAN_21mic_H50_0318_fot_31B-36886_E_tif
  70
32
  10
539720.640
  20
4643245.284
  30
0
  0
VERTEX
  8
PNOA-H_AMS_1956-57_33k_ES_PAN_21mic_H50_0318_fot_31B-36886_E_tif
  70
32
  10
539722.302
  20
4642947.968
  30
0
  0
VERTEX
  8
PNOA-H_AMS_1956-57_33k_ES_PAN_21mic_H50_0318_fot_31B-36886_E_tif
  70
32
  10
539735.228
  20
4640634.888
  30
0
  0
VERTEX
  8
PNOA-H_AMS_1956-57_33k_ES_PAN_21mic_H50_0318_fot_31B-36886_E_tif
  70
32
  10
539746.897
  20
4638545.889
  30
0
  0
SEQEND
  8
PNOA-H_AMS_1956-57_33k_ES_PAN_21mic_H50_0318_fot_31B-36886_E_tif
  0
INSERT
  8
FeatureAttribs
  2
FEATURE
  41
1
  42
1
  43
1
  50
0
  10
539040.196
  20
4644261.052
 66
1
  0
ATTRIB
  8
FeatureAttribs
 70
0
  1
PNOA-H_AMS_1956-57_33k_ES_PAN_21mic_H50_0317_fot_30D-50539_W.tif
  2
NAME
  10
539040.196
  20
4644261.052
 40
33.37608
  0
SEQEND
  0
POLYLINE
  8
PNOA-H_AMS_1956-57_33k_ES_PAN_21mic_H50_0317_fot_30D-50539_W_tif
  70
9
  66
1
  0
VERTEX
  8
PNOA-H_AMS_1956-57_33k_ES_PAN_21mic_H50_0317_fot_30D-50539_W_tif
  70
32
  10
538942.500
  20
4643139.000
  30
1332.763
  0
VERTEX
  8
PNOA-H_AMS_1956-57_33k_ES_PAN_21mic_H50_0317_fot_30D-50539_W_tif
  70
32
  10
538941.500
  20
4643139.000
  30
1332.776
  0
VERTEX
  8
PNOA-H_AMS_1956-57_33k_ES_PAN_21mic_H50_0317_fot_30D-50539_W_tif
  70
32
  10
538409.500
  20
4643367.000
  30
1318.695
  0
VERTEX
  8
PNOA-H_AMS_1956-57_33k_ES_PAN_21mic_H50_0317_fot_30D-50539_W_tif
  70
32
  10
538359.753
  20
4645370.000
  30
1425.034
  0
VERTEX
  8
PNOA-H_AMS_1956-57_33k_ES_PAN_21mic_H50_0317_fot_30D-50539_W_tif
  70
32
  10
539580.000
  20
4645370.000
  30
1402.687
  0
VERTEX
  8
PNOA-H_AMS_1956-57_33k_ES_PAN_21mic_H50_0317_fot_30D-50539_W_tif
  70
32
  10
539580.000
  20
4647800.527
  30
1412.313
  0
VERTEX
  8
PNOA-H_AMS_1956-57_33k_ES_PAN_21mic_H50_0317_fot_30D-50539_W_tif
  70
32
  10
539580.000
  20
4647800.772
  30
1412.314
  0
VERTEX
  8
PNOA-H_AMS_1956-57_33k_ES_PAN_21mic_H50_0317_fot_30D-50539_W_tif
  70
32
  10
539695.297
  20
4647777.396
  30
1403.383
  0
VERTEX
  8
PNOA-H_AMS_1956-57_33k_ES_PAN_21mic_H50_0317_fot_30D-50539_W_tif
  70
32
  10
539695.299
  20
4647777.190
  30
0
  0
VERTEX
  8
PNOA-H_AMS_1956-57_33k_ES_PAN_21mic_H50_0317_fot_30D-50539_W_tif
  70
32
  10
539696.435
  20
4647574.154
  30
0
  0
VERTEX
  8
PNOA-H_AMS_1956-57_33k_ES_PAN_21mic_H50_0317_fot_30D-50539_W_tif
  70
32
  10
539709.371
  20
4645261.057
  30
0
  0
VERTEX
  8
PNOA-H_AMS_1956-57_33k_ES_PAN_21mic_H50_0317_fot_30D-50539_W_tif
  70
32
  10
539720.638
  20
4643245.599
  30
0
  0
VERTEX
  8
PNOA-H_AMS_1956-57_33k_ES_PAN_21mic_H50_0317_fot_30D-50539_W_tif
  70
32
  10
539720.640
  20
4643245.284
  30
1355.316
  0
VERTEX
  8
PNOA-H_AMS_1956-57_33k_ES_PAN_21mic_H50_0317_fot_30D-50539_W_tif
  70
32
  10
538944.500
  20
4643139.000
  30
1332.739
  0
VERTEX
  8
PNOA-H_AMS_1956-57_33k_ES_PAN_21mic_H50_0317_fot_30D-50539_W_tif
  70
32
  10
538942.500
  20
4643139.000
  30
1332.763
  0
SEQEND
  8
PNOA-H_AMS_1956-57_33k_ES_PAN_21mic_H50_0317_fot_30D-50539_W_tif
  0
INSERT
  8
FeatureAttribs
  2
FEATURE
  41
1
  42
1
  43
1
  50
0
  10
534705.615
  20
4644294.000
 66
1
  0
ATTRIB
  8
FeatureAttribs
 70
0
  1
PNOA-H_AMS_1956-57_33k_ES_PAN_21mic_H50_0317_fot_30D-50541_W.tif
  2
NAME
  10
534705.615
  20
4644294.000
 40
33.37608
  0
SEQEND
  0
POLYLINE
  8
PNOA-H_AMS_1956-57_33k_ES_PAN_21mic_H50_0317_fot_30D-50541_W_tif
  70
9
  66
1
  0
VERTEX
  8
PNOA-H_AMS_1956-57_33k_ES_PAN_21mic_H50_0317_fot_30D-50541_W_tif
  70
32
  10
533578.000
  20
4643218.000
  30
1111.911
  0
VERTEX
  8
PNOA-H_AMS_1956-57_33k_ES_PAN_21mic_H50_0317_fot_30D-50541_W_tif
  70
32
  10
533569.000
  20
4643218.000
  30
1112.211
  0
VERTEX
  8
PNOA-H_AMS_1956-57_33k_ES_PAN_21mic_H50_0317_fot_30D-50541_W_tif
  70
32
  10
533568.766
  20
4643221.516
  30
1112.146
  0
VERTEX
  8
PNOA-H_AMS_1956-57_33k_ES_PAN_21mic_H50_0317_fot_30D-50541_W_tif
  70
32
  10
533568.500
  20
4643225.500
  30
1112.071
  0
VERTEX
  8
PNOA-H_AMS_1956-57_33k_ES_PAN_21mic_H50_0317_fot_30D-50541_W_tif
  70
32
  10
533430.372
  20
4645370.000
  30
1279.327
  0
VERTEX
  8
PNOA-H_AMS_1956-57_33k_ES_PAN_21mic_H50_0317_fot_30D-50541_W_tif
  70
32
  10
533430.721
  20
4645370.000
  30
1279.343
  0
VERTEX
  8
PNOA-H_AMS_1956-57_33k_ES_PAN_21mic_H50_0317_fot_30D-50541_W_tif
  70
32
  10
535881.744
  20
4645370.000
  30
1392.795
  0
VERTEX
  8
PNOA-H_AMS_1956-57_33k_ES_PAN_21mic_H50_0317_fot_30D-50541_W_tif
  70
32
  10
535881.940
  20
4645370.000
  30
1392.804
  0
VERTEX
  8
PNOA-H_AMS_1956-57_33k_ES_PAN_21mic_H50_0317_fot_30D-50541_W_tif
  70
32
  10
535938.000
  20
4643333.000
  30
1132.07
  0
VERTEX
  8
PNOA-H_AMS_1956-57_33k_ES_PAN_21mic_H50_0317_fot_30D-50541_W_tif
  70
32
  10
535933.293
  20
4643332.771
  30
1132.03
  0
VERTEX
  8
PNOA-H_AMS_1956-57_33k_ES_PAN_21mic_H50_0317_fot_30D-50541_W_tif
  70
32
  10
533578.000
  20
4643218.000
  30
1111.911
  0
SEQEND
  8
PNOA-H_AMS_1956-57_33k_ES_PAN_21mic_H50_0317_fot_30D-50541_W_tif
  0
INSERT
  8
FeatureAttribs
  2
FEATURE
  41
1
  42
1
  43
1
  50
0
  10
537149.394
  20
4644273.750
 66
1
  0
ATTRIB
  8
FeatureAttribs
 70
0
  1
PNOA-H_AMS_1956-57_33k_ES_PAN_21mic_H50_0317_fot_30D-50540_W.tif
  2
NAME
  10
537149.394
  20
4644273.750
 40
33.37608
  0
SEQEND
  0
POLYLINE
  8
PNOA-H_AMS_1956-57_33k_ES_PAN_21mic_H50_0317_fot_30D-50540_W_tif
  70
9
  66
1
  0
VERTEX
  8
PNOA-H_AMS_1956-57_33k_ES_PAN_21mic_H50_0317_fot_30D-50540_W_tif
  70
32
  10
536276.000
  20
4643177.500
  30
1121.011
  0
VERTEX
  8
PNOA-H_AMS_1956-57_33k_ES_PAN_21mic_H50_0317_fot_30D-50540_W_tif
  70
32
  10
536275.000
  20
4643177.500
  30
1120.932
  0
VERTEX
  8
PNOA-H_AMS_1956-57_33k_ES_PAN_21mic_H50_0317_fot_30D-50540_W_tif
  70
32
  10
535939.500
  20
4643332.000
  30
1131.991
  0
VERTEX
  8
PNOA-H_AMS_1956-57_33k_ES_PAN_21mic_H50_0317_fot_30D-50540_W_tif
  70
32
  10
535939.235
  20
4643332.176
  30
1132.005
  0
VERTEX
  8
PNOA-H_AMS_1956-57_33k_ES_PAN_21mic_H50_0317_fot_30D-50540_W_tif
  70
32
  10
535938.000
  20
4643333.000
  30
1132.07
  0
VERTEX
  8
PNOA-H_AMS_1956-57_33k_ES_PAN_21mic_H50_0317_fot_30D-50540_W_tif
  70
32
  10
535937.500
  20
4643337.000
  30
1132.391
  0
VERTEX
  8
PNOA-H_AMS_1956-57_33k_ES_PAN_21mic_H50_0317_fot_30D-50540_W_tif
  70
32
  10
535881.744
  20
4645370.000
  30
1392.708
  0
VERTEX
  8
PNOA-H_AMS_1956-57_33k_ES_PAN_21mic_H50_0317_fot_30D-50540_W_tif
  70
32
  10
535881.940
  20
4645370.000
  30
1392.711
  0
VERTEX
  8
PNOA-H_AMS_1956-57_33k_ES_PAN_21mic_H50_0317_fot_30D-50540_W_tif
  70
32
  10
538359.753
  20
4645370.000
  30
1425.034
  0
VERTEX
  8
PNOA-H_AMS_1956-57_33k_ES_PAN_21mic_H50_0317_fot_30D-50540_W_tif
  70
32
  10
538409.500
  20
4643367.000
  30
1318.695
  0
VERTEX
  8
PNOA-H_AMS_1956-57_33k_ES_PAN_21mic_H50_0317_fot_30D-50540_W_tif
  70
32
  10
536281.000
  20
4643177.500
  30
1121.402
  0
VERTEX
  8
PNOA-H_AMS_1956-57_33k_ES_PAN_21mic_H50_0317_fot_30D-50540_W_tif
  70
32
  10
536276.000
  20
4643177.500
  30
1121.011
  0
SEQEND
  8
PNOA-H_AMS_1956-57_33k_ES_PAN_21mic_H50_0317_fot_30D-50540_W_tif
  0
INSERT
  8
FeatureAttribs
  2
FEATURE
  41
1
  42
1
  43
1
  50
0
  10
538484.139
  20
4636616.750
 66
1
  0
ATTRIB
  8
FeatureAttribs
 70
0
  1
PNOA-H_AMS_1956-57_33k_ES_PAN_21mic_H50_0317_fot_32B-39520_W.tif
  2
NAME
  10
538484.139
  20
4636616.750
 40
33.37608
  0
SEQEND
  0
POLYLINE
  8
PNOA-H_AMS_1956-57_33k_ES_PAN_21mic_H50_0317_fot_32B-39520_W_tif
  70
9
  66
1
  0
VERTEX
  8
PNOA-H_AMS_1956-57_33k_ES_PAN_21mic_H50_0317_fot_32B-39520_W_tif
  70
32
  10
539017.447
  20
4638850.042
  30
1116.435
  0
VERTEX
  8
PNOA-H_AMS_1956-57_33k_ES_PAN_21mic_H50_0317_fot_32B-39520_W_tif
  70
32
  10
539083.000
  20
4638822.500
  30
1124.718
  0
VERTEX
  8
PNOA-H_AMS_1956-57_33k_ES_PAN_21mic_H50_0317_fot_32B-39520_W_tif
  70
32
  10
539083.431
  20
4638822.500
  30
1124.744
  0
VERTEX
  8
PNOA-H_AMS_1956-57_33k_ES_PAN_21mic_H50_0317_fot_32B-39520_W_tif
  70
32
  10
539084.000
  20
4638822.500
  30
1124.779
  0
VERTEX
  8
PNOA-H_AMS_1956-57_33k_ES_PAN_21mic_H50_0317_fot_32B-39520_W_tif
  70
32
  10
539746.897
  20
4638545.889
  30
1122.074
  0
VERTEX
  8
PNOA-H_AMS_1956-57_33k_ES_PAN_21mic_H50_0317_fot_32B-39520_W_tif
  70
32
  10
539746.899
  20
4638545.565
  30
0
  0
VERTEX
  8
PNOA-H_AMS_1956-57_33k_ES_PAN_21mic_H50_0317_fot_32B-39520_W_tif
  70
32
  10
539748.149
  20
4638321.816
  30
0
  0
VERTEX
  8
PNOA-H_AMS_1956-57_33k_ES_PAN_21mic_H50_0317_fot_32B-39520_W_tif
  70
32
  10
539761.064
  20
4636008.752
  30
0
  0
VERTEX
  8
PNOA-H_AMS_1956-57_33k_ES_PAN_21mic_H50_0317_fot_32B-39520_W_tif
  70
32
  10
539767.848
  20
4634793.297
  30
1083.852
  0
VERTEX
  8
PNOA-H_AMS_1956-57_33k_ES_PAN_21mic_H50_0317_fot_32B-39520_W_tif
  70
32
  10
539527.608
  20
4634712.757
  30
1078.794
  0
VERTEX
  8
PNOA-H_AMS_1956-57_33k_ES_PAN_21mic_H50_0317_fot_32B-39520_W_tif
  70
32
  10
538368.000
  20
4634324.000
  30
1054.378
  0
VERTEX
  8
PNOA-H_AMS_1956-57_33k_ES_PAN_21mic_H50_0317_fot_32B-39520_W_tif
  70
32
  10
538367.997
  20
4634324.001
  30
1054.378
  0
VERTEX
  8
PNOA-H_AMS_1956-57_33k_ES_PAN_21mic_H50_0317_fot_32B-39520_W_tif
  70
32
  10
537205.500
  20
4634816.500
  30
1051.077
  0
VERTEX
  8
PNOA-H_AMS_1956-57_33k_ES_PAN_21mic_H50_0317_fot_32B-39520_W_tif
  70
32
  10
537216.000
  20
4638516.500
  30
1286.364
  0
VERTEX
  8
PNOA-H_AMS_1956-57_33k_ES_PAN_21mic_H50_0317_fot_32B-39520_W_tif
  70
32
  10
538873.500
  20
4638909.500
  30
1098.848
  0
VERTEX
  8
PNOA-H_AMS_1956-57_33k_ES_PAN_21mic_H50_0317_fot_32B-39520_W_tif
  70
32
  10
538874.230
  20
4638909.317
  30
1098.867
  0
VERTEX
  8
PNOA-H_AMS_1956-57_33k_ES_PAN_21mic_H50_0317_fot_32B-39520_W_tif
  70
32
  10
538877.240
  20
4638908.565
  30
1098.945
  0
VERTEX
  8
PNOA-H_AMS_1956-57_33k_ES_PAN_21mic_H50_0317_fot_32B-39520_W_tif
  70
32
  10
538879.500
  20
4638908.000
  30
1099.005
  0
VERTEX
  8
PNOA-H_AMS_1956-57_33k_ES_PAN_21mic_H50_0317_fot_32B-39520_W_tif
  70
32
  10
539017.447
  20
4638850.042
  30
1116.435
  0
SEQEND
  8
PNOA-H_AMS_1956-57_33k_ES_PAN_21mic_H50_0317_fot_32B-39520_W_tif
  0
INSERT
  8
FeatureAttribs
  2
FEATURE
  41
1
  42
1
  43
1
  50
0
  10
535895.139
  20
4636647.250
 66
1
  0
ATTRIB
  8
FeatureAttribs
 70
0
  1
PNOA-H_AMS_1956-57_33k_ES_PAN_21mic_H50_0317_fot_32B-39521_W.tif
  2
NAME
  10
535895.139
  20
4636647.250
 40
33.37608
  0
SEQEND
  0
POLYLINE
  8
PNOA-H_AMS_1956-57_33k_ES_PAN_21mic_H50_0317_fot_32B-39521_W_tif
  70
9
  66
1
  0
VERTEX
  8
PNOA-H_AMS_1956-57_33k_ES_PAN_21mic_H50_0317_fot_32B-39521_W_tif
  70
32
  10
537204.500
  20
4634816.000
  30
1051.09
  0
VERTEX
  8
PNOA-H_AMS_1956-57_33k_ES_PAN_21mic_H50_0317_fot_32B-39521_W_tif
  70
32
  10
535409.500
  20
4634369.500
  30
1027.087
  0
VERTEX
  8
PNOA-H_AMS_1956-57_33k_ES_PAN_21mic_H50_0317_fot_32B-39521_W_tif
  70
32
  10
535408.569
  20
4634369.766
  30
1027.104
  0
VERTEX
  8
PNOA-H_AMS_1956-57_33k_ES_PAN_21mic_H50_0317_fot_32B-39521_W_tif
  70
32
  10
535403.201
  20
4634371.300
  30
1027.197
  0
VERTEX
  8
PNOA-H_AMS_1956-57_33k_ES_PAN_21mic_H50_0317_fot_32B-39521_W_tif
  70
32
  10
535402.500
  20
4634371.500
  30
1027.209
  0
VERTEX
  8
PNOA-H_AMS_1956-57_33k_ES_PAN_21mic_H50_0317_fot_32B-39521_W_tif
  70
32
  10
534590.276
  20
4634760.368
  30
1118.772
  0
VERTEX
  8
PNOA-H_AMS_1956-57_33k_ES_PAN_21mic_H50_0317_fot_32B-39521_W_tif
  70
32
  10
534590.000
  20
4634760.500
  30
1118.803
  0
VERTEX
  8
PNOA-H_AMS_1956-57_33k_ES_PAN_21mic_H50_0317_fot_32B-39521_W_tif
  70
32
  10
534569.000
  20
4638564.000
  30
1324.105
  0
VERTEX
  8
PNOA-H_AMS_1956-57_33k_ES_PAN_21mic_H50_0317_fot_32B-39521_W_tif
  70
32
  10
534569.617
  20
4638564.142
  30
1324.104
  0
VERTEX
  8
PNOA-H_AMS_1956-57_33k_ES_PAN_21mic_H50_0317_fot_32B-39521_W_tif
  70
32
  10
534984.000
  20
4638659.500
  30
1323.551
  0
VERTEX
  8
PNOA-H_AMS_1956-57_33k_ES_PAN_21mic_H50_0317_fot_32B-39521_W_tif
  70
32
  10
534986.000
  20
4638660.000
  30
1323.67
  0
VERTEX
  8
PNOA-H_AMS_1956-57_33k_ES_PAN_21mic_H50_0317_fot_32B-39521_W_tif
  70
32
  10
535901.749
  20
4638869.925
  30
1386.376
  0
VERTEX
  8
PNOA-H_AMS_1956-57_33k_ES_PAN_21mic_H50_0317_fot_32B-39521_W_tif
  70
32
  10
536141.688
  20
4638924.928
  30
1402.805
  0
VERTEX
  8
PNOA-H_AMS_1956-57_33k_ES_PAN_21mic_H50_0317_fot_32B-39521_W_tif
  70
32
  10
536142.000
  20
4638925.000
  30
1402.827
  0
VERTEX
  8
PNOA-H_AMS_1956-57_33k_ES_PAN_21mic_H50_0317_fot_32B-39521_W_tif
  70
32
  10
537216.000
  20
4638516.500
  30
1286.364
  0
VERTEX
  8
PNOA-H_AMS_1956-57_33k_ES_PAN_21mic_H50_0317_fot_32B-39521_W_tif
  70
32
  10
537205.500
  20
4634816.500
  30
1051.077
  0
VERTEX
  8
PNOA-H_AMS_1956-57_33k_ES_PAN_21mic_H50_0317_fot_32B-39521_W_tif
  70
32
  10
537205.042
  20
4634816.271
  30
1051.083
  0
VERTEX
  8
PNOA-H_AMS_1956-57_33k_ES_PAN_21mic_H50_0317_fot_32B-39521_W_tif
  70
32
  10
537204.500
  20
4634816.000
  30
1051.09
  0
SEQEND
  8
PNOA-H_AMS_1956-57_33k_ES_PAN_21mic_H50_0317_fot_32B-39521_W_tif
  0
INSERT
  8
FeatureAttribs
  2
FEATURE
  41
1
  42
1
  43
1
  50
0
  10
536892.895
  20
4633088.210
 66
1
  0
ATTRIB
  8
FeatureAttribs
 70
0
  1
PNOA-H_AMS_1956-57_33k_ES_PAN_21mic_H50_0317_fot_33B-38734_E.tif
  2
NAME
  10
536892.895
  20
4633088.210
 40
33.37608
  0
SEQEND
  0
POLYLINE
  8
PNOA-H_AMS_1956-57_33k_ES_PAN_21mic_H50_0317_fot_33B-38734_E_tif
  70
9
  66
1
  0
VERTEX
  8
PNOA-H_AMS_1956-57_33k_ES_PAN_21mic_H50_0317_fot_33B-38734_E_tif
  70
32
  10
535446.940
  20
4631359.921
  30
0
  0
VERTEX
  8
PNOA-H_AMS_1956-57_33k_ES_PAN_21mic_H50_0317_fot_33B-38734_E_tif
  70
32
  10
535446.794
  20
4631359.920
  30
1054.358
  0
VERTEX
  8
PNOA-H_AMS_1956-57_33k_ES_PAN_21mic_H50_0317_fot_33B-38734_E_tif
  70
32
  10
535407.503
  20
4634369.238
  30
1027.116
  0
VERTEX
  8
PNOA-H_AMS_1956-57_33k_ES_PAN_21mic_H50_0317_fot_33B-38734_E_tif
  70
32
  10
535407.500
  20
4634369.500
  30
1027.114
  0
VERTEX
  8
PNOA-H_AMS_1956-57_33k_ES_PAN_21mic_H50_0317_fot_33B-38734_E_tif
  70
32
  10
535408.569
  20
4634369.766
  30
1027.128
  0
VERTEX
  8
PNOA-H_AMS_1956-57_33k_ES_PAN_21mic_H50_0317_fot_33B-38734_E_tif
  70
32
  10
537202.500
  20
4634816.000
  30
1051.137
  0
VERTEX
  8
PNOA-H_AMS_1956-57_33k_ES_PAN_21mic_H50_0317_fot_33B-38734_E_tif
  70
32
  10
537204.500
  20
4634816.500
  30
1051.098
  0
VERTEX
  8
PNOA-H_AMS_1956-57_33k_ES_PAN_21mic_H50_0317_fot_33B-38734_E_tif
  70
32
  10
537205.042
  20
4634816.271
  30
1051.099
  0
VERTEX
  8
PNOA-H_AMS_1956-57_33k_ES_PAN_21mic_H50_0317_fot_33B-38734_E_tif
  70
32
  10
538367.997
  20
4634324.001
  30
1054.378
  0
VERTEX
  8
PNOA-H_AMS_1956-57_33k_ES_PAN_21mic_H50_0317_fot_33B-38734_E_tif
  70
32
  10
538368.000
  20
4634324.000
  30
1054.378
  0
VERTEX
  8
PNOA-H_AMS_1956-57_33k_ES_PAN_21mic_H50_0317_fot_33B-38734_E_tif
  70
32
  10
538352.635
  20
4631374.997
  30
1063.901
  0
VERTEX
  8
PNOA-H_AMS_1956-57_33k_ES_PAN_21mic_H50_0317_fot_33B-38734_E_tif
  70
32
  10
536327.142
  20
4631364.190
  30
0
  0
VERTEX
  8
PNOA-H_AMS_1956-57_33k_ES_PAN_21mic_H50_0317_fot_33B-38734_E_tif
  70
32
  10
535446.940
  20
4631359.921
  30
0
  0
SEQEND
  8
PNOA-H_AMS_1956-57_33k_ES_PAN_21mic_H50_0317_fot_33B-38734_E_tif
  0
INSERT
  8
FeatureAttribs
  2
FEATURE
  41
1
  42
1
  43
1
  50
0
  10
539069.462
  20
4633084.022
 66
1
  0
ATTRIB
  8
FeatureAttribs
 70
0
  1
PNOA-H_AMS_1956-57_33k_ES_PAN_21mic_H50_0318_fot_33B-38735_E.tif
  2
NAME
  10
539069.462
  20
4633084.022
 40
33.37608
  0
SEQEND
  0
POLYLINE
  8
PNOA-H_AMS_1956-57_33k_ES_PAN_21mic_H50_0318_fot_33B-38735_E_tif
  70
9
  66
1
  0
VERTEX
  8
PNOA-H_AMS_1956-57_33k_ES_PAN_21mic_H50_0318_fot_33B-38735_E_tif
  70
32
  10
539786.879
  20
4631382.649
  30
0
  0
VERTEX
  8
PNOA-H_AMS_1956-57_33k_ES_PAN_21mic_H50_0318_fot_33B-38735_E_tif
  70
32
  10
538352.635
  20
4631374.997
  30
1063.906
  0
VERTEX
  8
PNOA-H_AMS_1956-57_33k_ES_PAN_21mic_H50_0318_fot_33B-38735_E_tif
  70
32
  10
538367.997
  20
4634324.001
  30
1054.396
  0
VERTEX
  8
PNOA-H_AMS_1956-57_33k_ES_PAN_21mic_H50_0318_fot_33B-38735_E_tif
  70
32
  10
538368.000
  20
4634324.500
  30
1054.395
  0
VERTEX
  8
PNOA-H_AMS_1956-57_33k_ES_PAN_21mic_H50_0318_fot_33B-38735_E_tif
  70
32
  10
539081.000
  20
4634563.500
  30
1124.213
  0
VERTEX
  8
PNOA-H_AMS_1956-57_33k_ES_PAN_21mic_H50_0318_fot_33B-38735_E_tif
  70
32
  10
539082.500
  20
4634564.000
  30
1124.397
  0
VERTEX
  8
PNOA-H_AMS_1956-57_33k_ES_PAN_21mic_H50_0318_fot_33B-38735_E_tif
  70
32
  10
539527.608
  20
4634712.757
  30
1101.801
  0
VERTEX
  8
PNOA-H_AMS_1956-57_33k_ES_PAN_21mic_H50_0318_fot_33B-38735_E_tif
  70
32
  10
539767.849
  20
4634793.046
  30
1089.604
  0
VERTEX
  8
PNOA-H_AMS_1956-57_33k_ES_PAN_21mic_H50_0318_fot_33B-38735_E_tif
  70
32
  10
539773.974
  20
4633695.696
  30
0
  0
VERTEX
  8
PNOA-H_AMS_1956-57_33k_ES_PAN_21mic_H50_0318_fot_33B-38735_E_tif
  70
32
  10
539786.879
  20
4631382.649
  30
0
  0
SEQEND
  8
PNOA-H_AMS_1956-57_33k_ES_PAN_21mic_H50_0318_fot_33B-38735_E_tif
  0
ENDSEC
  0
EOF
