  0
SECTION
  2
HEADER
  9
$ACADVER
  1
AC1009
  9
$LUNITS
  70
2
  9
$LIMMIN
  10
484431.239
  20
4631271.895
  9
$LIMMAX
  10
512109.036
  20
4649793.226
  9
$EXTMIN
  10
484431.239
  20
4631271.895
  9
$EXTMAX
  10
512109.036
  20
4649793.226
  999
Created by Global Mapper
  999
Projection: UTM
  999
Datum: ETRS89
  999
Ground Units: meters
  999
ZONE: 30
  0
ENDSEC
  0
SECTION
  2
TABLES
  0
ENDSEC
  0
SECTION
  2
BLOCKS
  0
BLOCK
  8
FeatureAttribs
  70
0
  2
FEATURE
  3
FEATURE
  10
0.00000000
  20
0.00000000
  0
ATTDEF
  8
FeatureAttribs
  70
0
  1
 
  2
NAME
  3
NAME
  10
0.00000000
  20
0.00000000
  40
1.00000000
  0
ENDBLK
  0
ENDSEC
  0
SECTION
  2
ENTITIES
  0
INSERT
  8
FeatureAttribs
  2
FEATURE
  41
1
  42
1
  43
1
  50
0
  10
498041.246
  20
4645518.250
 66
1
  0
ATTRIB
  8
FeatureAttribs
 70
0
  1
PNOA-H_AMS_1956-57_33k_ES_PAN_21mic_H50_0316_fot_30D-50556_W.tif
  2
NAME
  10
498041.246
  20
4645518.250
 40
33.30316
  0
SEQEND
  0
POLYLINE
  8
PNOA-H_AMS_1956-57_33k_ES_PAN_21mic_H50_0316_fot_30D-50556_W_tif
  70
9
  66
1
  0
VERTEX
  8
PNOA-H_AMS_1956-57_33k_ES_PAN_21mic_H50_0316_fot_30D-50556_W_tif
  70
32
  10
499356.335
  20
4643436.438
  30
1312.728
  0
VERTEX
  8
PNOA-H_AMS_1956-57_33k_ES_PAN_21mic_H50_0316_fot_30D-50556_W_tif
  70
32
  10
498408.500
  20
4643079.500
  30
1333.141
  0
VERTEX
  8
PNOA-H_AMS_1956-57_33k_ES_PAN_21mic_H50_0316_fot_30D-50556_W_tif
  70
32
  10
498408.192
  20
4643079.572
  30
1333.109
  0
VERTEX
  8
PNOA-H_AMS_1956-57_33k_ES_PAN_21mic_H50_0316_fot_30D-50556_W_tif
  70
32
  10
498407.998
  20
4643079.618
  30
1333.089
  0
VERTEX
  8
PNOA-H_AMS_1956-57_33k_ES_PAN_21mic_H50_0316_fot_30D-50556_W_tif
  70
32
  10
496635.793
  20
4643496.431
  30
1147.326
  0
VERTEX
  8
PNOA-H_AMS_1956-57_33k_ES_PAN_21mic_H50_0316_fot_30D-50556_W_tif
  70
32
  10
496635.500
  20
4643496.500
  30
1147.295
  0
VERTEX
  8
PNOA-H_AMS_1956-57_33k_ES_PAN_21mic_H50_0316_fot_30D-50556_W_tif
  70
32
  10
496749.000
  20
4647734.500
  30
1121.324
  0
VERTEX
  8
PNOA-H_AMS_1956-57_33k_ES_PAN_21mic_H50_0316_fot_30D-50556_W_tif
  70
32
  10
496749.500
  20
4647739.000
  30
1121.734
  0
VERTEX
  8
PNOA-H_AMS_1956-57_33k_ES_PAN_21mic_H50_0316_fot_30D-50556_W_tif
  70
32
  10
496749.752
  20
4647739.084
  30
1121.725
  0
VERTEX
  8
PNOA-H_AMS_1956-57_33k_ES_PAN_21mic_H50_0316_fot_30D-50556_W_tif
  70
32
  10
496751.000
  20
4647739.500
  30
1121.682
  0
VERTEX
  8
PNOA-H_AMS_1956-57_33k_ES_PAN_21mic_H50_0316_fot_30D-50556_W_tif
  70
32
  10
498696.000
  20
4647956.500
  30
1146.302
  0
VERTEX
  8
PNOA-H_AMS_1956-57_33k_ES_PAN_21mic_H50_0316_fot_30D-50556_W_tif
  70
32
  10
498700.500
  20
4647957.000
  30
1146.149
  0
VERTEX
  8
PNOA-H_AMS_1956-57_33k_ES_PAN_21mic_H50_0316_fot_30D-50556_W_tif
  70
32
  10
498700.597
  20
4647956.955
  30
1146.151
  0
VERTEX
  8
PNOA-H_AMS_1956-57_33k_ES_PAN_21mic_H50_0316_fot_30D-50556_W_tif
  70
32
  10
498701.013
  20
4647956.761
  30
1146.158
  0
VERTEX
  8
PNOA-H_AMS_1956-57_33k_ES_PAN_21mic_H50_0316_fot_30D-50556_W_tif
  70
32
  10
499429.500
  20
4647617.500
  30
1158.817
  0
VERTEX
  8
PNOA-H_AMS_1956-57_33k_ES_PAN_21mic_H50_0316_fot_30D-50556_W_tif
  70
32
  10
499356.500
  20
4643436.500
  30
1312.724
  0
VERTEX
  8
PNOA-H_AMS_1956-57_33k_ES_PAN_21mic_H50_0316_fot_30D-50556_W_tif
  70
32
  10
499356.335
  20
4643436.438
  30
1312.728
  0
SEQEND
  8
PNOA-H_AMS_1956-57_33k_ES_PAN_21mic_H50_0316_fot_30D-50556_W_tif
  0
INSERT
  8
FeatureAttribs
  2
FEATURE
  41
1
  42
1
  43
1
  50
0
  10
492533.574
  20
4645511.250
 66
1
  0
ATTRIB
  8
FeatureAttribs
 70
0
  1
PNOA-H_AMS_1956-57_33k_ES_PAN_21mic_H50_0316_fot_30D-50558_W.tif
  2
NAME
  10
492533.574
  20
4645511.250
 40
33.30316
  0
SEQEND
  0
POLYLINE
  8
PNOA-H_AMS_1956-57_33k_ES_PAN_21mic_H50_0316_fot_30D-50558_W_tif
  70
9
  66
1
  0
VERTEX
  8
PNOA-H_AMS_1956-57_33k_ES_PAN_21mic_H50_0316_fot_30D-50558_W_tif
  70
32
  10
491524.000
  20
4647937.500
  30
1079.062
  0
VERTEX
  8
PNOA-H_AMS_1956-57_33k_ES_PAN_21mic_H50_0316_fot_30D-50558_W_tif
  70
32
  10
491975.000
  20
4647913.000
  30
1116.235
  0
VERTEX
  8
PNOA-H_AMS_1956-57_33k_ES_PAN_21mic_H50_0316_fot_30D-50558_W_tif
  70
32
  10
491980.000
  20
4647913.000
  30
1116.542
  0
VERTEX
  8
PNOA-H_AMS_1956-57_33k_ES_PAN_21mic_H50_0316_fot_30D-50558_W_tif
  70
32
  10
493932.000
  20
4647809.000
  30
1090.198
  0
VERTEX
  8
PNOA-H_AMS_1956-57_33k_ES_PAN_21mic_H50_0316_fot_30D-50558_W_tif
  70
32
  10
493918.500
  20
4643495.500
  30
1227.009
  0
VERTEX
  8
PNOA-H_AMS_1956-57_33k_ES_PAN_21mic_H50_0316_fot_30D-50558_W_tif
  70
32
  10
493917.638
  20
4643495.234
  30
1226.998
  0
VERTEX
  8
PNOA-H_AMS_1956-57_33k_ES_PAN_21mic_H50_0316_fot_30D-50558_W_tif
  70
32
  10
492588.000
  20
4643085.000
  30
1210.011
  0
VERTEX
  8
PNOA-H_AMS_1956-57_33k_ES_PAN_21mic_H50_0316_fot_30D-50558_W_tif
  70
32
  10
492587.105
  20
4643085.187
  30
1210.188
  0
VERTEX
  8
PNOA-H_AMS_1956-57_33k_ES_PAN_21mic_H50_0316_fot_30D-50558_W_tif
  70
32
  10
492581.850
  20
4643086.281
  30
1211.227
  0
VERTEX
  8
PNOA-H_AMS_1956-57_33k_ES_PAN_21mic_H50_0316_fot_30D-50558_W_tif
  70
32
  10
492576.000
  20
4643087.500
  30
1212.384
  0
VERTEX
  8
PNOA-H_AMS_1956-57_33k_ES_PAN_21mic_H50_0316_fot_30D-50558_W_tif
  70
32
  10
491181.755
  20
4643471.930
  30
1109.892
  0
VERTEX
  8
PNOA-H_AMS_1956-57_33k_ES_PAN_21mic_H50_0316_fot_30D-50558_W_tif
  70
32
  10
491181.500
  20
4643472.000
  30
1109.873
  0
VERTEX
  8
PNOA-H_AMS_1956-57_33k_ES_PAN_21mic_H50_0316_fot_30D-50558_W_tif
  70
32
  10
491100.008
  20
4647715.591
  30
1122.372
  0
VERTEX
  8
PNOA-H_AMS_1956-57_33k_ES_PAN_21mic_H50_0316_fot_30D-50558_W_tif
  70
32
  10
491100.000
  20
4647716.000
  30
1122.374
  0
VERTEX
  8
PNOA-H_AMS_1956-57_33k_ES_PAN_21mic_H50_0316_fot_30D-50558_W_tif
  70
32
  10
491100.098
  20
4647716.051
  30
1122.364
  0
VERTEX
  8
PNOA-H_AMS_1956-57_33k_ES_PAN_21mic_H50_0316_fot_30D-50558_W_tif
  70
32
  10
491524.000
  20
4647937.500
  30
1079.062
  0
SEQEND
  8
PNOA-H_AMS_1956-57_33k_ES_PAN_21mic_H50_0316_fot_30D-50558_W_tif
  0
INSERT
  8
FeatureAttribs
  2
FEATURE
  41
1
  42
1
  43
1
  50
0
  10
495307.527
  20
4645531.500
 66
1
  0
ATTRIB
  8
FeatureAttribs
 70
0
  1
PNOA-H_AMS_1956-57_33k_ES_PAN_21mic_H50_0316_fot_30D-50557_W.tif
  2
NAME
  10
495307.527
  20
4645531.500
 40
33.30316
  0
SEQEND
  0
POLYLINE
  8
PNOA-H_AMS_1956-57_33k_ES_PAN_21mic_H50_0316_fot_30D-50557_W_tif
  70
9
  66
1
  0
VERTEX
  8
PNOA-H_AMS_1956-57_33k_ES_PAN_21mic_H50_0316_fot_30D-50557_W_tif
  70
32
  10
495430.513
  20
4643095.504
  30
1213.98
  0
VERTEX
  8
PNOA-H_AMS_1956-57_33k_ES_PAN_21mic_H50_0316_fot_30D-50557_W_tif
  70
32
  10
495430.500
  20
4643095.500
  30
1213.981
  0
VERTEX
  8
PNOA-H_AMS_1956-57_33k_ES_PAN_21mic_H50_0316_fot_30D-50557_W_tif
  70
32
  10
493970.208
  20
4643481.821
  30
1226.564
  0
VERTEX
  8
PNOA-H_AMS_1956-57_33k_ES_PAN_21mic_H50_0316_fot_30D-50557_W_tif
  70
32
  10
493918.851
  20
4643495.407
  30
1227.006
  0
VERTEX
  8
PNOA-H_AMS_1956-57_33k_ES_PAN_21mic_H50_0316_fot_30D-50557_W_tif
  70
32
  10
493918.500
  20
4643495.500
  30
1227.009
  0
VERTEX
  8
PNOA-H_AMS_1956-57_33k_ES_PAN_21mic_H50_0316_fot_30D-50557_W_tif
  70
32
  10
493932.000
  20
4647809.000
  30
1090.198
  0
VERTEX
  8
PNOA-H_AMS_1956-57_33k_ES_PAN_21mic_H50_0316_fot_30D-50557_W_tif
  70
32
  10
493932.040
  20
4647809.025
  30
1090.202
  0
VERTEX
  8
PNOA-H_AMS_1956-57_33k_ES_PAN_21mic_H50_0316_fot_30D-50557_W_tif
  70
32
  10
493985.500
  20
4647841.500
  30
1095.75
  0
VERTEX
  8
PNOA-H_AMS_1956-57_33k_ES_PAN_21mic_H50_0316_fot_30D-50557_W_tif
  70
32
  10
494011.000
  20
4647843.000
  30
1099.308
  0
VERTEX
  8
PNOA-H_AMS_1956-57_33k_ES_PAN_21mic_H50_0316_fot_30D-50557_W_tif
  70
32
  10
494020.000
  20
4647843.500
  30
1100.826
  0
VERTEX
  8
PNOA-H_AMS_1956-57_33k_ES_PAN_21mic_H50_0316_fot_30D-50557_W_tif
  70
32
  10
495638.472
  20
4647931.080
  30
1095.256
  0
VERTEX
  8
PNOA-H_AMS_1956-57_33k_ES_PAN_21mic_H50_0316_fot_30D-50557_W_tif
  70
32
  10
496310.594
  20
4647967.451
  30
1092.943
  0
VERTEX
  8
PNOA-H_AMS_1956-57_33k_ES_PAN_21mic_H50_0316_fot_30D-50557_W_tif
  70
32
  10
496311.500
  20
4647967.500
  30
1092.94
  0
VERTEX
  8
PNOA-H_AMS_1956-57_33k_ES_PAN_21mic_H50_0316_fot_30D-50557_W_tif
  70
32
  10
496749.412
  20
4647739.046
  30
1121.728
  0
VERTEX
  8
PNOA-H_AMS_1956-57_33k_ES_PAN_21mic_H50_0316_fot_30D-50557_W_tif
  70
32
  10
496749.500
  20
4647739.000
  30
1121.734
  0
VERTEX
  8
PNOA-H_AMS_1956-57_33k_ES_PAN_21mic_H50_0316_fot_30D-50557_W_tif
  70
32
  10
496635.500
  20
4643496.500
  30
1147.295
  0
VERTEX
  8
PNOA-H_AMS_1956-57_33k_ES_PAN_21mic_H50_0316_fot_30D-50557_W_tif
  70
32
  10
496457.760
  20
4643437.352
  30
1157.131
  0
VERTEX
  8
PNOA-H_AMS_1956-57_33k_ES_PAN_21mic_H50_0316_fot_30D-50557_W_tif
  70
32
  10
495430.513
  20
4643095.504
  30
1213.98
  0
SEQEND
  8
PNOA-H_AMS_1956-57_33k_ES_PAN_21mic_H50_0316_fot_30D-50557_W_tif
  0
INSERT
  8
FeatureAttribs
  2
FEATURE
  41
1
  42
1
  43
1
  50
0
  10
490276.743
  20
4648750.449
 66
1
  0
ATTRIB
  8
FeatureAttribs
 70
0
  1
PNOA-H_AMS_1956-57_33k_ES_PAN_21mic_H50_0278_fot_29C-50596_E.tif
  2
NAME
  10
490276.743
  20
4648750.449
 40
33.30316
  0
SEQEND
  0
POLYLINE
  8
PNOA-H_AMS_1956-57_33k_ES_PAN_21mic_H50_0278_fot_29C-50596_E_tif
  70
9
  66
1
  0
VERTEX
  8
PNOA-H_AMS_1956-57_33k_ES_PAN_21mic_H50_0278_fot_29C-50596_E_tif
  70
32
  10
491524.000
  20
4647937.000
  30
1079.083
  0
VERTEX
  8
PNOA-H_AMS_1956-57_33k_ES_PAN_21mic_H50_0278_fot_29C-50596_E_tif
  70
32
  10
491100.500
  20
4647716.000
  30
1122.372
  0
VERTEX
  8
PNOA-H_AMS_1956-57_33k_ES_PAN_21mic_H50_0278_fot_29C-50596_E_tif
  70
32
  10
491100.098
  20
4647716.051
  30
1122.367
  0
VERTEX
  8
PNOA-H_AMS_1956-57_33k_ES_PAN_21mic_H50_0278_fot_29C-50596_E_tif
  70
32
  10
491091.921
  20
4647717.089
  30
1122.272
  0
VERTEX
  8
PNOA-H_AMS_1956-57_33k_ES_PAN_21mic_H50_0278_fot_29C-50596_E_tif
  70
32
  10
489930.320
  20
4647864.500
  30
1108.766
  0
VERTEX
  8
PNOA-H_AMS_1956-57_33k_ES_PAN_21mic_H50_0278_fot_29C-50596_E_tif
  70
32
  10
489032.000
  20
4647978.500
  30
1098.321
  0
VERTEX
  8
PNOA-H_AMS_1956-57_33k_ES_PAN_21mic_H50_0278_fot_29C-50596_E_tif
  70
32
  10
489025.877
  20
4649784.899
  30
1134.115
  0
VERTEX
  8
PNOA-H_AMS_1956-57_33k_ES_PAN_21mic_H50_0278_fot_29C-50596_E_tif
  70
32
  10
491373.164
  20
4649781.472
  30
0
  0
VERTEX
  8
PNOA-H_AMS_1956-57_33k_ES_PAN_21mic_H50_0278_fot_29C-50596_E_tif
  70
32
  10
491524.234
  20
4649781.325
  30
1228.495
  0
VERTEX
  8
PNOA-H_AMS_1956-57_33k_ES_PAN_21mic_H50_0278_fot_29C-50596_E_tif
  70
32
  10
491524.000
  20
4647937.500
  30
1079.124
  0
VERTEX
  8
PNOA-H_AMS_1956-57_33k_ES_PAN_21mic_H50_0278_fot_29C-50596_E_tif
  70
32
  10
491524.000
  20
4647937.000
  30
1079.083
  0
SEQEND
  8
PNOA-H_AMS_1956-57_33k_ES_PAN_21mic_H50_0278_fot_29C-50596_E_tif
  0
INSERT
  8
FeatureAttribs
  2
FEATURE
  41
1
  42
1
  43
1
  50
0
  10
492740.967
  20
4648795.162
 66
1
  0
ATTRIB
  8
FeatureAttribs
 70
0
  1
PNOA-H_AMS_1956-57_33k_ES_PAN_21mic_H50_0278_fot_29C-50597_E.tif
  2
NAME
  10
492740.967
  20
4648795.162
 40
33.30316
  0
SEQEND
  0
POLYLINE
  8
PNOA-H_AMS_1956-57_33k_ES_PAN_21mic_H50_0278_fot_29C-50597_E_tif
  70
9
  66
1
  0
VERTEX
  8
PNOA-H_AMS_1956-57_33k_ES_PAN_21mic_H50_0278_fot_29C-50597_E_tif
  70
32
  10
493985.500
  20
4647841.000
  30
1095.779
  0
VERTEX
  8
PNOA-H_AMS_1956-57_33k_ES_PAN_21mic_H50_0278_fot_29C-50597_E_tif
  70
32
  10
493932.500
  20
4647809.000
  30
1090.195
  0
VERTEX
  8
PNOA-H_AMS_1956-57_33k_ES_PAN_21mic_H50_0278_fot_29C-50597_E_tif
  70
32
  10
493932.040
  20
4647809.025
  30
1090.193
  0
VERTEX
  8
PNOA-H_AMS_1956-57_33k_ES_PAN_21mic_H50_0278_fot_29C-50597_E_tif
  70
32
  10
491524.000
  20
4647937.500
  30
1079.062
  0
VERTEX
  8
PNOA-H_AMS_1956-57_33k_ES_PAN_21mic_H50_0278_fot_29C-50597_E_tif
  70
32
  10
491524.234
  20
4649781.325
  30
1228.461
  0
VERTEX
  8
PNOA-H_AMS_1956-57_33k_ES_PAN_21mic_H50_0278_fot_29C-50597_E_tif
  70
32
  10
493928.780
  20
4649778.985
  30
1303.213
  0
VERTEX
  8
PNOA-H_AMS_1956-57_33k_ES_PAN_21mic_H50_0278_fot_29C-50597_E_tif
  70
32
  10
493929.078
  20
4649778.985
  30
1303.222
  0
VERTEX
  8
PNOA-H_AMS_1956-57_33k_ES_PAN_21mic_H50_0278_fot_29C-50597_E_tif
  70
32
  10
493985.500
  20
4647848.000
  30
1095.893
  0
VERTEX
  8
PNOA-H_AMS_1956-57_33k_ES_PAN_21mic_H50_0278_fot_29C-50597_E_tif
  70
32
  10
493985.500
  20
4647841.500
  30
1095.787
  0
VERTEX
  8
PNOA-H_AMS_1956-57_33k_ES_PAN_21mic_H50_0278_fot_29C-50597_E_tif
  70
32
  10
493985.500
  20
4647841.000
  30
1095.779
  0
SEQEND
  8
PNOA-H_AMS_1956-57_33k_ES_PAN_21mic_H50_0278_fot_29C-50597_E_tif
  0
INSERT
  8
FeatureAttribs
  2
FEATURE
  41
1
  42
1
  43
1
  50
0
  10
497530.278
  20
4648758.190
 66
1
  0
ATTRIB
  8
FeatureAttribs
 70
0
  1
PNOA-H_AMS_1956-57_33k_ES_PAN_21mic_H50_0278_fot_29C-50599_E.tif
  2
NAME
  10
497530.278
  20
4648758.190
 40
33.30316
  0
SEQEND
  0
POLYLINE
  8
PNOA-H_AMS_1956-57_33k_ES_PAN_21mic_H50_0278_fot_29C-50599_E_tif
  70
9
  66
1
  0
VERTEX
  8
PNOA-H_AMS_1956-57_33k_ES_PAN_21mic_H50_0278_fot_29C-50599_E_tif
  70
32
  10
496330.578
  20
4649777.381
  30
0
  0
VERTEX
  8
PNOA-H_AMS_1956-57_33k_ES_PAN_21mic_H50_0278_fot_29C-50599_E_tif
  70
32
  10
498274.633
  20
4649776.435
  30
0
  0
VERTEX
  8
PNOA-H_AMS_1956-57_33k_ES_PAN_21mic_H50_0278_fot_29C-50599_E_tif
  70
32
  10
498792.485
  20
4649776.435
  30
1205.024
  0
VERTEX
  8
PNOA-H_AMS_1956-57_33k_ES_PAN_21mic_H50_0278_fot_29C-50599_E_tif
  70
32
  10
498701.000
  20
4647957.000
  30
1146.144
  0
VERTEX
  8
PNOA-H_AMS_1956-57_33k_ES_PAN_21mic_H50_0278_fot_29C-50599_E_tif
  70
32
  10
498700.597
  20
4647956.955
  30
1146.139
  0
VERTEX
  8
PNOA-H_AMS_1956-57_33k_ES_PAN_21mic_H50_0278_fot_29C-50599_E_tif
  70
32
  10
496749.752
  20
4647739.084
  30
1121.766
  0
VERTEX
  8
PNOA-H_AMS_1956-57_33k_ES_PAN_21mic_H50_0278_fot_29C-50599_E_tif
  70
32
  10
496749.412
  20
4647739.046
  30
1121.762
  0
VERTEX
  8
PNOA-H_AMS_1956-57_33k_ES_PAN_21mic_H50_0278_fot_29C-50599_E_tif
  70
32
  10
496749.000
  20
4647739.000
  30
1121.757
  0
VERTEX
  8
PNOA-H_AMS_1956-57_33k_ES_PAN_21mic_H50_0278_fot_29C-50599_E_tif
  70
32
  10
496310.594
  20
4647967.451
  30
1092.909
  0
VERTEX
  8
PNOA-H_AMS_1956-57_33k_ES_PAN_21mic_H50_0278_fot_29C-50599_E_tif
  70
32
  10
496310.500
  20
4647967.500
  30
1092.903
  0
VERTEX
  8
PNOA-H_AMS_1956-57_33k_ES_PAN_21mic_H50_0278_fot_29C-50599_E_tif
  70
32
  10
496330.575
  20
4649777.381
  30
1284.997
  0
VERTEX
  8
PNOA-H_AMS_1956-57_33k_ES_PAN_21mic_H50_0278_fot_29C-50599_E_tif
  70
32
  10
496330.578
  20
4649777.381
  30
0
  0
SEQEND
  8
PNOA-H_AMS_1956-57_33k_ES_PAN_21mic_H50_0278_fot_29C-50599_E_tif
  0
INSERT
  8
FeatureAttribs
  2
FEATURE
  41
1
  42
1
  43
1
  50
0
  10
495138.494
  20
4648810.242
 66
1
  0
ATTRIB
  8
FeatureAttribs
 70
0
  1
PNOA-H_AMS_1956-57_33k_ES_PAN_21mic_H50_0278_fot_29C-50598_E.tif
  2
NAME
  10
495138.494
  20
4648810.242
 40
33.30316
  0
SEQEND
  0
POLYLINE
  8
PNOA-H_AMS_1956-57_33k_ES_PAN_21mic_H50_0278_fot_29C-50598_E_tif
  70
9
  66
1
  0
VERTEX
  8
PNOA-H_AMS_1956-57_33k_ES_PAN_21mic_H50_0278_fot_29C-50598_E_tif
  70
32
  10
495638.472
  20
4647931.080
  30
1093.726
  0
VERTEX
  8
PNOA-H_AMS_1956-57_33k_ES_PAN_21mic_H50_0278_fot_29C-50598_E_tif
  70
32
  10
493985.500
  20
4647841.500
  30
1095.75
  0
VERTEX
  8
PNOA-H_AMS_1956-57_33k_ES_PAN_21mic_H50_0278_fot_29C-50598_E_tif
  70
32
  10
493928.780
  20
4649778.985
  30
1303.632
  0
VERTEX
  8
PNOA-H_AMS_1956-57_33k_ES_PAN_21mic_H50_0278_fot_29C-50598_E_tif
  70
32
  10
493929.078
  20
4649778.985
  30
0
  0
VERTEX
  8
PNOA-H_AMS_1956-57_33k_ES_PAN_21mic_H50_0278_fot_29C-50598_E_tif
  70
32
  10
494823.899
  20
4649778.114
  30
0
  0
VERTEX
  8
PNOA-H_AMS_1956-57_33k_ES_PAN_21mic_H50_0278_fot_29C-50598_E_tif
  70
32
  10
496330.575
  20
4649777.381
  30
0
  0
VERTEX
  8
PNOA-H_AMS_1956-57_33k_ES_PAN_21mic_H50_0278_fot_29C-50598_E_tif
  70
32
  10
496330.578
  20
4649777.381
  30
1284.979
  0
VERTEX
  8
PNOA-H_AMS_1956-57_33k_ES_PAN_21mic_H50_0278_fot_29C-50598_E_tif
  70
32
  10
496310.500
  20
4647967.500
  30
1092.903
  0
VERTEX
  8
PNOA-H_AMS_1956-57_33k_ES_PAN_21mic_H50_0278_fot_29C-50598_E_tif
  70
32
  10
495638.472
  20
4647931.080
  30
1093.726
  0
SEQEND
  8
PNOA-H_AMS_1956-57_33k_ES_PAN_21mic_H50_0278_fot_29C-50598_E_tif
  0
INSERT
  8
FeatureAttribs
  2
FEATURE
  41
1
  42
1
  43
1
  50
0
  10
494040.296
  20
4641002.750
 66
1
  0
ATTRIB
  8
FeatureAttribs
 70
0
  1
PNOA-H_AMS_1956-57_33k_ES_PAN_21mic_H50_0316_fot_31B-36868_E.tif
  2
NAME
  10
494040.296
  20
4641002.750
 40
33.30316
  0
SEQEND
  0
POLYLINE
  8
PNOA-H_AMS_1956-57_33k_ES_PAN_21mic_H50_0316_fot_31B-36868_E_tif
  70
9
  66
1
  0
VERTEX
  8
PNOA-H_AMS_1956-57_33k_ES_PAN_21mic_H50_0316_fot_31B-36868_E_tif
  70
32
  10
493970.208
  20
4643481.821
  30
1222.177
  0
VERTEX
  8
PNOA-H_AMS_1956-57_33k_ES_PAN_21mic_H50_0316_fot_31B-36868_E_tif
  70
32
  10
494027.000
  20
4643466.500
  30
1217.098
  0
VERTEX
  8
PNOA-H_AMS_1956-57_33k_ES_PAN_21mic_H50_0316_fot_31B-36868_E_tif
  70
32
  10
494028.000
  20
4643466.500
  30
1217.514
  0
VERTEX
  8
PNOA-H_AMS_1956-57_33k_ES_PAN_21mic_H50_0316_fot_31B-36868_E_tif
  70
32
  10
495430.500
  20
4643095.500
  30
1213.981
  0
VERTEX
  8
PNOA-H_AMS_1956-57_33k_ES_PAN_21mic_H50_0316_fot_31B-36868_E_tif
  70
32
  10
495539.500
  20
4638796.500
  30
1197.789
  0
VERTEX
  8
PNOA-H_AMS_1956-57_33k_ES_PAN_21mic_H50_0316_fot_31B-36868_E_tif
  70
32
  10
495539.386
  20
4638796.443
  30
1197.791
  0
VERTEX
  8
PNOA-H_AMS_1956-57_33k_ES_PAN_21mic_H50_0316_fot_31B-36868_E_tif
  70
32
  10
494966.500
  20
4638510.000
  30
1205.916
  0
VERTEX
  8
PNOA-H_AMS_1956-57_33k_ES_PAN_21mic_H50_0316_fot_31B-36868_E_tif
  70
32
  10
494965.660
  20
4638510.080
  30
1205.885
  0
VERTEX
  8
PNOA-H_AMS_1956-57_33k_ES_PAN_21mic_H50_0316_fot_31B-36868_E_tif
  70
32
  10
492608.500
  20
4638735.000
  30
1117.938
  0
VERTEX
  8
PNOA-H_AMS_1956-57_33k_ES_PAN_21mic_H50_0316_fot_31B-36868_E_tif
  70
32
  10
492586.500
  20
4643085.000
  30
1210.338
  0
VERTEX
  8
PNOA-H_AMS_1956-57_33k_ES_PAN_21mic_H50_0316_fot_31B-36868_E_tif
  70
32
  10
492587.105
  20
4643085.187
  30
1210.345
  0
VERTEX
  8
PNOA-H_AMS_1956-57_33k_ES_PAN_21mic_H50_0316_fot_31B-36868_E_tif
  70
32
  10
493916.000
  20
4643495.000
  30
1227.711
  0
VERTEX
  8
PNOA-H_AMS_1956-57_33k_ES_PAN_21mic_H50_0316_fot_31B-36868_E_tif
  70
32
  10
493917.638
  20
4643495.234
  30
1227.244
  0
VERTEX
  8
PNOA-H_AMS_1956-57_33k_ES_PAN_21mic_H50_0316_fot_31B-36868_E_tif
  70
32
  10
493918.851
  20
4643495.407
  30
1226.897
  0
VERTEX
  8
PNOA-H_AMS_1956-57_33k_ES_PAN_21mic_H50_0316_fot_31B-36868_E_tif
  70
32
  10
493919.500
  20
4643495.500
  30
1226.712
  0
VERTEX
  8
PNOA-H_AMS_1956-57_33k_ES_PAN_21mic_H50_0316_fot_31B-36868_E_tif
  70
32
  10
493970.208
  20
4643481.821
  30
1222.177
  0
SEQEND
  8
PNOA-H_AMS_1956-57_33k_ES_PAN_21mic_H50_0316_fot_31B-36868_E_tif
  0
INSERT
  8
FeatureAttribs
  2
FEATURE
  41
1
  42
1
  43
1
  50
0
  10
491140.256
  20
4641018.500
 66
1
  0
ATTRIB
  8
FeatureAttribs
 70
0
  1
PNOA-H_AMS_1956-57_33k_ES_PAN_21mic_H50_0316_fot_31B-36867_E.tif
  2
NAME
  10
491140.256
  20
4641018.500
 40
33.30316
  0
SEQEND
  0
POLYLINE
  8
PNOA-H_AMS_1956-57_33k_ES_PAN_21mic_H50_0316_fot_31B-36867_E_tif
  70
9
  66
1
  0
VERTEX
  8
PNOA-H_AMS_1956-57_33k_ES_PAN_21mic_H50_0316_fot_31B-36867_E_tif
  70
32
  10
492608.426
  20
4638734.959
  30
1117.941
  0
VERTEX
  8
PNOA-H_AMS_1956-57_33k_ES_PAN_21mic_H50_0316_fot_31B-36867_E_tif
  70
32
  10
492301.500
  20
4638565.000
  30
1128.656
  0
VERTEX
  8
PNOA-H_AMS_1956-57_33k_ES_PAN_21mic_H50_0316_fot_31B-36867_E_tif
  70
32
  10
492301.034
  20
4638565.019
  30
1128.671
  0
VERTEX
  8
PNOA-H_AMS_1956-57_33k_ES_PAN_21mic_H50_0316_fot_31B-36867_E_tif
  70
32
  10
489668.050
  20
4638672.998
  30
1212.507
  0
VERTEX
  8
PNOA-H_AMS_1956-57_33k_ES_PAN_21mic_H50_0316_fot_31B-36867_E_tif
  70
32
  10
489668.000
  20
4638673.000
  30
1212.509
  0
VERTEX
  8
PNOA-H_AMS_1956-57_33k_ES_PAN_21mic_H50_0316_fot_31B-36867_E_tif
  70
32
  10
489697.000
  20
4643044.500
  30
1071.476
  0
VERTEX
  8
PNOA-H_AMS_1956-57_33k_ES_PAN_21mic_H50_0316_fot_31B-36867_E_tif
  70
32
  10
489697.263
  20
4643044.576
  30
1071.475
  0
VERTEX
  8
PNOA-H_AMS_1956-57_33k_ES_PAN_21mic_H50_0316_fot_31B-36867_E_tif
  70
32
  10
489928.500
  20
4643111.500
  30
1070.643
  0
VERTEX
  8
PNOA-H_AMS_1956-57_33k_ES_PAN_21mic_H50_0316_fot_31B-36867_E_tif
  70
32
  10
489930.000
  20
4643112.000
  30
1070.653
  0
VERTEX
  8
PNOA-H_AMS_1956-57_33k_ES_PAN_21mic_H50_0316_fot_31B-36867_E_tif
  70
32
  10
490911.682
  20
4643394.273
  30
1101.426
  0
VERTEX
  8
PNOA-H_AMS_1956-57_33k_ES_PAN_21mic_H50_0316_fot_31B-36867_E_tif
  70
32
  10
491181.755
  20
4643471.930
  30
1109.892
  0
VERTEX
  8
PNOA-H_AMS_1956-57_33k_ES_PAN_21mic_H50_0316_fot_31B-36867_E_tif
  70
32
  10
491182.000
  20
4643472.000
  30
1109.899
  0
VERTEX
  8
PNOA-H_AMS_1956-57_33k_ES_PAN_21mic_H50_0316_fot_31B-36867_E_tif
  70
32
  10
492581.850
  20
4643086.281
  30
1210.005
  0
VERTEX
  8
PNOA-H_AMS_1956-57_33k_ES_PAN_21mic_H50_0316_fot_31B-36867_E_tif
  70
32
  10
492586.500
  20
4643085.000
  30
1210.338
  0
VERTEX
  8
PNOA-H_AMS_1956-57_33k_ES_PAN_21mic_H50_0316_fot_31B-36867_E_tif
  70
32
  10
492608.500
  20
4638735.000
  30
1117.938
  0
VERTEX
  8
PNOA-H_AMS_1956-57_33k_ES_PAN_21mic_H50_0316_fot_31B-36867_E_tif
  70
32
  10
492608.426
  20
4638734.959
  30
1117.941
  0
SEQEND
  8
PNOA-H_AMS_1956-57_33k_ES_PAN_21mic_H50_0316_fot_31B-36867_E_tif
  0
INSERT
  8
FeatureAttribs
  2
FEATURE
  41
1
  42
1
  43
1
  50
0
  10
496940.299
  20
4640999.750
 66
1
  0
ATTRIB
  8
FeatureAttribs
 70
0
  1
PNOA-H_AMS_1956-57_33k_ES_PAN_21mic_H50_0316_fot_31B-36869_E.tif
  2
NAME
  10
496940.299
  20
4640999.750
 40
33.30316
  0
SEQEND
  0
POLYLINE
  8
PNOA-H_AMS_1956-57_33k_ES_PAN_21mic_H50_0316_fot_31B-36869_E_tif
  70
9
  66
1
  0
VERTEX
  8
PNOA-H_AMS_1956-57_33k_ES_PAN_21mic_H50_0316_fot_31B-36869_E_tif
  70
32
  10
497529.355
  20
4638503.169
  30
1195.27
  0
VERTEX
  8
PNOA-H_AMS_1956-57_33k_ES_PAN_21mic_H50_0316_fot_31B-36869_E_tif
  70
32
  10
497527.500
  20
4638503.000
  30
1196.383
  0
VERTEX
  8
PNOA-H_AMS_1956-57_33k_ES_PAN_21mic_H50_0316_fot_31B-36869_E_tif
  70
32
  10
497517.000
  20
4638504.500
  30
1200.392
  0
VERTEX
  8
PNOA-H_AMS_1956-57_33k_ES_PAN_21mic_H50_0316_fot_31B-36869_E_tif
  70
32
  10
495798.201
  20
4638758.300
  30
1198.13
  0
VERTEX
  8
PNOA-H_AMS_1956-57_33k_ES_PAN_21mic_H50_0316_fot_31B-36869_E_tif
  70
32
  10
495539.500
  20
4638796.500
  30
1197.789
  0
VERTEX
  8
PNOA-H_AMS_1956-57_33k_ES_PAN_21mic_H50_0316_fot_31B-36869_E_tif
  70
32
  10
495430.513
  20
4643095.504
  30
1214.094
  0
VERTEX
  8
PNOA-H_AMS_1956-57_33k_ES_PAN_21mic_H50_0316_fot_31B-36869_E_tif
  70
32
  10
495430.500
  20
4643096.000
  30
1214.096
  0
VERTEX
  8
PNOA-H_AMS_1956-57_33k_ES_PAN_21mic_H50_0316_fot_31B-36869_E_tif
  70
32
  10
496074.000
  20
4643310.000
  30
1106.166
  0
VERTEX
  8
PNOA-H_AMS_1956-57_33k_ES_PAN_21mic_H50_0316_fot_31B-36869_E_tif
  70
32
  10
496075.500
  20
4643310.500
  30
1106.118
  0
VERTEX
  8
PNOA-H_AMS_1956-57_33k_ES_PAN_21mic_H50_0316_fot_31B-36869_E_tif
  70
32
  10
496457.760
  20
4643437.352
  30
1134.228
  0
VERTEX
  8
PNOA-H_AMS_1956-57_33k_ES_PAN_21mic_H50_0316_fot_31B-36869_E_tif
  70
32
  10
496635.793
  20
4643496.431
  30
1147.32
  0
VERTEX
  8
PNOA-H_AMS_1956-57_33k_ES_PAN_21mic_H50_0316_fot_31B-36869_E_tif
  70
32
  10
496636.000
  20
4643496.500
  30
1147.335
  0
VERTEX
  8
PNOA-H_AMS_1956-57_33k_ES_PAN_21mic_H50_0316_fot_31B-36869_E_tif
  70
32
  10
498408.000
  20
4643080.000
  30
1332.998
  0
VERTEX
  8
PNOA-H_AMS_1956-57_33k_ES_PAN_21mic_H50_0316_fot_31B-36869_E_tif
  70
32
  10
498407.998
  20
4643079.618
  30
1332.993
  0
VERTEX
  8
PNOA-H_AMS_1956-57_33k_ES_PAN_21mic_H50_0316_fot_31B-36869_E_tif
  70
32
  10
498385.500
  20
4638842.500
  30
1269.859
  0
VERTEX
  8
PNOA-H_AMS_1956-57_33k_ES_PAN_21mic_H50_0316_fot_31B-36869_E_tif
  70
32
  10
498385.123
  20
4638842.350
  30
1269.825
  0
VERTEX
  8
PNOA-H_AMS_1956-57_33k_ES_PAN_21mic_H50_0316_fot_31B-36869_E_tif
  70
32
  10
497533.000
  20
4638503.500
  30
1193.082
  0
VERTEX
  8
PNOA-H_AMS_1956-57_33k_ES_PAN_21mic_H50_0316_fot_31B-36869_E_tif
  70
32
  10
497531.389
  20
4638503.354
  30
1194.049
  0
VERTEX
  8
PNOA-H_AMS_1956-57_33k_ES_PAN_21mic_H50_0316_fot_31B-36869_E_tif
  70
32
  10
497529.355
  20
4638503.169
  30
1195.27
  0
SEQEND
  8
PNOA-H_AMS_1956-57_33k_ES_PAN_21mic_H50_0316_fot_31B-36869_E_tif
  0
INSERT
  8
FeatureAttribs
  2
FEATURE
  41
1
  42
1
  43
1
  50
0
  10
498791.395
  20
4636471.750
 66
1
  0
ATTRIB
  8
FeatureAttribs
 70
0
  1
PNOA-H_AMS_1956-57_33k_ES_PAN_21mic_H50_0316_fot_32B-39535_W.tif
  2
NAME
  10
498791.395
  20
4636471.750
 40
33.30316
  0
SEQEND
  0
POLYLINE
  8
PNOA-H_AMS_1956-57_33k_ES_PAN_21mic_H50_0316_fot_32B-39535_W_tif
  70
9
  66
1
  0
VERTEX
  8
PNOA-H_AMS_1956-57_33k_ES_PAN_21mic_H50_0316_fot_32B-39535_W_tif
  70
32
  10
499954.581
  20
4634101.211
  30
1120.649
  0
VERTEX
  8
PNOA-H_AMS_1956-57_33k_ES_PAN_21mic_H50_0316_fot_32B-39535_W_tif
  70
32
  10
499953.000
  20
4634101.000
  30
1120.594
  0
VERTEX
  8
PNOA-H_AMS_1956-57_33k_ES_PAN_21mic_H50_0316_fot_32B-39535_W_tif
  70
32
  10
497717.091
  20
4634239.182
  30
1125.962
  0
VERTEX
  8
PNOA-H_AMS_1956-57_33k_ES_PAN_21mic_H50_0316_fot_32B-39535_W_tif
  70
32
  10
497493.500
  20
4634253.000
  30
1126.499
  0
VERTEX
  8
PNOA-H_AMS_1956-57_33k_ES_PAN_21mic_H50_0316_fot_32B-39535_W_tif
  70
32
  10
497530.500
  20
4638503.000
  30
1194.79
  0
VERTEX
  8
PNOA-H_AMS_1956-57_33k_ES_PAN_21mic_H50_0316_fot_32B-39535_W_tif
  70
32
  10
497531.389
  20
4638503.354
  30
1194.868
  0
VERTEX
  8
PNOA-H_AMS_1956-57_33k_ES_PAN_21mic_H50_0316_fot_32B-39535_W_tif
  70
32
  10
498384.500
  20
4638842.500
  30
1269.715
  0
VERTEX
  8
PNOA-H_AMS_1956-57_33k_ES_PAN_21mic_H50_0316_fot_32B-39535_W_tif
  70
32
  10
498385.123
  20
4638842.350
  30
1269.712
  0
VERTEX
  8
PNOA-H_AMS_1956-57_33k_ES_PAN_21mic_H50_0316_fot_32B-39535_W_tif
  70
32
  10
500091.500
  20
4638431.000
  30
1260.535
  0
VERTEX
  8
PNOA-H_AMS_1956-57_33k_ES_PAN_21mic_H50_0316_fot_32B-39535_W_tif
  70
32
  10
500044.500
  20
4634153.000
  30
1127.223
  0
VERTEX
  8
PNOA-H_AMS_1956-57_33k_ES_PAN_21mic_H50_0316_fot_32B-39535_W_tif
  70
32
  10
500044.011
  20
4634152.511
  30
1127.154
  0
VERTEX
  8
PNOA-H_AMS_1956-57_33k_ES_PAN_21mic_H50_0316_fot_32B-39535_W_tif
  70
32
  10
500042.279
  20
4634150.779
  30
1126.909
  0
VERTEX
  8
PNOA-H_AMS_1956-57_33k_ES_PAN_21mic_H50_0316_fot_32B-39535_W_tif
  70
32
  10
500041.000
  20
4634149.500
  30
1126.729
  0
VERTEX
  8
PNOA-H_AMS_1956-57_33k_ES_PAN_21mic_H50_0316_fot_32B-39535_W_tif
  70
32
  10
500039.500
  20
4634149.000
  30
1126.625
  0
VERTEX
  8
PNOA-H_AMS_1956-57_33k_ES_PAN_21mic_H50_0316_fot_32B-39535_W_tif
  70
32
  10
499960.500
  20
4634102.000
  30
1120.855
  0
VERTEX
  8
PNOA-H_AMS_1956-57_33k_ES_PAN_21mic_H50_0316_fot_32B-39535_W_tif
  70
32
  10
499959.458
  20
4634101.861
  30
1120.819
  0
VERTEX
  8
PNOA-H_AMS_1956-57_33k_ES_PAN_21mic_H50_0316_fot_32B-39535_W_tif
  70
32
  10
499954.581
  20
4634101.211
  30
1120.649
  0
SEQEND
  8
PNOA-H_AMS_1956-57_33k_ES_PAN_21mic_H50_0316_fot_32B-39535_W_tif
  0
INSERT
  8
FeatureAttribs
  2
FEATURE
  41
1
  42
1
  43
1
  50
0
  10
493617.220
  20
4636394.500
 66
1
  0
ATTRIB
  8
FeatureAttribs
 70
0
  1
PNOA-H_AMS_1956-57_33k_ES_PAN_21mic_H50_0316_fot_32B-39537_W.tif
  2
NAME
  10
493617.220
  20
4636394.500
 40
33.30316
  0
SEQEND
  0
POLYLINE
  8
PNOA-H_AMS_1956-57_33k_ES_PAN_21mic_H50_0316_fot_32B-39537_W_tif
  70
9
  66
1
  0
VERTEX
  8
PNOA-H_AMS_1956-57_33k_ES_PAN_21mic_H50_0316_fot_32B-39537_W_tif
  70
32
  10
494914.000
  20
4634349.000
  30
1105.356
  0
VERTEX
  8
PNOA-H_AMS_1956-57_33k_ES_PAN_21mic_H50_0316_fot_32B-39537_W_tif
  70
32
  10
494291.500
  20
4634054.000
  30
1097.941
  0
VERTEX
  8
PNOA-H_AMS_1956-57_33k_ES_PAN_21mic_H50_0316_fot_32B-39537_W_tif
  70
32
  10
494290.717
  20
4634054.103
  30
1097.947
  0
VERTEX
  8
PNOA-H_AMS_1956-57_33k_ES_PAN_21mic_H50_0316_fot_32B-39537_W_tif
  70
32
  10
492289.500
  20
4634317.500
  30
1112.813
  0
VERTEX
  8
PNOA-H_AMS_1956-57_33k_ES_PAN_21mic_H50_0316_fot_32B-39537_W_tif
  70
32
  10
492301.000
  20
4638565.000
  30
1128.51
  0
VERTEX
  8
PNOA-H_AMS_1956-57_33k_ES_PAN_21mic_H50_0316_fot_32B-39537_W_tif
  70
32
  10
492301.034
  20
4638565.019
  30
1128.509
  0
VERTEX
  8
PNOA-H_AMS_1956-57_33k_ES_PAN_21mic_H50_0316_fot_32B-39537_W_tif
  70
32
  10
492607.000
  20
4638734.500
  30
1117.966
  0
VERTEX
  8
PNOA-H_AMS_1956-57_33k_ES_PAN_21mic_H50_0316_fot_32B-39537_W_tif
  70
32
  10
492608.000
  20
4638735.000
  30
1117.915
  0
VERTEX
  8
PNOA-H_AMS_1956-57_33k_ES_PAN_21mic_H50_0316_fot_32B-39537_W_tif
  70
32
  10
492608.426
  20
4638734.959
  30
1117.931
  0
VERTEX
  8
PNOA-H_AMS_1956-57_33k_ES_PAN_21mic_H50_0316_fot_32B-39537_W_tif
  70
32
  10
494965.500
  20
4638510.000
  30
1205.98
  0
VERTEX
  8
PNOA-H_AMS_1956-57_33k_ES_PAN_21mic_H50_0316_fot_32B-39537_W_tif
  70
32
  10
494914.006
  20
4634349.499
  30
1105.368
  0
VERTEX
  8
PNOA-H_AMS_1956-57_33k_ES_PAN_21mic_H50_0316_fot_32B-39537_W_tif
  70
32
  10
494914.000
  20
4634349.000
  30
1105.356
  0
SEQEND
  8
PNOA-H_AMS_1956-57_33k_ES_PAN_21mic_H50_0316_fot_32B-39537_W_tif
  0
INSERT
  8
FeatureAttribs
  2
FEATURE
  41
1
  42
1
  43
1
  50
0
  10
496226.032
  20
4636423.250
 66
1
  0
ATTRIB
  8
FeatureAttribs
 70
0
  1
PNOA-H_AMS_1956-57_33k_ES_PAN_21mic_H50_0316_fot_32B-39536_W.tif
  2
NAME
  10
496226.032
  20
4636423.250
 40
33.30316
  0
SEQEND
  0
POLYLINE
  8
PNOA-H_AMS_1956-57_33k_ES_PAN_21mic_H50_0316_fot_32B-39536_W_tif
  70
9
  66
1
  0
VERTEX
  8
PNOA-H_AMS_1956-57_33k_ES_PAN_21mic_H50_0316_fot_32B-39536_W_tif
  70
32
  10
497493.446
  20
4634252.972
  30
1126.498
  0
VERTEX
  8
PNOA-H_AMS_1956-57_33k_ES_PAN_21mic_H50_0316_fot_32B-39536_W_tif
  70
32
  10
497290.500
  20
4634149.000
  30
1125.072
  0
VERTEX
  8
PNOA-H_AMS_1956-57_33k_ES_PAN_21mic_H50_0316_fot_32B-39536_W_tif
  70
32
  10
497289.600
  20
4634149.000
  30
1125.124
  0
VERTEX
  8
PNOA-H_AMS_1956-57_33k_ES_PAN_21mic_H50_0316_fot_32B-39536_W_tif
  70
32
  10
497289.500
  20
4634149.000
  30
1125.13
  0
VERTEX
  8
PNOA-H_AMS_1956-57_33k_ES_PAN_21mic_H50_0316_fot_32B-39536_W_tif
  70
32
  10
497277.624
  20
4634142.876
  30
1125.442
  0
VERTEX
  8
PNOA-H_AMS_1956-57_33k_ES_PAN_21mic_H50_0316_fot_32B-39536_W_tif
  70
32
  10
497114.000
  20
4634058.500
  30
1129.737
  0
VERTEX
  8
PNOA-H_AMS_1956-57_33k_ES_PAN_21mic_H50_0316_fot_32B-39536_W_tif
  70
32
  10
497097.000
  20
4634050.000
  30
1130.197
  0
VERTEX
  8
PNOA-H_AMS_1956-57_33k_ES_PAN_21mic_H50_0316_fot_32B-39536_W_tif
  70
32
  10
497096.000
  20
4634050.000
  30
1130.272
  0
VERTEX
  8
PNOA-H_AMS_1956-57_33k_ES_PAN_21mic_H50_0316_fot_32B-39536_W_tif
  70
32
  10
497092.500
  20
4634050.000
  30
1130.534
  0
VERTEX
  8
PNOA-H_AMS_1956-57_33k_ES_PAN_21mic_H50_0316_fot_32B-39536_W_tif
  70
32
  10
494914.006
  20
4634349.499
  30
1105.389
  0
VERTEX
  8
PNOA-H_AMS_1956-57_33k_ES_PAN_21mic_H50_0316_fot_32B-39536_W_tif
  70
32
  10
494914.000
  20
4634349.500
  30
1105.389
  0
VERTEX
  8
PNOA-H_AMS_1956-57_33k_ES_PAN_21mic_H50_0316_fot_32B-39536_W_tif
  70
32
  10
494965.500
  20
4638510.000
  30
1205.98
  0
VERTEX
  8
PNOA-H_AMS_1956-57_33k_ES_PAN_21mic_H50_0316_fot_32B-39536_W_tif
  70
32
  10
494965.660
  20
4638510.080
  30
1205.978
  0
VERTEX
  8
PNOA-H_AMS_1956-57_33k_ES_PAN_21mic_H50_0316_fot_32B-39536_W_tif
  70
32
  10
495539.000
  20
4638796.500
  30
1197.815
  0
VERTEX
  8
PNOA-H_AMS_1956-57_33k_ES_PAN_21mic_H50_0316_fot_32B-39536_W_tif
  70
32
  10
495539.386
  20
4638796.443
  30
1197.814
  0
VERTEX
  8
PNOA-H_AMS_1956-57_33k_ES_PAN_21mic_H50_0316_fot_32B-39536_W_tif
  70
32
  10
495798.201
  20
4638758.300
  30
1197.421
  0
VERTEX
  8
PNOA-H_AMS_1956-57_33k_ES_PAN_21mic_H50_0316_fot_32B-39536_W_tif
  70
32
  10
497529.355
  20
4638503.169
  30
1194.791
  0
VERTEX
  8
PNOA-H_AMS_1956-57_33k_ES_PAN_21mic_H50_0316_fot_32B-39536_W_tif
  70
32
  10
497530.500
  20
4638503.000
  30
1194.79
  0
VERTEX
  8
PNOA-H_AMS_1956-57_33k_ES_PAN_21mic_H50_0316_fot_32B-39536_W_tif
  70
32
  10
497493.500
  20
4634253.000
  30
1126.499
  0
VERTEX
  8
PNOA-H_AMS_1956-57_33k_ES_PAN_21mic_H50_0316_fot_32B-39536_W_tif
  70
32
  10
497493.446
  20
4634252.972
  30
1126.498
  0
SEQEND
  8
PNOA-H_AMS_1956-57_33k_ES_PAN_21mic_H50_0316_fot_32B-39536_W_tif
  0
INSERT
  8
FeatureAttribs
  2
FEATURE
  41
1
  42
1
  43
1
  50
0
  10
490978.989
  20
4636316.000
 66
1
  0
ATTRIB
  8
FeatureAttribs
 70
0
  1
PNOA-H_AMS_1956-57_33k_ES_PAN_21mic_H50_0316_fot_32B-39538_W.tif
  2
NAME
  10
490978.989
  20
4636316.000
 40
33.30316
  0
SEQEND
  0
POLYLINE
  8
PNOA-H_AMS_1956-57_33k_ES_PAN_21mic_H50_0316_fot_32B-39538_W_tif
  70
9
  66
1
  0
VERTEX
  8
PNOA-H_AMS_1956-57_33k_ES_PAN_21mic_H50_0316_fot_32B-39538_W_tif
  70
32
  10
491512.157
  20
4633959.072
  30
1105.307
  0
VERTEX
  8
PNOA-H_AMS_1956-57_33k_ES_PAN_21mic_H50_0316_fot_32B-39538_W_tif
  70
32
  10
491512.000
  20
4633959.000
  30
1105.306
  0
VERTEX
  8
PNOA-H_AMS_1956-57_33k_ES_PAN_21mic_H50_0316_fot_32B-39538_W_tif
  70
32
  10
491051.250
  20
4634056.000
  30
1111.684
  0
VERTEX
  8
PNOA-H_AMS_1956-57_33k_ES_PAN_21mic_H50_0316_fot_32B-39538_W_tif
  70
32
  10
489669.000
  20
4634347.000
  30
1130.819
  0
VERTEX
  8
PNOA-H_AMS_1956-57_33k_ES_PAN_21mic_H50_0316_fot_32B-39538_W_tif
  70
32
  10
489657.000
  20
4638516.000
  30
1198.791
  0
VERTEX
  8
PNOA-H_AMS_1956-57_33k_ES_PAN_21mic_H50_0316_fot_32B-39538_W_tif
  70
32
  10
489657.000
  20
4638665.984
  30
1213.032
  0
VERTEX
  8
PNOA-H_AMS_1956-57_33k_ES_PAN_21mic_H50_0316_fot_32B-39538_W_tif
  70
32
  10
489657.000
  20
4638666.000
  30
1213.032
  0
VERTEX
  8
PNOA-H_AMS_1956-57_33k_ES_PAN_21mic_H50_0316_fot_32B-39538_W_tif
  70
32
  10
489667.000
  20
4638672.500
  30
1212.578
  0
VERTEX
  8
PNOA-H_AMS_1956-57_33k_ES_PAN_21mic_H50_0316_fot_32B-39538_W_tif
  70
32
  10
489668.000
  20
4638673.000
  30
1212.509
  0
VERTEX
  8
PNOA-H_AMS_1956-57_33k_ES_PAN_21mic_H50_0316_fot_32B-39538_W_tif
  70
32
  10
489668.050
  20
4638672.998
  30
1212.507
  0
VERTEX
  8
PNOA-H_AMS_1956-57_33k_ES_PAN_21mic_H50_0316_fot_32B-39538_W_tif
  70
32
  10
492301.000
  20
4638565.000
  30
1128.51
  0
VERTEX
  8
PNOA-H_AMS_1956-57_33k_ES_PAN_21mic_H50_0316_fot_32B-39538_W_tif
  70
32
  10
492289.001
  20
4634317.500
  30
1112.886
  0
VERTEX
  8
PNOA-H_AMS_1956-57_33k_ES_PAN_21mic_H50_0316_fot_32B-39538_W_tif
  70
32
  10
492289.000
  20
4634317.000
  30
1112.884
  0
VERTEX
  8
PNOA-H_AMS_1956-57_33k_ES_PAN_21mic_H50_0316_fot_32B-39538_W_tif
  70
32
  10
491512.503
  20
4633959.232
  30
1105.311
  0
VERTEX
  8
PNOA-H_AMS_1956-57_33k_ES_PAN_21mic_H50_0316_fot_32B-39538_W_tif
  70
32
  10
491512.157
  20
4633959.072
  30
1105.307
  0
SEQEND
  8
PNOA-H_AMS_1956-57_33k_ES_PAN_21mic_H50_0316_fot_32B-39538_W_tif
  0
INSERT
  8
FeatureAttribs
  2
FEATURE
  41
1
  42
1
  43
1
  50
0
  10
495707.104
  20
4632810.987
 66
1
  0
ATTRIB
  8
FeatureAttribs
 70
0
  1
PNOA-H_AMS_1956-57_33k_ES_PAN_21mic_H50_0316_fot_33B-38719_E.tif
  2
NAME
  10
495707.104
  20
4632810.987
 40
33.30316
  0
SEQEND
  0
POLYLINE
  8
PNOA-H_AMS_1956-57_33k_ES_PAN_21mic_H50_0316_fot_33B-38719_E_tif
  70
9
  66
1
  0
VERTEX
  8
PNOA-H_AMS_1956-57_33k_ES_PAN_21mic_H50_0316_fot_33B-38719_E_tif
  70
32
  10
497096.000
  20
4634050.000
  30
1130.272
  0
VERTEX
  8
PNOA-H_AMS_1956-57_33k_ES_PAN_21mic_H50_0316_fot_33B-38719_E_tif
  70
32
  10
497076.476
  20
4631272.474
  30
1118.842
  0
VERTEX
  8
PNOA-H_AMS_1956-57_33k_ES_PAN_21mic_H50_0316_fot_33B-38719_E_tif
  70
32
  10
497076.226
  20
4631272.474
  30
1120.098
  0
VERTEX
  8
PNOA-H_AMS_1956-57_33k_ES_PAN_21mic_H50_0316_fot_33B-38719_E_tif
  70
32
  10
494810.414
  20
4631273.573
  30
0
  0
VERTEX
  8
PNOA-H_AMS_1956-57_33k_ES_PAN_21mic_H50_0316_fot_33B-38719_E_tif
  70
32
  10
494371.945
  20
4631273.998
  30
1112.059
  0
VERTEX
  8
PNOA-H_AMS_1956-57_33k_ES_PAN_21mic_H50_0316_fot_33B-38719_E_tif
  70
32
  10
494290.500
  20
4634054.000
  30
1097.867
  0
VERTEX
  8
PNOA-H_AMS_1956-57_33k_ES_PAN_21mic_H50_0316_fot_33B-38719_E_tif
  70
32
  10
494290.717
  20
4634054.103
  30
1097.87
  0
VERTEX
  8
PNOA-H_AMS_1956-57_33k_ES_PAN_21mic_H50_0316_fot_33B-38719_E_tif
  70
32
  10
494912.500
  20
4634349.000
  30
1105.337
  0
VERTEX
  8
PNOA-H_AMS_1956-57_33k_ES_PAN_21mic_H50_0316_fot_33B-38719_E_tif
  70
32
  10
494914.000
  20
4634349.500
  30
1105.389
  0
VERTEX
  8
PNOA-H_AMS_1956-57_33k_ES_PAN_21mic_H50_0316_fot_33B-38719_E_tif
  70
32
  10
494914.006
  20
4634349.499
  30
1105.389
  0
VERTEX
  8
PNOA-H_AMS_1956-57_33k_ES_PAN_21mic_H50_0316_fot_33B-38719_E_tif
  70
32
  10
497096.000
  20
4634050.000
  30
1130.272
  0
SEQEND
  8
PNOA-H_AMS_1956-57_33k_ES_PAN_21mic_H50_0316_fot_33B-38719_E_tif
  0
INSERT
  8
FeatureAttribs
  2
FEATURE
  41
1
  42
1
  43
1
  50
0
  10
498507.640
  20
4632762.447
 66
1
  0
ATTRIB
  8
FeatureAttribs
 70
0
  1
PNOA-H_AMS_1956-57_33k_ES_PAN_21mic_H50_0316_fot_33B-38720_E.tif
  2
NAME
  10
498507.640
  20
4632762.447
 40
33.30316
  0
SEQEND
  0
POLYLINE
  8
PNOA-H_AMS_1956-57_33k_ES_PAN_21mic_H50_0316_fot_33B-38720_E_tif
  70
9
  66
1
  0
VERTEX
  8
PNOA-H_AMS_1956-57_33k_ES_PAN_21mic_H50_0316_fot_33B-38720_E_tif
  70
32
  10
499895.535
  20
4631271.895
  30
1156.275
  0
VERTEX
  8
PNOA-H_AMS_1956-57_33k_ES_PAN_21mic_H50_0316_fot_33B-38720_E_tif
  70
32
  10
498270.138
  20
4631271.895
  30
0
  0
VERTEX
  8
PNOA-H_AMS_1956-57_33k_ES_PAN_21mic_H50_0316_fot_33B-38720_E_tif
  70
32
  10
497076.476
  20
4631272.474
  30
0
  0
VERTEX
  8
PNOA-H_AMS_1956-57_33k_ES_PAN_21mic_H50_0316_fot_33B-38720_E_tif
  70
32
  10
497076.226
  20
4631272.474
  30
1120.098
  0
VERTEX
  8
PNOA-H_AMS_1956-57_33k_ES_PAN_21mic_H50_0316_fot_33B-38720_E_tif
  70
32
  10
497096.000
  20
4634050.000
  30
1130.272
  0
VERTEX
  8
PNOA-H_AMS_1956-57_33k_ES_PAN_21mic_H50_0316_fot_33B-38720_E_tif
  70
32
  10
497277.624
  20
4634142.876
  30
1128.455
  0
VERTEX
  8
PNOA-H_AMS_1956-57_33k_ES_PAN_21mic_H50_0316_fot_33B-38720_E_tif
  70
32
  10
497289.600
  20
4634149.000
  30
1128.335
  0
VERTEX
  8
PNOA-H_AMS_1956-57_33k_ES_PAN_21mic_H50_0316_fot_33B-38720_E_tif
  70
32
  10
497492.000
  20
4634252.500
  30
1126.31
  0
VERTEX
  8
PNOA-H_AMS_1956-57_33k_ES_PAN_21mic_H50_0316_fot_33B-38720_E_tif
  70
32
  10
497493.000
  20
4634253.000
  30
1126.455
  0
VERTEX
  8
PNOA-H_AMS_1956-57_33k_ES_PAN_21mic_H50_0316_fot_33B-38720_E_tif
  70
32
  10
497493.446
  20
4634252.972
  30
1126.454
  0
VERTEX
  8
PNOA-H_AMS_1956-57_33k_ES_PAN_21mic_H50_0316_fot_33B-38720_E_tif
  70
32
  10
497717.091
  20
4634239.182
  30
1125.924
  0
VERTEX
  8
PNOA-H_AMS_1956-57_33k_ES_PAN_21mic_H50_0316_fot_33B-38720_E_tif
  70
32
  10
499954.581
  20
4634101.211
  30
1120.623
  0
VERTEX
  8
PNOA-H_AMS_1956-57_33k_ES_PAN_21mic_H50_0316_fot_33B-38720_E_tif
  70
32
  10
499958.000
  20
4634101.000
  30
1120.615
  0
VERTEX
  8
PNOA-H_AMS_1956-57_33k_ES_PAN_21mic_H50_0316_fot_33B-38720_E_tif
  70
32
  10
499895.535
  20
4631271.895
  30
1156.275
  0
SEQEND
  8
PNOA-H_AMS_1956-57_33k_ES_PAN_21mic_H50_0316_fot_33B-38720_E_tif
  0
INSERT
  8
FeatureAttribs
  2
FEATURE
  41
1
  42
1
  43
1
  50
0
  10
492925.802
  20
4632795.749
 66
1
  0
ATTRIB
  8
FeatureAttribs
 70
0
  1
PNOA-H_AMS_1956-57_33k_ES_PAN_21mic_H50_0316_fot_33B-38718_E.tif
  2
NAME
  10
492925.802
  20
4632795.749
 40
33.30316
  0
SEQEND
  0
POLYLINE
  8
PNOA-H_AMS_1956-57_33k_ES_PAN_21mic_H50_0316_fot_33B-38718_E_tif
  70
9
  66
1
  0
VERTEX
  8
PNOA-H_AMS_1956-57_33k_ES_PAN_21mic_H50_0316_fot_33B-38718_E_tif
  70
32
  10
494290.500
  20
4634054.000
  30
1097.867
  0
VERTEX
  8
PNOA-H_AMS_1956-57_33k_ES_PAN_21mic_H50_0316_fot_33B-38718_E_tif
  70
32
  10
494371.945
  20
4631273.998
  30
1112.059
  0
VERTEX
  8
PNOA-H_AMS_1956-57_33k_ES_PAN_21mic_H50_0316_fot_33B-38718_E_tif
  70
32
  10
491539.856
  20
4631276.746
  30
0
  0
VERTEX
  8
PNOA-H_AMS_1956-57_33k_ES_PAN_21mic_H50_0316_fot_33B-38718_E_tif
  70
32
  10
491539.568
  20
4631276.746
  30
1129.188
  0
VERTEX
  8
PNOA-H_AMS_1956-57_33k_ES_PAN_21mic_H50_0316_fot_33B-38718_E_tif
  70
32
  10
491512.971
  20
4633912.826
  30
1105.723
  0
VERTEX
  8
PNOA-H_AMS_1956-57_33k_ES_PAN_21mic_H50_0316_fot_33B-38718_E_tif
  70
32
  10
491512.503
  20
4633959.232
  30
1105.31
  0
VERTEX
  8
PNOA-H_AMS_1956-57_33k_ES_PAN_21mic_H50_0316_fot_33B-38718_E_tif
  70
32
  10
491512.500
  20
4633959.500
  30
1105.308
  0
VERTEX
  8
PNOA-H_AMS_1956-57_33k_ES_PAN_21mic_H50_0316_fot_33B-38718_E_tif
  70
32
  10
492288.000
  20
4634317.000
  30
1112.85
  0
VERTEX
  8
PNOA-H_AMS_1956-57_33k_ES_PAN_21mic_H50_0316_fot_33B-38718_E_tif
  70
32
  10
492289.001
  20
4634317.500
  30
1112.796
  0
VERTEX
  8
PNOA-H_AMS_1956-57_33k_ES_PAN_21mic_H50_0316_fot_33B-38718_E_tif
  70
32
  10
494290.500
  20
4634054.000
  30
1097.867
  0
SEQEND
  8
PNOA-H_AMS_1956-57_33k_ES_PAN_21mic_H50_0316_fot_33B-38718_E_tif
  0
INSERT
  8
FeatureAttribs
  2
FEATURE
  41
1
  42
1
  43
1
  50
0
  10
490093.817
  20
4632811.873
 66
1
  0
ATTRIB
  8
FeatureAttribs
 70
0
  1
PNOA-H_AMS_1956-57_33k_ES_PAN_21mic_H50_0316_fot_33B-38717_E.tif
  2
NAME
  10
490093.817
  20
4632811.873
 40
33.30316
  0
SEQEND
  0
POLYLINE
  8
PNOA-H_AMS_1956-57_33k_ES_PAN_21mic_H50_0316_fot_33B-38717_E_tif
  70
9
  66
1
  0
VERTEX
  8
PNOA-H_AMS_1956-57_33k_ES_PAN_21mic_H50_0316_fot_33B-38717_E_tif
  70
32
  10
491512.971
  20
4633912.826
  30
1105.802
  0
VERTEX
  8
PNOA-H_AMS_1956-57_33k_ES_PAN_21mic_H50_0316_fot_33B-38717_E_tif
  70
32
  10
491539.856
  20
4631276.746
  30
1135.874
  0
VERTEX
  8
PNOA-H_AMS_1956-57_33k_ES_PAN_21mic_H50_0316_fot_33B-38717_E_tif
  70
32
  10
491539.568
  20
4631276.746
  30
1132.771
  0
VERTEX
  8
PNOA-H_AMS_1956-57_33k_ES_PAN_21mic_H50_0316_fot_33B-38717_E_tif
  70
32
  10
491350.689
  20
4631276.929
  30
0
  0
VERTEX
  8
PNOA-H_AMS_1956-57_33k_ES_PAN_21mic_H50_0316_fot_33B-38717_E_tif
  70
32
  10
488652.765
  20
4631280.855
  30
1053.484
  0
VERTEX
  8
PNOA-H_AMS_1956-57_33k_ES_PAN_21mic_H50_0316_fot_33B-38717_E_tif
  70
32
  10
488671.500
  20
4633969.000
  30
1099.255
  0
VERTEX
  8
PNOA-H_AMS_1956-57_33k_ES_PAN_21mic_H50_0316_fot_33B-38717_E_tif
  70
32
  10
488674.398
  20
4633970.100
  30
1099.345
  0
VERTEX
  8
PNOA-H_AMS_1956-57_33k_ES_PAN_21mic_H50_0316_fot_33B-38717_E_tif
  70
32
  10
489022.816
  20
4634102.288
  30
1110.186
  0
VERTEX
  8
PNOA-H_AMS_1956-57_33k_ES_PAN_21mic_H50_0316_fot_33B-38717_E_tif
  70
32
  10
489145.937
  20
4634149.000
  30
1114.016
  0
VERTEX
  8
PNOA-H_AMS_1956-57_33k_ES_PAN_21mic_H50_0316_fot_33B-38717_E_tif
  70
32
  10
489666.500
  20
4634346.500
  30
1130.213
  0
VERTEX
  8
PNOA-H_AMS_1956-57_33k_ES_PAN_21mic_H50_0316_fot_33B-38717_E_tif
  70
32
  10
489667.500
  20
4634347.000
  30
1130.525
  0
VERTEX
  8
PNOA-H_AMS_1956-57_33k_ES_PAN_21mic_H50_0316_fot_33B-38717_E_tif
  70
32
  10
489668.465
  20
4634346.797
  30
1130.512
  0
VERTEX
  8
PNOA-H_AMS_1956-57_33k_ES_PAN_21mic_H50_0316_fot_33B-38717_E_tif
  70
32
  10
491051.250
  20
4634056.000
  30
1111.588
  0
VERTEX
  8
PNOA-H_AMS_1956-57_33k_ES_PAN_21mic_H50_0316_fot_33B-38717_E_tif
  70
32
  10
491512.157
  20
4633959.072
  30
1105.28
  0
VERTEX
  8
PNOA-H_AMS_1956-57_33k_ES_PAN_21mic_H50_0316_fot_33B-38717_E_tif
  70
32
  10
491512.500
  20
4633959.000
  30
1105.275
  0
VERTEX
  8
PNOA-H_AMS_1956-57_33k_ES_PAN_21mic_H50_0316_fot_33B-38717_E_tif
  70
32
  10
491512.971
  20
4633912.826
  30
1105.802
  0
SEQEND
  8
PNOA-H_AMS_1956-57_33k_ES_PAN_21mic_H50_0316_fot_33B-38717_E_tif
  0
INSERT
  8
FeatureAttribs
  2
FEATURE
  41
1
  42
1
  43
1
  50
0
  10
505974.895
  20
4645426.000
 66
1
  0
ATTRIB
  8
FeatureAttribs
 70
0
  1
PNOA-H_AMS_1956-57_33k_ES_PAN_21mic_H50_0316_fot_30D-50553_W.tif
  2
NAME
  10
505974.895
  20
4645426.000
 40
33.30316
  0
SEQEND
  0
POLYLINE
  8
PNOA-H_AMS_1956-57_33k_ES_PAN_21mic_H50_0316_fot_30D-50553_W_tif
  70
9
  66
1
  0
VERTEX
  8
PNOA-H_AMS_1956-57_33k_ES_PAN_21mic_H50_0316_fot_30D-50553_W_tif
  70
32
  10
506086.174
  20
4643071.197
  30
1176.946
  0
VERTEX
  8
PNOA-H_AMS_1956-57_33k_ES_PAN_21mic_H50_0316_fot_30D-50553_W_tif
  70
32
  10
506084.500
  20
4643071.000
  30
1176.956
  0
VERTEX
  8
PNOA-H_AMS_1956-57_33k_ES_PAN_21mic_H50_0316_fot_30D-50553_W_tif
  70
32
  10
504635.000
  20
4643417.000
  30
1191.615
  0
VERTEX
  8
PNOA-H_AMS_1956-57_33k_ES_PAN_21mic_H50_0316_fot_30D-50553_W_tif
  70
32
  10
504634.456
  20
4643417.272
  30
1191.626
  0
VERTEX
  8
PNOA-H_AMS_1956-57_33k_ES_PAN_21mic_H50_0316_fot_30D-50553_W_tif
  70
32
  10
504634.000
  20
4643417.500
  30
1191.635
  0
VERTEX
  8
PNOA-H_AMS_1956-57_33k_ES_PAN_21mic_H50_0316_fot_30D-50553_W_tif
  70
32
  10
504634.000
  20
4643435.500
  30
1191.583
  0
VERTEX
  8
PNOA-H_AMS_1956-57_33k_ES_PAN_21mic_H50_0316_fot_30D-50553_W_tif
  70
32
  10
504700.500
  20
4647396.000
  30
1326.258
  0
VERTEX
  8
PNOA-H_AMS_1956-57_33k_ES_PAN_21mic_H50_0316_fot_30D-50553_W_tif
  70
32
  10
505192.026
  20
4647534.737
  30
1374.531
  0
VERTEX
  8
PNOA-H_AMS_1956-57_33k_ES_PAN_21mic_H50_0316_fot_30D-50553_W_tif
  70
32
  10
506064.500
  20
4647781.000
  30
1460.215
  0
VERTEX
  8
PNOA-H_AMS_1956-57_33k_ES_PAN_21mic_H50_0316_fot_30D-50553_W_tif
  70
32
  10
506064.526
  20
4647780.991
  30
1460.213
  0
VERTEX
  8
PNOA-H_AMS_1956-57_33k_ES_PAN_21mic_H50_0316_fot_30D-50553_W_tif
  70
32
  10
506065.500
  20
4647780.648
  30
1460.119
  0
VERTEX
  8
PNOA-H_AMS_1956-57_33k_ES_PAN_21mic_H50_0316_fot_30D-50553_W_tif
  70
32
  10
506226.413
  20
4647724.007
  30
1444.583
  0
VERTEX
  8
PNOA-H_AMS_1956-57_33k_ES_PAN_21mic_H50_0316_fot_30D-50553_W_tif
  70
32
  10
506314.500
  20
4647693.000
  30
1436.078
  0
VERTEX
  8
PNOA-H_AMS_1956-57_33k_ES_PAN_21mic_H50_0316_fot_30D-50553_W_tif
  70
32
  10
506316.000
  20
4647692.500
  30
1435.899
  0
VERTEX
  8
PNOA-H_AMS_1956-57_33k_ES_PAN_21mic_H50_0316_fot_30D-50553_W_tif
  70
32
  10
506414.026
  20
4647658.139
  30
1435.455
  0
VERTEX
  8
PNOA-H_AMS_1956-57_33k_ES_PAN_21mic_H50_0316_fot_30D-50553_W_tif
  70
32
  10
507362.455
  20
4647325.691
  30
1431.157
  0
VERTEX
  8
PNOA-H_AMS_1956-57_33k_ES_PAN_21mic_H50_0316_fot_30D-50553_W_tif
  70
32
  10
507363.000
  20
4647325.500
  30
1431.155
  0
VERTEX
  8
PNOA-H_AMS_1956-57_33k_ES_PAN_21mic_H50_0316_fot_30D-50553_W_tif
  70
32
  10
507362.973
  20
4647324.854
  30
1431.115
  0
VERTEX
  8
PNOA-H_AMS_1956-57_33k_ES_PAN_21mic_H50_0316_fot_30D-50553_W_tif
  70
32
  10
507194.500
  20
4643356.000
  30
1183.821
  0
VERTEX
  8
PNOA-H_AMS_1956-57_33k_ES_PAN_21mic_H50_0316_fot_30D-50553_W_tif
  70
32
  10
507189.168
  20
4643354.625
  30
1183.788
  0
VERTEX
  8
PNOA-H_AMS_1956-57_33k_ES_PAN_21mic_H50_0316_fot_30D-50553_W_tif
  70
32
  10
506093.000
  20
4643072.000
  30
1176.902
  0
VERTEX
  8
PNOA-H_AMS_1956-57_33k_ES_PAN_21mic_H50_0316_fot_30D-50553_W_tif
  70
32
  10
506089.099
  20
4643071.541
  30
1176.927
  0
VERTEX
  8
PNOA-H_AMS_1956-57_33k_ES_PAN_21mic_H50_0316_fot_30D-50553_W_tif
  70
32
  10
506086.174
  20
4643071.197
  30
1176.946
  0
SEQEND
  8
PNOA-H_AMS_1956-57_33k_ES_PAN_21mic_H50_0316_fot_30D-50553_W_tif
  0
INSERT
  8
FeatureAttribs
  2
FEATURE
  41
1
  42
1
  43
1
  50
0
  10
500702.194
  20
4645496.250
 66
1
  0
ATTRIB
  8
FeatureAttribs
 70
0
  1
PNOA-H_AMS_1956-57_33k_ES_PAN_21mic_H50_0316_fot_30D-50555_W.tif
  2
NAME
  10
500702.194
  20
4645496.250
 40
33.30316
  0
SEQEND
  0
POLYLINE
  8
PNOA-H_AMS_1956-57_33k_ES_PAN_21mic_H50_0316_fot_30D-50555_W_tif
  70
9
  66
1
  0
VERTEX
  8
PNOA-H_AMS_1956-57_33k_ES_PAN_21mic_H50_0316_fot_30D-50555_W_tif
  70
32
  10
501967.356
  20
4643370.945
  30
1114.621
  0
VERTEX
  8
PNOA-H_AMS_1956-57_33k_ES_PAN_21mic_H50_0316_fot_30D-50555_W_tif
  70
32
  10
501234.500
  20
4643088.000
  30
1252.158
  0
VERTEX
  8
PNOA-H_AMS_1956-57_33k_ES_PAN_21mic_H50_0316_fot_30D-50555_W_tif
  70
32
  10
501233.413
  20
4643088.159
  30
1251.83
  0
VERTEX
  8
PNOA-H_AMS_1956-57_33k_ES_PAN_21mic_H50_0316_fot_30D-50555_W_tif
  70
32
  10
501227.419
  20
4643089.036
  30
1250.021
  0
VERTEX
  8
PNOA-H_AMS_1956-57_33k_ES_PAN_21mic_H50_0316_fot_30D-50555_W_tif
  70
32
  10
501214.000
  20
4643091.000
  30
1245.971
  0
VERTEX
  8
PNOA-H_AMS_1956-57_33k_ES_PAN_21mic_H50_0316_fot_30D-50555_W_tif
  70
32
  10
500171.004
  20
4643285.000
  30
1283.453
  0
VERTEX
  8
PNOA-H_AMS_1956-57_33k_ES_PAN_21mic_H50_0316_fot_30D-50555_W_tif
  70
32
  10
499356.500
  20
4643436.500
  30
1312.724
  0
VERTEX
  8
PNOA-H_AMS_1956-57_33k_ES_PAN_21mic_H50_0316_fot_30D-50555_W_tif
  70
32
  10
499429.500
  20
4647617.500
  30
1158.817
  0
VERTEX
  8
PNOA-H_AMS_1956-57_33k_ES_PAN_21mic_H50_0316_fot_30D-50555_W_tif
  70
32
  10
501192.500
  20
4647904.000
  30
1315.733
  0
VERTEX
  8
PNOA-H_AMS_1956-57_33k_ES_PAN_21mic_H50_0316_fot_30D-50555_W_tif
  70
32
  10
501195.500
  20
4647904.500
  30
1316.508
  0
VERTEX
  8
PNOA-H_AMS_1956-57_33k_ES_PAN_21mic_H50_0316_fot_30D-50555_W_tif
  70
32
  10
501195.773
  20
4647904.382
  30
1316.516
  0
VERTEX
  8
PNOA-H_AMS_1956-57_33k_ES_PAN_21mic_H50_0316_fot_30D-50555_W_tif
  70
32
  10
501768.167
  20
4647656.833
  30
1331.988
  0
VERTEX
  8
PNOA-H_AMS_1956-57_33k_ES_PAN_21mic_H50_0316_fot_30D-50555_W_tif
  70
32
  10
502054.354
  20
4647533.063
  30
1339.723
  0
VERTEX
  8
PNOA-H_AMS_1956-57_33k_ES_PAN_21mic_H50_0316_fot_30D-50555_W_tif
  70
32
  10
502054.500
  20
4647533.000
  30
1339.727
  0
VERTEX
  8
PNOA-H_AMS_1956-57_33k_ES_PAN_21mic_H50_0316_fot_30D-50555_W_tif
  70
32
  10
501967.500
  20
4643371.000
  30
1114.594
  0
VERTEX
  8
PNOA-H_AMS_1956-57_33k_ES_PAN_21mic_H50_0316_fot_30D-50555_W_tif
  70
32
  10
501967.356
  20
4643370.945
  30
1114.621
  0
SEQEND
  8
PNOA-H_AMS_1956-57_33k_ES_PAN_21mic_H50_0316_fot_30D-50555_W_tif
  0
INSERT
  8
FeatureAttribs
  2
FEATURE
  41
1
  42
1
  43
1
  50
0
  10
502441.983
  20
4648655.199
 66
1
  0
ATTRIB
  8
FeatureAttribs
 70
0
  1
PNOA-H_AMS_1956-57_33k_ES_PAN_21mic_H50_0278_fot_29C-50601_E.tif
  2
NAME
  10
502441.983
  20
4648655.199
 40
33.30316
  0
SEQEND
  0
POLYLINE
  8
PNOA-H_AMS_1956-57_33k_ES_PAN_21mic_H50_0278_fot_29C-50601_E_tif
  70
9
  66
1
  0
VERTEX
  8
PNOA-H_AMS_1956-57_33k_ES_PAN_21mic_H50_0278_fot_29C-50601_E_tif
  70
32
  10
502054.354
  20
4647533.063
  30
1339.654
  0
VERTEX
  8
PNOA-H_AMS_1956-57_33k_ES_PAN_21mic_H50_0278_fot_29C-50601_E_tif
  70
32
  10
502054.000
  20
4647533.000
  30
1339.653
  0
VERTEX
  8
PNOA-H_AMS_1956-57_33k_ES_PAN_21mic_H50_0278_fot_29C-50601_E_tif
  70
32
  10
501768.167
  20
4647656.833
  30
1332.029
  0
VERTEX
  8
PNOA-H_AMS_1956-57_33k_ES_PAN_21mic_H50_0278_fot_29C-50601_E_tif
  70
32
  10
501196.500
  20
4647904.500
  30
1316.781
  0
VERTEX
  8
PNOA-H_AMS_1956-57_33k_ES_PAN_21mic_H50_0278_fot_29C-50601_E_tif
  70
32
  10
501283.744
  20
4649776.435
  30
1340.828
  0
VERTEX
  8
PNOA-H_AMS_1956-57_33k_ES_PAN_21mic_H50_0278_fot_29C-50601_E_tif
  70
32
  10
501283.755
  20
4649776.435
  30
0
  0
VERTEX
  8
PNOA-H_AMS_1956-57_33k_ES_PAN_21mic_H50_0278_fot_29C-50601_E_tif
  70
32
  10
501725.367
  20
4649776.435
  30
0
  0
VERTEX
  8
PNOA-H_AMS_1956-57_33k_ES_PAN_21mic_H50_0278_fot_29C-50601_E_tif
  70
32
  10
503705.653
  20
4649777.398
  30
1623.644
  0
VERTEX
  8
PNOA-H_AMS_1956-57_33k_ES_PAN_21mic_H50_0278_fot_29C-50601_E_tif
  70
32
  10
503612.500
  20
4647811.500
  30
1342.563
  0
VERTEX
  8
PNOA-H_AMS_1956-57_33k_ES_PAN_21mic_H50_0278_fot_29C-50601_E_tif
  70
32
  10
503611.500
  20
4647811.000
  30
1342.735
  0
VERTEX
  8
PNOA-H_AMS_1956-57_33k_ES_PAN_21mic_H50_0278_fot_29C-50601_E_tif
  70
32
  10
502095.174
  20
4647540.349
  30
1339.735
  0
VERTEX
  8
PNOA-H_AMS_1956-57_33k_ES_PAN_21mic_H50_0278_fot_29C-50601_E_tif
  70
32
  10
502054.354
  20
4647533.063
  30
1339.654
  0
SEQEND
  8
PNOA-H_AMS_1956-57_33k_ES_PAN_21mic_H50_0278_fot_29C-50601_E_tif
  0
INSERT
  8
FeatureAttribs
  2
FEATURE
  41
1
  42
1
  43
1
  50
0
  10
499985.833
  20
4648696.967
 66
1
  0
ATTRIB
  8
FeatureAttribs
 70
0
  1
PNOA-H_AMS_1956-57_33k_ES_PAN_21mic_H50_0278_fot_29C-50600_E.tif
  2
NAME
  10
499985.833
  20
4648696.967
 40
33.30316
  0
SEQEND
  0
POLYLINE
  8
PNOA-H_AMS_1956-57_33k_ES_PAN_21mic_H50_0278_fot_29C-50600_E_tif
  70
9
  66
1
  0
VERTEX
  8
PNOA-H_AMS_1956-57_33k_ES_PAN_21mic_H50_0278_fot_29C-50600_E_tif
  70
32
  10
499429.500
  20
4647617.500
  30
1158.818
  0
VERTEX
  8
PNOA-H_AMS_1956-57_33k_ES_PAN_21mic_H50_0278_fot_29C-50600_E_tif
  70
32
  10
499429.000
  20
4647617.500
  30
1158.744
  0
VERTEX
  8
PNOA-H_AMS_1956-57_33k_ES_PAN_21mic_H50_0278_fot_29C-50600_E_tif
  70
32
  10
499420.000
  20
4647621.500
  30
1157.74
  0
VERTEX
  8
PNOA-H_AMS_1956-57_33k_ES_PAN_21mic_H50_0278_fot_29C-50600_E_tif
  70
32
  10
498701.000
  20
4647956.500
  30
1146.17
  0
VERTEX
  8
PNOA-H_AMS_1956-57_33k_ES_PAN_21mic_H50_0278_fot_29C-50600_E_tif
  70
32
  10
498701.013
  20
4647956.761
  30
1146.178
  0
VERTEX
  8
PNOA-H_AMS_1956-57_33k_ES_PAN_21mic_H50_0278_fot_29C-50600_E_tif
  70
32
  10
498792.498
  20
4649776.435
  30
1205.045
  0
VERTEX
  8
PNOA-H_AMS_1956-57_33k_ES_PAN_21mic_H50_0278_fot_29C-50600_E_tif
  70
32
  10
501283.744
  20
4649776.435
  30
0
  0
VERTEX
  8
PNOA-H_AMS_1956-57_33k_ES_PAN_21mic_H50_0278_fot_29C-50600_E_tif
  70
32
  10
501283.755
  20
4649776.435
  30
1340.815
  0
VERTEX
  8
PNOA-H_AMS_1956-57_33k_ES_PAN_21mic_H50_0278_fot_29C-50600_E_tif
  70
32
  10
501196.500
  20
4647904.500
  30
1316.781
  0
VERTEX
  8
PNOA-H_AMS_1956-57_33k_ES_PAN_21mic_H50_0278_fot_29C-50600_E_tif
  70
32
  10
501195.773
  20
4647904.382
  30
1316.716
  0
VERTEX
  8
PNOA-H_AMS_1956-57_33k_ES_PAN_21mic_H50_0278_fot_29C-50600_E_tif
  70
32
  10
499431.500
  20
4647617.500
  30
1159.11
  0
VERTEX
  8
PNOA-H_AMS_1956-57_33k_ES_PAN_21mic_H50_0278_fot_29C-50600_E_tif
  70
32
  10
499429.500
  20
4647617.500
  30
1158.818
  0
SEQEND
  8
PNOA-H_AMS_1956-57_33k_ES_PAN_21mic_H50_0278_fot_29C-50600_E_tif
  0
INSERT
  8
FeatureAttribs
  2
FEATURE
  41
1
  42
1
  43
1
  50
0
  10
504878.397
  20
4648587.541
 66
1
  0
ATTRIB
  8
FeatureAttribs
 70
0
  1
PNOA-H_AMS_1956-57_33k_ES_PAN_21mic_H50_0278_fot_29C-50602_E.tif
  2
NAME
  10
504878.397
  20
4648587.541
 40
33.30316
  0
SEQEND
  0
POLYLINE
  8
PNOA-H_AMS_1956-57_33k_ES_PAN_21mic_H50_0278_fot_29C-50602_E_tif
  70
9
  66
1
  0
VERTEX
  8
PNOA-H_AMS_1956-57_33k_ES_PAN_21mic_H50_0278_fot_29C-50602_E_tif
  70
32
  10
504700.076
  20
4647396.162
  30
1326.126
  0
VERTEX
  8
PNOA-H_AMS_1956-57_33k_ES_PAN_21mic_H50_0278_fot_29C-50602_E_tif
  70
32
  10
504699.500
  20
4647396.000
  30
1326.07
  0
VERTEX
  8
PNOA-H_AMS_1956-57_33k_ES_PAN_21mic_H50_0278_fot_29C-50602_E_tif
  70
32
  10
503612.500
  20
4647811.000
  30
1342.482
  0
VERTEX
  8
PNOA-H_AMS_1956-57_33k_ES_PAN_21mic_H50_0278_fot_29C-50602_E_tif
  70
32
  10
503612.523
  20
4647811.491
  30
1342.552
  0
VERTEX
  8
PNOA-H_AMS_1956-57_33k_ES_PAN_21mic_H50_0278_fot_29C-50602_E_tif
  70
32
  10
503705.677
  20
4649777.398
  30
1623.641
  0
VERTEX
  8
PNOA-H_AMS_1956-57_33k_ES_PAN_21mic_H50_0278_fot_29C-50602_E_tif
  70
32
  10
505176.101
  20
4649778.114
  30
0
  0
VERTEX
  8
PNOA-H_AMS_1956-57_33k_ES_PAN_21mic_H50_0278_fot_29C-50602_E_tif
  70
32
  10
506170.983
  20
4649779.082
  30
1716.882
  0
VERTEX
  8
PNOA-H_AMS_1956-57_33k_ES_PAN_21mic_H50_0278_fot_29C-50602_E_tif
  70
32
  10
506064.526
  20
4647780.991
  30
1460.185
  0
VERTEX
  8
PNOA-H_AMS_1956-57_33k_ES_PAN_21mic_H50_0278_fot_29C-50602_E_tif
  70
32
  10
506064.500
  20
4647780.500
  30
1460.122
  0
VERTEX
  8
PNOA-H_AMS_1956-57_33k_ES_PAN_21mic_H50_0278_fot_29C-50602_E_tif
  70
32
  10
505192.026
  20
4647534.737
  30
1374.439
  0
VERTEX
  8
PNOA-H_AMS_1956-57_33k_ES_PAN_21mic_H50_0278_fot_29C-50602_E_tif
  70
32
  10
504700.076
  20
4647396.162
  30
1326.126
  0
SEQEND
  8
PNOA-H_AMS_1956-57_33k_ES_PAN_21mic_H50_0278_fot_29C-50602_E_tif
  0
INSERT
  8
FeatureAttribs
  2
FEATURE
  41
1
  42
1
  43
1
  50
0
  10
503339.560
  20
4645455.000
 66
1
  0
ATTRIB
  8
FeatureAttribs
 70
0
  1
PNOA-H_AMS_1956-57_33k_ES_PAN_21mic_H50_0316_fot_30D-50554_W.tif
  2
NAME
  10
503339.560
  20
4645455.000
 40
33.30316
  0
SEQEND
  0
POLYLINE
  8
PNOA-H_AMS_1956-57_33k_ES_PAN_21mic_H50_0316_fot_30D-50554_W_tif
  70
9
  66
1
  0
VERTEX
  8
PNOA-H_AMS_1956-57_33k_ES_PAN_21mic_H50_0316_fot_30D-50554_W_tif
  70
32
  10
504633.798
  20
4643417.429
  30
1191.626
  0
VERTEX
  8
PNOA-H_AMS_1956-57_33k_ES_PAN_21mic_H50_0316_fot_30D-50554_W_tif
  70
32
  10
503727.500
  20
4643098.500
  30
1151.236
  0
VERTEX
  8
PNOA-H_AMS_1956-57_33k_ES_PAN_21mic_H50_0316_fot_30D-50554_W_tif
  70
32
  10
503726.806
  20
4643098.608
  30
1151.222
  0
VERTEX
  8
PNOA-H_AMS_1956-57_33k_ES_PAN_21mic_H50_0316_fot_30D-50554_W_tif
  70
32
  10
502790.839
  20
4643243.523
  30
1131.735
  0
VERTEX
  8
PNOA-H_AMS_1956-57_33k_ES_PAN_21mic_H50_0316_fot_30D-50554_W_tif
  70
32
  10
502219.390
  20
4643332.000
  30
1119.838
  0
VERTEX
  8
PNOA-H_AMS_1956-57_33k_ES_PAN_21mic_H50_0316_fot_30D-50554_W_tif
  70
32
  10
501967.500
  20
4643371.000
  30
1114.594
  0
VERTEX
  8
PNOA-H_AMS_1956-57_33k_ES_PAN_21mic_H50_0316_fot_30D-50554_W_tif
  70
32
  10
502054.500
  20
4647533.000
  30
1339.727
  0
VERTEX
  8
PNOA-H_AMS_1956-57_33k_ES_PAN_21mic_H50_0316_fot_30D-50554_W_tif
  70
32
  10
502095.174
  20
4647540.349
  30
1343.301
  0
VERTEX
  8
PNOA-H_AMS_1956-57_33k_ES_PAN_21mic_H50_0316_fot_30D-50554_W_tif
  70
32
  10
502215.000
  20
4647562.000
  30
1353.831
  0
VERTEX
  8
PNOA-H_AMS_1956-57_33k_ES_PAN_21mic_H50_0316_fot_30D-50554_W_tif
  70
32
  10
502218.000
  20
4647562.500
  30
1353.73
  0
VERTEX
  8
PNOA-H_AMS_1956-57_33k_ES_PAN_21mic_H50_0316_fot_30D-50554_W_tif
  70
32
  10
503612.500
  20
4647811.500
  30
1342.563
  0
VERTEX
  8
PNOA-H_AMS_1956-57_33k_ES_PAN_21mic_H50_0316_fot_30D-50554_W_tif
  70
32
  10
503612.523
  20
4647811.491
  30
1342.563
  0
VERTEX
  8
PNOA-H_AMS_1956-57_33k_ES_PAN_21mic_H50_0316_fot_30D-50554_W_tif
  70
32
  10
504700.076
  20
4647396.162
  30
1326.265
  0
VERTEX
  8
PNOA-H_AMS_1956-57_33k_ES_PAN_21mic_H50_0316_fot_30D-50554_W_tif
  70
32
  10
504700.500
  20
4647396.000
  30
1326.258
  0
VERTEX
  8
PNOA-H_AMS_1956-57_33k_ES_PAN_21mic_H50_0316_fot_30D-50554_W_tif
  70
32
  10
504634.000
  20
4643417.500
  30
1191.635
  0
VERTEX
  8
PNOA-H_AMS_1956-57_33k_ES_PAN_21mic_H50_0316_fot_30D-50554_W_tif
  70
32
  10
504633.798
  20
4643417.429
  30
1191.626
  0
SEQEND
  8
PNOA-H_AMS_1956-57_33k_ES_PAN_21mic_H50_0316_fot_30D-50554_W_tif
  0
INSERT
  8
FeatureAttribs
  2
FEATURE
  41
1
  42
1
  43
1
  50
0
  10
504920.039
  20
4640938.750
 66
1
  0
ATTRIB
  8
FeatureAttribs
 70
0
  1
PNOA-H_AMS_1956-57_33k_ES_PAN_21mic_H50_0316_fot_31B-36872_E.tif
  2
NAME
  10
504920.039
  20
4640938.750
 40
33.30316
  0
SEQEND
  0
POLYLINE
  8
PNOA-H_AMS_1956-57_33k_ES_PAN_21mic_H50_0316_fot_31B-36872_E_tif
  70
9
  66
1
  0
VERTEX
  8
PNOA-H_AMS_1956-57_33k_ES_PAN_21mic_H50_0316_fot_31B-36872_E_tif
  70
32
  10
505234.206
  20
4638460.059
  30
1361.231
  0
VERTEX
  8
PNOA-H_AMS_1956-57_33k_ES_PAN_21mic_H50_0316_fot_31B-36872_E_tif
  70
32
  10
505234.000
  20
4638460.000
  30
1361.228
  0
VERTEX
  8
PNOA-H_AMS_1956-57_33k_ES_PAN_21mic_H50_0316_fot_31B-36872_E_tif
  70
32
  10
504506.250
  20
4638605.750
  30
1278.008
  0
VERTEX
  8
PNOA-H_AMS_1956-57_33k_ES_PAN_21mic_H50_0316_fot_31B-36872_E_tif
  70
32
  10
503778.500
  20
4638751.500
  30
1194.788
  0
VERTEX
  8
PNOA-H_AMS_1956-57_33k_ES_PAN_21mic_H50_0316_fot_31B-36872_E_tif
  70
32
  10
503726.500
  20
4643098.500
  30
1151.077
  0
VERTEX
  8
PNOA-H_AMS_1956-57_33k_ES_PAN_21mic_H50_0316_fot_31B-36872_E_tif
  70
32
  10
503726.806
  20
4643098.608
  30
1151.091
  0
VERTEX
  8
PNOA-H_AMS_1956-57_33k_ES_PAN_21mic_H50_0316_fot_31B-36872_E_tif
  70
32
  10
504632.000
  20
4643417.000
  30
1191.695
  0
VERTEX
  8
PNOA-H_AMS_1956-57_33k_ES_PAN_21mic_H50_0316_fot_31B-36872_E_tif
  70
32
  10
504633.500
  20
4643417.500
  30
1191.647
  0
VERTEX
  8
PNOA-H_AMS_1956-57_33k_ES_PAN_21mic_H50_0316_fot_31B-36872_E_tif
  70
32
  10
504633.798
  20
4643417.429
  30
1191.644
  0
VERTEX
  8
PNOA-H_AMS_1956-57_33k_ES_PAN_21mic_H50_0316_fot_31B-36872_E_tif
  70
32
  10
504634.456
  20
4643417.272
  30
1191.637
  0
VERTEX
  8
PNOA-H_AMS_1956-57_33k_ES_PAN_21mic_H50_0316_fot_31B-36872_E_tif
  70
32
  10
506086.174
  20
4643071.197
  30
1176.933
  0
VERTEX
  8
PNOA-H_AMS_1956-57_33k_ES_PAN_21mic_H50_0316_fot_31B-36872_E_tif
  70
32
  10
506087.000
  20
4643071.000
  30
1176.925
  0
VERTEX
  8
PNOA-H_AMS_1956-57_33k_ES_PAN_21mic_H50_0316_fot_31B-36872_E_tif
  70
32
  10
506088.500
  20
4638768.000
  30
1362.537
  0
VERTEX
  8
PNOA-H_AMS_1956-57_33k_ES_PAN_21mic_H50_0316_fot_31B-36872_E_tif
  70
32
  10
506088.354
  20
4638767.947
  30
1362.536
  0
VERTEX
  8
PNOA-H_AMS_1956-57_33k_ES_PAN_21mic_H50_0316_fot_31B-36872_E_tif
  70
32
  10
505237.500
  20
4638461.000
  30
1361.285
  0
VERTEX
  8
PNOA-H_AMS_1956-57_33k_ES_PAN_21mic_H50_0316_fot_31B-36872_E_tif
  70
32
  10
505234.510
  20
4638460.146
  30
1361.236
  0
VERTEX
  8
PNOA-H_AMS_1956-57_33k_ES_PAN_21mic_H50_0316_fot_31B-36872_E_tif
  70
32
  10
505234.206
  20
4638460.059
  30
1361.231
  0
SEQEND
  8
PNOA-H_AMS_1956-57_33k_ES_PAN_21mic_H50_0316_fot_31B-36872_E_tif
  0
INSERT
  8
FeatureAttribs
  2
FEATURE
  41
1
  42
1
  43
1
  50
0
  10
502481.692
  20
4640887.750
 66
1
  0
ATTRIB
  8
FeatureAttribs
 70
0
  1
PNOA-H_AMS_1956-57_33k_ES_PAN_21mic_H50_0316_fot_31B-36871_E.tif
  2
NAME
  10
502481.692
  20
4640887.750
 40
33.30316
  0
SEQEND
  0
POLYLINE
  8
PNOA-H_AMS_1956-57_33k_ES_PAN_21mic_H50_0316_fot_31B-36871_E_tif
  70
9
  66
1
  0
VERTEX
  8
PNOA-H_AMS_1956-57_33k_ES_PAN_21mic_H50_0316_fot_31B-36871_E_tif
  70
32
  10
502217.500
  20
4643332.000
  30
1111.528
  0
VERTEX
  8
PNOA-H_AMS_1956-57_33k_ES_PAN_21mic_H50_0316_fot_31B-36871_E_tif
  70
32
  10
502219.390
  20
4643332.000
  30
1111.434
  0
VERTEX
  8
PNOA-H_AMS_1956-57_33k_ES_PAN_21mic_H50_0316_fot_31B-36871_E_tif
  70
32
  10
502220.000
  20
4643332.000
  30
1111.404
  0
VERTEX
  8
PNOA-H_AMS_1956-57_33k_ES_PAN_21mic_H50_0316_fot_31B-36871_E_tif
  70
32
  10
502790.839
  20
4643243.523
  30
1126.437
  0
VERTEX
  8
PNOA-H_AMS_1956-57_33k_ES_PAN_21mic_H50_0316_fot_31B-36871_E_tif
  70
32
  10
503726.500
  20
4643098.500
  30
1151.077
  0
VERTEX
  8
PNOA-H_AMS_1956-57_33k_ES_PAN_21mic_H50_0316_fot_31B-36871_E_tif
  70
32
  10
503778.500
  20
4638751.500
  30
1194.788
  0
VERTEX
  8
PNOA-H_AMS_1956-57_33k_ES_PAN_21mic_H50_0316_fot_31B-36871_E_tif
  70
32
  10
503778.308
  20
4638751.438
  30
1194.786
  0
VERTEX
  8
PNOA-H_AMS_1956-57_33k_ES_PAN_21mic_H50_0316_fot_31B-36871_E_tif
  70
32
  10
502696.000
  20
4638404.500
  30
1179.465
  0
VERTEX
  8
PNOA-H_AMS_1956-57_33k_ES_PAN_21mic_H50_0316_fot_31B-36871_E_tif
  70
32
  10
502695.724
  20
4638404.572
  30
1179.474
  0
VERTEX
  8
PNOA-H_AMS_1956-57_33k_ES_PAN_21mic_H50_0316_fot_31B-36871_E_tif
  70
32
  10
502695.501
  20
4638404.630
  30
1179.482
  0
VERTEX
  8
PNOA-H_AMS_1956-57_33k_ES_PAN_21mic_H50_0316_fot_31B-36871_E_tif
  70
32
  10
501189.029
  20
4638796.992
  30
1229.357
  0
VERTEX
  8
PNOA-H_AMS_1956-57_33k_ES_PAN_21mic_H50_0316_fot_31B-36871_E_tif
  70
32
  10
501189.000
  20
4638797.000
  30
1229.358
  0
VERTEX
  8
PNOA-H_AMS_1956-57_33k_ES_PAN_21mic_H50_0316_fot_31B-36871_E_tif
  70
32
  10
501233.000
  20
4643088.000
  30
1251.685
  0
VERTEX
  8
PNOA-H_AMS_1956-57_33k_ES_PAN_21mic_H50_0316_fot_31B-36871_E_tif
  70
32
  10
501233.413
  20
4643088.159
  30
1251.608
  0
VERTEX
  8
PNOA-H_AMS_1956-57_33k_ES_PAN_21mic_H50_0316_fot_31B-36871_E_tif
  70
32
  10
501967.000
  20
4643371.000
  30
1114.702
  0
VERTEX
  8
PNOA-H_AMS_1956-57_33k_ES_PAN_21mic_H50_0316_fot_31B-36871_E_tif
  70
32
  10
501967.356
  20
4643370.945
  30
1114.698
  0
VERTEX
  8
PNOA-H_AMS_1956-57_33k_ES_PAN_21mic_H50_0316_fot_31B-36871_E_tif
  70
32
  10
502217.500
  20
4643332.000
  30
1111.528
  0
SEQEND
  8
PNOA-H_AMS_1956-57_33k_ES_PAN_21mic_H50_0316_fot_31B-36871_E_tif
  0
INSERT
  8
FeatureAttribs
  2
FEATURE
  41
1
  42
1
  43
1
  50
0
  10
499803.863
  20
4640933.750
 66
1
  0
ATTRIB
  8
FeatureAttribs
 70
0
  1
PNOA-H_AMS_1956-57_33k_ES_PAN_21mic_H50_0316_fot_31B-36870_E.tif
  2
NAME
  10
499803.863
  20
4640933.750
 40
33.30316
  0
SEQEND
  0
POLYLINE
  8
PNOA-H_AMS_1956-57_33k_ES_PAN_21mic_H50_0316_fot_31B-36870_E_tif
  70
9
  66
1
  0
VERTEX
  8
PNOA-H_AMS_1956-57_33k_ES_PAN_21mic_H50_0316_fot_31B-36870_E_tif
  70
32
  10
499356.335
  20
4643436.438
  30
1312.601
  0
VERTEX
  8
PNOA-H_AMS_1956-57_33k_ES_PAN_21mic_H50_0316_fot_31B-36870_E_tif
  70
32
  10
500170.000
  20
4643285.000
  30
1248.291
  0
VERTEX
  8
PNOA-H_AMS_1956-57_33k_ES_PAN_21mic_H50_0316_fot_31B-36870_E_tif
  70
32
  10
500171.004
  20
4643285.000
  30
1248.253
  0
VERTEX
  8
PNOA-H_AMS_1956-57_33k_ES_PAN_21mic_H50_0316_fot_31B-36870_E_tif
  70
32
  10
500172.000
  20
4643285.000
  30
1248.215
  0
VERTEX
  8
PNOA-H_AMS_1956-57_33k_ES_PAN_21mic_H50_0316_fot_31B-36870_E_tif
  70
32
  10
501227.419
  20
4643089.036
  30
1251.667
  0
VERTEX
  8
PNOA-H_AMS_1956-57_33k_ES_PAN_21mic_H50_0316_fot_31B-36870_E_tif
  70
32
  10
501233.000
  20
4643088.000
  30
1251.685
  0
VERTEX
  8
PNOA-H_AMS_1956-57_33k_ES_PAN_21mic_H50_0316_fot_31B-36870_E_tif
  70
32
  10
501189.500
  20
4638805.000
  30
1227.639
  0
VERTEX
  8
PNOA-H_AMS_1956-57_33k_ES_PAN_21mic_H50_0316_fot_31B-36870_E_tif
  70
32
  10
501189.029
  20
4638796.992
  30
1229.369
  0
VERTEX
  8
PNOA-H_AMS_1956-57_33k_ES_PAN_21mic_H50_0316_fot_31B-36870_E_tif
  70
32
  10
501189.000
  20
4638796.500
  30
1229.475
  0
VERTEX
  8
PNOA-H_AMS_1956-57_33k_ES_PAN_21mic_H50_0316_fot_31B-36870_E_tif
  70
32
  10
500092.000
  20
4638431.000
  30
1260.576
  0
VERTEX
  8
PNOA-H_AMS_1956-57_33k_ES_PAN_21mic_H50_0316_fot_31B-36870_E_tif
  70
32
  10
500091.710
  20
4638431.070
  30
1260.577
  0
VERTEX
  8
PNOA-H_AMS_1956-57_33k_ES_PAN_21mic_H50_0316_fot_31B-36870_E_tif
  70
32
  10
498385.500
  20
4638842.500
  30
1269.859
  0
VERTEX
  8
PNOA-H_AMS_1956-57_33k_ES_PAN_21mic_H50_0316_fot_31B-36870_E_tif
  70
32
  10
498408.000
  20
4643079.500
  30
1333.094
  0
VERTEX
  8
PNOA-H_AMS_1956-57_33k_ES_PAN_21mic_H50_0316_fot_31B-36870_E_tif
  70
32
  10
498408.192
  20
4643079.572
  30
1333.09
  0
VERTEX
  8
PNOA-H_AMS_1956-57_33k_ES_PAN_21mic_H50_0316_fot_31B-36870_E_tif
  70
32
  10
499356.000
  20
4643436.500
  30
1312.628
  0
VERTEX
  8
PNOA-H_AMS_1956-57_33k_ES_PAN_21mic_H50_0316_fot_31B-36870_E_tif
  70
32
  10
499356.335
  20
4643436.438
  30
1312.601
  0
SEQEND
  8
PNOA-H_AMS_1956-57_33k_ES_PAN_21mic_H50_0316_fot_31B-36870_E_tif
  0
INSERT
  8
FeatureAttribs
  2
FEATURE
  41
1
  42
1
  43
1
  50
0
  10
506598.205
  20
4636439.250
 66
1
  0
ATTRIB
  8
FeatureAttribs
 70
0
  1
PNOA-H_AMS_1956-57_33k_ES_PAN_21mic_H50_0316_fot_32B-39532_W.tif
  2
NAME
  10
506598.205
  20
4636439.250
 40
33.30316
  0
SEQEND
  0
POLYLINE
  8
PNOA-H_AMS_1956-57_33k_ES_PAN_21mic_H50_0316_fot_32B-39532_W_tif
  70
9
  66
1
  0
VERTEX
  8
PNOA-H_AMS_1956-57_33k_ES_PAN_21mic_H50_0316_fot_32B-39532_W_tif
  70
32
  10
507912.993
  20
4634124.000
  30
1138.95
  0
VERTEX
  8
PNOA-H_AMS_1956-57_33k_ES_PAN_21mic_H50_0316_fot_32B-39532_W_tif
  70
32
  10
505355.500
  20
4634110.500
  30
1132.98
  0
VERTEX
  8
PNOA-H_AMS_1956-57_33k_ES_PAN_21mic_H50_0316_fot_32B-39532_W_tif
  70
32
  10
505355.499
  20
4634110.571
  30
1132.984
  0
VERTEX
  8
PNOA-H_AMS_1956-57_33k_ES_PAN_21mic_H50_0316_fot_32B-39532_W_tif
  70
32
  10
505239.761
  20
4638271.370
  30
1351.227
  0
VERTEX
  8
PNOA-H_AMS_1956-57_33k_ES_PAN_21mic_H50_0316_fot_32B-39532_W_tif
  70
32
  10
505234.510
  20
4638460.146
  30
1361.129
  0
VERTEX
  8
PNOA-H_AMS_1956-57_33k_ES_PAN_21mic_H50_0316_fot_32B-39532_W_tif
  70
32
  10
505234.500
  20
4638460.500
  30
1361.148
  0
VERTEX
  8
PNOA-H_AMS_1956-57_33k_ES_PAN_21mic_H50_0316_fot_32B-39532_W_tif
  70
32
  10
506086.500
  20
4638767.500
  30
1362.527
  0
VERTEX
  8
PNOA-H_AMS_1956-57_33k_ES_PAN_21mic_H50_0316_fot_32B-39532_W_tif
  70
32
  10
506088.000
  20
4638768.000
  30
1362.589
  0
VERTEX
  8
PNOA-H_AMS_1956-57_33k_ES_PAN_21mic_H50_0316_fot_32B-39532_W_tif
  70
32
  10
506088.354
  20
4638767.947
  30
1362.575
  0
VERTEX
  8
PNOA-H_AMS_1956-57_33k_ES_PAN_21mic_H50_0316_fot_32B-39532_W_tif
  70
32
  10
507884.000
  20
4638499.500
  30
1292.508
  0
VERTEX
  8
PNOA-H_AMS_1956-57_33k_ES_PAN_21mic_H50_0316_fot_32B-39532_W_tif
  70
32
  10
507929.500
  20
4634177.000
  30
1144.383
  0
VERTEX
  8
PNOA-H_AMS_1956-57_33k_ES_PAN_21mic_H50_0316_fot_32B-39532_W_tif
  70
32
  10
507929.500
  20
4634134.000
  30
1139.067
  0
VERTEX
  8
PNOA-H_AMS_1956-57_33k_ES_PAN_21mic_H50_0316_fot_32B-39532_W_tif
  70
32
  10
507929.500
  20
4634133.500
  30
1139.006
  0
VERTEX
  8
PNOA-H_AMS_1956-57_33k_ES_PAN_21mic_H50_0316_fot_32B-39532_W_tif
  70
32
  10
507913.000
  20
4634124.000
  30
1138.95
  0
VERTEX
  8
PNOA-H_AMS_1956-57_33k_ES_PAN_21mic_H50_0316_fot_32B-39532_W_tif
  70
32
  10
507912.993
  20
4634124.000
  30
1138.95
  0
SEQEND
  8
PNOA-H_AMS_1956-57_33k_ES_PAN_21mic_H50_0316_fot_32B-39532_W_tif
  0
INSERT
  8
FeatureAttribs
  2
FEATURE
  41
1
  42
1
  43
1
  50
0
  10
503996.741
  20
4636417.000
 66
1
  0
ATTRIB
  8
FeatureAttribs
 70
0
  1
PNOA-H_AMS_1956-57_33k_ES_PAN_21mic_H50_0316_fot_32B-39533_W.tif
  2
NAME
  10
503996.741
  20
4636417.000
 40
33.30316
  0
SEQEND
  0
POLYLINE
  8
PNOA-H_AMS_1956-57_33k_ES_PAN_21mic_H50_0316_fot_32B-39533_W_tif
  70
9
  66
1
  0
VERTEX
  8
PNOA-H_AMS_1956-57_33k_ES_PAN_21mic_H50_0316_fot_32B-39533_W_tif
  70
32
  10
505355.500
  20
4634110.500
  30
1132.98
  0
VERTEX
  8
PNOA-H_AMS_1956-57_33k_ES_PAN_21mic_H50_0316_fot_32B-39533_W_tif
  70
32
  10
505306.500
  20
4634082.500
  30
1133.327
  0
VERTEX
  8
PNOA-H_AMS_1956-57_33k_ES_PAN_21mic_H50_0316_fot_32B-39533_W_tif
  70
32
  10
505306.491
  20
4634082.500
  30
1133.327
  0
VERTEX
  8
PNOA-H_AMS_1956-57_33k_ES_PAN_21mic_H50_0316_fot_32B-39533_W_tif
  70
32
  10
504267.700
  20
4634099.500
  30
1148.34
  0
VERTEX
  8
PNOA-H_AMS_1956-57_33k_ES_PAN_21mic_H50_0316_fot_32B-39533_W_tif
  70
32
  10
503704.096
  20
4634108.723
  30
1156.486
  0
VERTEX
  8
PNOA-H_AMS_1956-57_33k_ES_PAN_21mic_H50_0316_fot_32B-39533_W_tif
  70
32
  10
502709.500
  20
4634125.000
  30
1170.86
  0
VERTEX
  8
PNOA-H_AMS_1956-57_33k_ES_PAN_21mic_H50_0316_fot_32B-39533_W_tif
  70
32
  10
502695.501
  20
4638404.500
  30
1179.298
  0
VERTEX
  8
PNOA-H_AMS_1956-57_33k_ES_PAN_21mic_H50_0316_fot_32B-39533_W_tif
  70
32
  10
502695.724
  20
4638404.572
  30
1179.302
  0
VERTEX
  8
PNOA-H_AMS_1956-57_33k_ES_PAN_21mic_H50_0316_fot_32B-39533_W_tif
  70
32
  10
503776.000
  20
4638751.000
  30
1194.222
  0
VERTEX
  8
PNOA-H_AMS_1956-57_33k_ES_PAN_21mic_H50_0316_fot_32B-39533_W_tif
  70
32
  10
503778.000
  20
4638751.500
  30
1194.681
  0
VERTEX
  8
PNOA-H_AMS_1956-57_33k_ES_PAN_21mic_H50_0316_fot_32B-39533_W_tif
  70
32
  10
503778.308
  20
4638751.438
  30
1194.716
  0
VERTEX
  8
PNOA-H_AMS_1956-57_33k_ES_PAN_21mic_H50_0316_fot_32B-39533_W_tif
  70
32
  10
504506.250
  20
4638605.750
  30
1277.974
  0
VERTEX
  8
PNOA-H_AMS_1956-57_33k_ES_PAN_21mic_H50_0316_fot_32B-39533_W_tif
  70
32
  10
505234.206
  20
4638460.059
  30
1361.233
  0
VERTEX
  8
PNOA-H_AMS_1956-57_33k_ES_PAN_21mic_H50_0316_fot_32B-39533_W_tif
  70
32
  10
505234.500
  20
4638460.000
  30
1361.267
  0
VERTEX
  8
PNOA-H_AMS_1956-57_33k_ES_PAN_21mic_H50_0316_fot_32B-39533_W_tif
  70
32
  10
505239.761
  20
4638271.370
  30
1351.357
  0
VERTEX
  8
PNOA-H_AMS_1956-57_33k_ES_PAN_21mic_H50_0316_fot_32B-39533_W_tif
  70
32
  10
505355.500
  20
4634121.500
  30
1133.343
  0
VERTEX
  8
PNOA-H_AMS_1956-57_33k_ES_PAN_21mic_H50_0316_fot_32B-39533_W_tif
  70
32
  10
505355.499
  20
4634110.571
  30
1132.983
  0
VERTEX
  8
PNOA-H_AMS_1956-57_33k_ES_PAN_21mic_H50_0316_fot_32B-39533_W_tif
  70
32
  10
505355.500
  20
4634110.500
  30
1132.98
  0
SEQEND
  8
PNOA-H_AMS_1956-57_33k_ES_PAN_21mic_H50_0316_fot_32B-39533_W_tif
  0
INSERT
  8
FeatureAttribs
  2
FEATURE
  41
1
  42
1
  43
1
  50
0
  10
501385.776
  20
4636460.000
 66
1
  0
ATTRIB
  8
FeatureAttribs
 70
0
  1
PNOA-H_AMS_1956-57_33k_ES_PAN_21mic_H50_0316_fot_32B-39534_W.tif
  2
NAME
  10
501385.776
  20
4636460.000
 40
33.30316
  0
SEQEND
  0
POLYLINE
  8
PNOA-H_AMS_1956-57_33k_ES_PAN_21mic_H50_0316_fot_32B-39534_W_tif
  70
9
  66
1
  0
VERTEX
  8
PNOA-H_AMS_1956-57_33k_ES_PAN_21mic_H50_0316_fot_32B-39534_W_tif
  70
32
  10
502705.500
  20
4634123.000
  30
1170.554
  0
VERTEX
  8
PNOA-H_AMS_1956-57_33k_ES_PAN_21mic_H50_0316_fot_32B-39534_W_tif
  70
32
  10
502660.500
  20
4634123.000
  30
1168.048
  0
VERTEX
  8
PNOA-H_AMS_1956-57_33k_ES_PAN_21mic_H50_0316_fot_32B-39534_W_tif
  70
32
  10
500135.807
  20
4634150.500
  30
1128.473
  0
VERTEX
  8
PNOA-H_AMS_1956-57_33k_ES_PAN_21mic_H50_0316_fot_32B-39534_W_tif
  70
32
  10
500044.000
  20
4634151.500
  30
1127.034
  0
VERTEX
  8
PNOA-H_AMS_1956-57_33k_ES_PAN_21mic_H50_0316_fot_32B-39534_W_tif
  70
32
  10
500044.011
  20
4634152.511
  30
1127.066
  0
VERTEX
  8
PNOA-H_AMS_1956-57_33k_ES_PAN_21mic_H50_0316_fot_32B-39534_W_tif
  70
32
  10
500091.500
  20
4638431.000
  30
1260.535
  0
VERTEX
  8
PNOA-H_AMS_1956-57_33k_ES_PAN_21mic_H50_0316_fot_32B-39534_W_tif
  70
32
  10
500091.710
  20
4638431.070
  30
1260.529
  0
VERTEX
  8
PNOA-H_AMS_1956-57_33k_ES_PAN_21mic_H50_0316_fot_32B-39534_W_tif
  70
32
  10
501189.000
  20
4638797.000
  30
1229.358
  0
VERTEX
  8
PNOA-H_AMS_1956-57_33k_ES_PAN_21mic_H50_0316_fot_32B-39534_W_tif
  70
32
  10
501189.029
  20
4638796.992
  30
1229.357
  0
VERTEX
  8
PNOA-H_AMS_1956-57_33k_ES_PAN_21mic_H50_0316_fot_32B-39534_W_tif
  70
32
  10
502695.500
  20
4638405.000
  30
1179.218
  0
VERTEX
  8
PNOA-H_AMS_1956-57_33k_ES_PAN_21mic_H50_0316_fot_32B-39534_W_tif
  70
32
  10
502695.501
  20
4638404.630
  30
1179.218
  0
VERTEX
  8
PNOA-H_AMS_1956-57_33k_ES_PAN_21mic_H50_0316_fot_32B-39534_W_tif
  70
32
  10
502695.501
  20
4638404.500
  30
1179.218
  0
VERTEX
  8
PNOA-H_AMS_1956-57_33k_ES_PAN_21mic_H50_0316_fot_32B-39534_W_tif
  70
32
  10
502709.500
  20
4634170.000
  30
1173.926
  0
VERTEX
  8
PNOA-H_AMS_1956-57_33k_ES_PAN_21mic_H50_0316_fot_32B-39534_W_tif
  70
32
  10
502709.500
  20
4634149.000
  30
1172.371
  0
VERTEX
  8
PNOA-H_AMS_1956-57_33k_ES_PAN_21mic_H50_0316_fot_32B-39534_W_tif
  70
32
  10
502709.500
  20
4634125.000
  30
1170.86
  0
VERTEX
  8
PNOA-H_AMS_1956-57_33k_ES_PAN_21mic_H50_0316_fot_32B-39534_W_tif
  70
32
  10
502706.500
  20
4634123.000
  30
1170.61
  0
VERTEX
  8
PNOA-H_AMS_1956-57_33k_ES_PAN_21mic_H50_0316_fot_32B-39534_W_tif
  70
32
  10
502705.500
  20
4634123.000
  30
1170.554
  0
SEQEND
  8
PNOA-H_AMS_1956-57_33k_ES_PAN_21mic_H50_0316_fot_32B-39534_W_tif
  0
INSERT
  8
FeatureAttribs
  2
FEATURE
  41
1
  42
1
  43
1
  50
0
  10
503973.795
  20
4632698.664
 66
1
  0
ATTRIB
  8
FeatureAttribs
 70
0
  1
PNOA-H_AMS_1956-57_33k_ES_PAN_21mic_H50_0316_fot_33B-38722_E.tif
  2
NAME
  10
503973.795
  20
4632698.664
 40
33.30316
  0
SEQEND
  0
POLYLINE
  8
PNOA-H_AMS_1956-57_33k_ES_PAN_21mic_H50_0316_fot_33B-38722_E_tif
  70
9
  66
1
  0
VERTEX
  8
PNOA-H_AMS_1956-57_33k_ES_PAN_21mic_H50_0316_fot_33B-38722_E_tif
  70
32
  10
504257.500
  20
4634099.500
  30
1162.211
  0
VERTEX
  8
PNOA-H_AMS_1956-57_33k_ES_PAN_21mic_H50_0316_fot_33B-38722_E_tif
  70
32
  10
504267.700
  20
4634099.500
  30
1162.054
  0
VERTEX
  8
PNOA-H_AMS_1956-57_33k_ES_PAN_21mic_H50_0316_fot_33B-38722_E_tif
  70
32
  10
504268.000
  20
4634099.500
  30
1162.049
  0
VERTEX
  8
PNOA-H_AMS_1956-57_33k_ES_PAN_21mic_H50_0316_fot_33B-38722_E_tif
  70
32
  10
505306.491
  20
4634082.500
  30
1133.327
  0
VERTEX
  8
PNOA-H_AMS_1956-57_33k_ES_PAN_21mic_H50_0316_fot_33B-38722_E_tif
  70
32
  10
505306.500
  20
4634082.500
  30
1133.327
  0
VERTEX
  8
PNOA-H_AMS_1956-57_33k_ES_PAN_21mic_H50_0316_fot_33B-38722_E_tif
  70
32
  10
505258.471
  20
4631273.640
  30
1182.532
  0
VERTEX
  8
PNOA-H_AMS_1956-57_33k_ES_PAN_21mic_H50_0316_fot_33B-38722_E_tif
  70
32
  10
505258.468
  20
4631273.640
  30
0
  0
VERTEX
  8
PNOA-H_AMS_1956-57_33k_ES_PAN_21mic_H50_0316_fot_33B-38722_E_tif
  70
32
  10
505189.586
  20
4631273.573
  30
0
  0
VERTEX
  8
PNOA-H_AMS_1956-57_33k_ES_PAN_21mic_H50_0316_fot_33B-38722_E_tif
  70
32
  10
502623.947
  20
4631272.329
  30
1227.334
  0
VERTEX
  8
PNOA-H_AMS_1956-57_33k_ES_PAN_21mic_H50_0316_fot_33B-38722_E_tif
  70
32
  10
502705.500
  20
4634123.000
  30
1170.565
  0
VERTEX
  8
PNOA-H_AMS_1956-57_33k_ES_PAN_21mic_H50_0316_fot_33B-38722_E_tif
  70
32
  10
502709.000
  20
4634125.000
  30
1170.838
  0
VERTEX
  8
PNOA-H_AMS_1956-57_33k_ES_PAN_21mic_H50_0316_fot_33B-38722_E_tif
  70
32
  10
502709.500
  20
4634125.000
  30
1170.852
  0
VERTEX
  8
PNOA-H_AMS_1956-57_33k_ES_PAN_21mic_H50_0316_fot_33B-38722_E_tif
  70
32
  10
502727.500
  20
4634125.000
  30
1171.352
  0
VERTEX
  8
PNOA-H_AMS_1956-57_33k_ES_PAN_21mic_H50_0316_fot_33B-38722_E_tif
  70
32
  10
503704.096
  20
4634108.723
  30
1165.517
  0
VERTEX
  8
PNOA-H_AMS_1956-57_33k_ES_PAN_21mic_H50_0316_fot_33B-38722_E_tif
  70
32
  10
504257.500
  20
4634099.500
  30
1162.211
  0
SEQEND
  8
PNOA-H_AMS_1956-57_33k_ES_PAN_21mic_H50_0316_fot_33B-38722_E_tif
  0
INSERT
  8
FeatureAttribs
  2
FEATURE
  41
1
  42
1
  43
1
  50
0
  10
506596.184
  20
4632698.820
 66
1
  0
ATTRIB
  8
FeatureAttribs
 70
0
  1
PNOA-H_AMS_1956-57_33k_ES_PAN_21mic_H50_0316_fot_33B-38723_E.tif
  2
NAME
  10
506596.184
  20
4632698.820
 40
33.30316
  0
SEQEND
  0
POLYLINE
  8
PNOA-H_AMS_1956-57_33k_ES_PAN_21mic_H50_0316_fot_33B-38723_E_tif
  70
9
  66
1
  0
VERTEX
  8
PNOA-H_AMS_1956-57_33k_ES_PAN_21mic_H50_0316_fot_33B-38723_E_tif
  70
32
  10
507913.000
  20
4634124.000
  30
1138.95
  0
VERTEX
  8
PNOA-H_AMS_1956-57_33k_ES_PAN_21mic_H50_0316_fot_33B-38723_E_tif
  70
32
  10
507906.073
  20
4631276.208
  30
1162.169
  0
VERTEX
  8
PNOA-H_AMS_1956-57_33k_ES_PAN_21mic_H50_0316_fot_33B-38723_E_tif
  70
32
  10
507905.932
  20
4631276.208
  30
0
  0
VERTEX
  8
PNOA-H_AMS_1956-57_33k_ES_PAN_21mic_H50_0316_fot_33B-38723_E_tif
  70
32
  10
505258.471
  20
4631273.640
  30
0
  0
VERTEX
  8
PNOA-H_AMS_1956-57_33k_ES_PAN_21mic_H50_0316_fot_33B-38723_E_tif
  70
32
  10
505258.468
  20
4631273.640
  30
1182.542
  0
VERTEX
  8
PNOA-H_AMS_1956-57_33k_ES_PAN_21mic_H50_0316_fot_33B-38723_E_tif
  70
32
  10
505306.491
  20
4634082.500
  30
1133.355
  0
VERTEX
  8
PNOA-H_AMS_1956-57_33k_ES_PAN_21mic_H50_0316_fot_33B-38723_E_tif
  70
32
  10
505306.500
  20
4634083.000
  30
1133.346
  0
VERTEX
  8
PNOA-H_AMS_1956-57_33k_ES_PAN_21mic_H50_0316_fot_33B-38723_E_tif
  70
32
  10
505354.500
  20
4634110.500
  30
1133.018
  0
VERTEX
  8
PNOA-H_AMS_1956-57_33k_ES_PAN_21mic_H50_0316_fot_33B-38723_E_tif
  70
32
  10
505355.499
  20
4634110.571
  30
1132.987
  0
VERTEX
  8
PNOA-H_AMS_1956-57_33k_ES_PAN_21mic_H50_0316_fot_33B-38723_E_tif
  70
32
  10
505361.500
  20
4634111.000
  30
1132.799
  0
VERTEX
  8
PNOA-H_AMS_1956-57_33k_ES_PAN_21mic_H50_0316_fot_33B-38723_E_tif
  70
32
  10
507766.500
  20
4634123.500
  30
1147.853
  0
VERTEX
  8
PNOA-H_AMS_1956-57_33k_ES_PAN_21mic_H50_0316_fot_33B-38723_E_tif
  70
32
  10
507863.000
  20
4634124.000
  30
1141.868
  0
VERTEX
  8
PNOA-H_AMS_1956-57_33k_ES_PAN_21mic_H50_0316_fot_33B-38723_E_tif
  70
32
  10
507912.993
  20
4634124.000
  30
1138.951
  0
VERTEX
  8
PNOA-H_AMS_1956-57_33k_ES_PAN_21mic_H50_0316_fot_33B-38723_E_tif
  70
32
  10
507913.000
  20
4634124.000
  30
1138.95
  0
SEQEND
  8
PNOA-H_AMS_1956-57_33k_ES_PAN_21mic_H50_0316_fot_33B-38723_E_tif
  0
INSERT
  8
FeatureAttribs
  2
FEATURE
  41
1
  42
1
  43
1
  50
0
  10
501296.225
  20
4632711.697
 66
1
  0
ATTRIB
  8
FeatureAttribs
 70
0
  1
PNOA-H_AMS_1956-57_33k_ES_PAN_21mic_H50_0316_fot_33B-38721_E.tif
  2
NAME
  10
501296.225
  20
4632711.697
 40
33.30316
  0
SEQEND
  0
POLYLINE
  8
PNOA-H_AMS_1956-57_33k_ES_PAN_21mic_H50_0316_fot_33B-38721_E_tif
  70
9
  66
1
  0
VERTEX
  8
PNOA-H_AMS_1956-57_33k_ES_PAN_21mic_H50_0316_fot_33B-38721_E_tif
  70
32
  10
500043.500
  20
4634151.500
  30
1127.036
  0
VERTEX
  8
PNOA-H_AMS_1956-57_33k_ES_PAN_21mic_H50_0316_fot_33B-38721_E_tif
  70
32
  10
500127.500
  20
4634150.500
  30
1127.519
  0
VERTEX
  8
PNOA-H_AMS_1956-57_33k_ES_PAN_21mic_H50_0316_fot_33B-38721_E_tif
  70
32
  10
500135.807
  20
4634150.500
  30
1127.434
  0
VERTEX
  8
PNOA-H_AMS_1956-57_33k_ES_PAN_21mic_H50_0316_fot_33B-38721_E_tif
  70
32
  10
500172.000
  20
4634150.500
  30
1127.065
  0
VERTEX
  8
PNOA-H_AMS_1956-57_33k_ES_PAN_21mic_H50_0316_fot_33B-38721_E_tif
  70
32
  10
502705.500
  20
4634123.000
  30
1170.565
  0
VERTEX
  8
PNOA-H_AMS_1956-57_33k_ES_PAN_21mic_H50_0316_fot_33B-38721_E_tif
  70
32
  10
502623.947
  20
4631272.329
  30
1227.334
  0
VERTEX
  8
PNOA-H_AMS_1956-57_33k_ES_PAN_21mic_H50_0316_fot_33B-38721_E_tif
  70
32
  10
501729.862
  20
4631271.895
  30
0
  0
VERTEX
  8
PNOA-H_AMS_1956-57_33k_ES_PAN_21mic_H50_0316_fot_33B-38721_E_tif
  70
32
  10
499895.535
  20
4631271.895
  30
1156.275
  0
VERTEX
  8
PNOA-H_AMS_1956-57_33k_ES_PAN_21mic_H50_0316_fot_33B-38721_E_tif
  70
32
  10
499958.000
  20
4634101.000
  30
1120.615
  0
VERTEX
  8
PNOA-H_AMS_1956-57_33k_ES_PAN_21mic_H50_0316_fot_33B-38721_E_tif
  70
32
  10
499959.458
  20
4634101.861
  30
1120.724
  0
VERTEX
  8
PNOA-H_AMS_1956-57_33k_ES_PAN_21mic_H50_0316_fot_33B-38721_E_tif
  70
32
  10
500042.279
  20
4634150.779
  30
1126.945
  0
VERTEX
  8
PNOA-H_AMS_1956-57_33k_ES_PAN_21mic_H50_0316_fot_33B-38721_E_tif
  70
32
  10
500043.500
  20
4634151.500
  30
1127.036
  0
SEQEND
  8
PNOA-H_AMS_1956-57_33k_ES_PAN_21mic_H50_0316_fot_33B-38721_E_tif
  0
INSERT
  8
FeatureAttribs
  2
FEATURE
  41
1
  42
1
  43
1
  50
0
  10
509660.417
  20
4648533.054
 66
1
  0
ATTRIB
  8
FeatureAttribs
 70
0
  1
PNOA-H_AMS_1956-57_33k_ES_PAN_21mic_H50_0278_fot_29C-50604_E.tif
  2
NAME
  10
509660.417
  20
4648533.054
 40
33.30316
  0
SEQEND
  0
POLYLINE
  8
PNOA-H_AMS_1956-57_33k_ES_PAN_21mic_H50_0278_fot_29C-50604_E_tif
  70
9
  66
1
  0
VERTEX
  8
PNOA-H_AMS_1956-57_33k_ES_PAN_21mic_H50_0278_fot_29C-50604_E_tif
  70
32
  10
509797.240
  20
4647281.574
  30
1495.717
  0
VERTEX
  8
PNOA-H_AMS_1956-57_33k_ES_PAN_21mic_H50_0278_fot_29C-50604_E_tif
  70
32
  10
509797.000
  20
4647281.500
  30
1495.652
  0
VERTEX
  8
PNOA-H_AMS_1956-57_33k_ES_PAN_21mic_H50_0278_fot_29C-50604_E_tif
  70
32
  10
508559.009
  20
4647632.788
  30
1642.025
  0
VERTEX
  8
PNOA-H_AMS_1956-57_33k_ES_PAN_21mic_H50_0278_fot_29C-50604_E_tif
  70
32
  10
508556.500
  20
4647633.500
  30
1642.321
  0
VERTEX
  8
PNOA-H_AMS_1956-57_33k_ES_PAN_21mic_H50_0278_fot_29C-50604_E_tif
  70
32
  10
508576.623
  20
4649781.423
  30
1812.454
  0
VERTEX
  8
PNOA-H_AMS_1956-57_33k_ES_PAN_21mic_H50_0278_fot_29C-50604_E_tif
  70
32
  10
508626.836
  20
4649781.472
  30
0
  0
VERTEX
  8
PNOA-H_AMS_1956-57_33k_ES_PAN_21mic_H50_0278_fot_29C-50604_E_tif
  70
32
  10
510775.457
  20
4649784.609
  30
1995.02
  0
VERTEX
  8
PNOA-H_AMS_1956-57_33k_ES_PAN_21mic_H50_0278_fot_29C-50604_E_tif
  70
32
  10
510755.500
  20
4648507.000
  30
1869.216
  0
VERTEX
  8
PNOA-H_AMS_1956-57_33k_ES_PAN_21mic_H50_0278_fot_29C-50604_E_tif
  70
32
  10
510755.500
  20
4648504.186
  30
1868.669
  0
VERTEX
  8
PNOA-H_AMS_1956-57_33k_ES_PAN_21mic_H50_0278_fot_29C-50604_E_tif
  70
32
  10
510755.500
  20
4648485.000
  30
1864.938
  0
VERTEX
  8
PNOA-H_AMS_1956-57_33k_ES_PAN_21mic_H50_0278_fot_29C-50604_E_tif
  70
32
  10
510741.500
  20
4647574.500
  30
1752.553
  0
VERTEX
  8
PNOA-H_AMS_1956-57_33k_ES_PAN_21mic_H50_0278_fot_29C-50604_E_tif
  70
32
  10
510741.000
  20
4647573.833
  30
1752.33
  0
VERTEX
  8
PNOA-H_AMS_1956-57_33k_ES_PAN_21mic_H50_0278_fot_29C-50604_E_tif
  70
32
  10
510740.324
  20
4647572.932
  30
1752.028
  0
VERTEX
  8
PNOA-H_AMS_1956-57_33k_ES_PAN_21mic_H50_0278_fot_29C-50604_E_tif
  70
32
  10
510740.000
  20
4647572.500
  30
1751.883
  0
VERTEX
  8
PNOA-H_AMS_1956-57_33k_ES_PAN_21mic_H50_0278_fot_29C-50604_E_tif
  70
32
  10
509797.492
  20
4647281.652
  30
1495.786
  0
VERTEX
  8
PNOA-H_AMS_1956-57_33k_ES_PAN_21mic_H50_0278_fot_29C-50604_E_tif
  70
32
  10
509797.240
  20
4647281.574
  30
1495.717
  0
SEQEND
  8
PNOA-H_AMS_1956-57_33k_ES_PAN_21mic_H50_0278_fot_29C-50604_E_tif
  0
INSERT
  8
FeatureAttribs
  2
FEATURE
  41
1
  42
1
  43
1
  50
0
  10
507335.494
  20
4648553.462
 66
1
  0
ATTRIB
  8
FeatureAttribs
 70
0
  1
PNOA-H_AMS_1956-57_33k_ES_PAN_21mic_H50_0278_fot_29C-50603_E.tif
  2
NAME
  10
507335.494
  20
4648553.462
 40
33.30316
  0
SEQEND
  0
POLYLINE
  8
PNOA-H_AMS_1956-57_33k_ES_PAN_21mic_H50_0278_fot_29C-50603_E_tif
  70
9
  66
1
  0
VERTEX
  8
PNOA-H_AMS_1956-57_33k_ES_PAN_21mic_H50_0278_fot_29C-50603_E_tif
  70
32
  10
507362.455
  20
4647325.691
  30
1431.03
  0
VERTEX
  8
PNOA-H_AMS_1956-57_33k_ES_PAN_21mic_H50_0278_fot_29C-50603_E_tif
  70
32
  10
507361.500
  20
4647325.500
  30
1430.804
  0
VERTEX
  8
PNOA-H_AMS_1956-57_33k_ES_PAN_21mic_H50_0278_fot_29C-50603_E_tif
  70
32
  10
506414.026
  20
4647658.139
  30
1452.14
  0
VERTEX
  8
PNOA-H_AMS_1956-57_33k_ES_PAN_21mic_H50_0278_fot_29C-50603_E_tif
  70
32
  10
506226.413
  20
4647724.007
  30
1456.364
  0
VERTEX
  8
PNOA-H_AMS_1956-57_33k_ES_PAN_21mic_H50_0278_fot_29C-50603_E_tif
  70
32
  10
506065.500
  20
4647780.500
  30
1459.988
  0
VERTEX
  8
PNOA-H_AMS_1956-57_33k_ES_PAN_21mic_H50_0278_fot_29C-50603_E_tif
  70
32
  10
506065.500
  20
4647780.648
  30
1460.01
  0
VERTEX
  8
PNOA-H_AMS_1956-57_33k_ES_PAN_21mic_H50_0278_fot_29C-50603_E_tif
  70
32
  10
506065.500
  20
4647796.000
  30
1462.286
  0
VERTEX
  8
PNOA-H_AMS_1956-57_33k_ES_PAN_21mic_H50_0278_fot_29C-50603_E_tif
  70
32
  10
506171.192
  20
4649779.082
  30
1716.77
  0
VERTEX
  8
PNOA-H_AMS_1956-57_33k_ES_PAN_21mic_H50_0278_fot_29C-50603_E_tif
  70
32
  10
508576.619
  20
4649781.423
  30
1812.565
  0
VERTEX
  8
PNOA-H_AMS_1956-57_33k_ES_PAN_21mic_H50_0278_fot_29C-50603_E_tif
  70
32
  10
508556.500
  20
4647633.500
  30
1642.321
  0
VERTEX
  8
PNOA-H_AMS_1956-57_33k_ES_PAN_21mic_H50_0278_fot_29C-50603_E_tif
  70
32
  10
508555.742
  20
4647633.304
  30
1642.188
  0
VERTEX
  8
PNOA-H_AMS_1956-57_33k_ES_PAN_21mic_H50_0278_fot_29C-50603_E_tif
  70
32
  10
507376.500
  20
4647328.500
  30
1434.355
  0
VERTEX
  8
PNOA-H_AMS_1956-57_33k_ES_PAN_21mic_H50_0278_fot_29C-50603_E_tif
  70
32
  10
507366.187
  20
4647326.437
  30
1431.913
  0
VERTEX
  8
PNOA-H_AMS_1956-57_33k_ES_PAN_21mic_H50_0278_fot_29C-50603_E_tif
  70
32
  10
507362.455
  20
4647325.691
  30
1431.03
  0
SEQEND
  8
PNOA-H_AMS_1956-57_33k_ES_PAN_21mic_H50_0278_fot_29C-50603_E_tif
  0
INSERT
  8
FeatureAttribs
  2
FEATURE
  41
1
  42
1
  43
1
  50
0
  10
511417.865
  20
4648538.397
 66
1
  0
ATTRIB
  8
FeatureAttribs
 70
0
  1
PNOA-H_AMS_1956-57_33k_ES_PAN_21mic_H50_0278_fot_29C-50605_E.tif
  2
NAME
  10
511417.865
  20
4648538.397
 40
33.30316
  0
SEQEND
  0
POLYLINE
  8
PNOA-H_AMS_1956-57_33k_ES_PAN_21mic_H50_0278_fot_29C-50605_E_tif
  70
9
  66
1
  0
VERTEX
  8
PNOA-H_AMS_1956-57_33k_ES_PAN_21mic_H50_0278_fot_29C-50605_E_tif
  70
32
  10
512081.821
  20
4647290.655
  30
0
  0
VERTEX
  8
PNOA-H_AMS_1956-57_33k_ES_PAN_21mic_H50_0278_fot_29C-50605_E_tif
  70
32
  10
512081.822
  20
4647290.284
  30
1830.346
  0
VERTEX
  8
PNOA-H_AMS_1956-57_33k_ES_PAN_21mic_H50_0278_fot_29C-50605_E_tif
  70
32
  10
511093.199
  20
4647498.680
  30
1773.088
  0
VERTEX
  8
PNOA-H_AMS_1956-57_33k_ES_PAN_21mic_H50_0278_fot_29C-50605_E_tif
  70
32
  10
510743.000
  20
4647572.500
  30
1752.805
  0
VERTEX
  8
PNOA-H_AMS_1956-57_33k_ES_PAN_21mic_H50_0278_fot_29C-50605_E_tif
  70
32
  10
510741.000
  20
4647573.000
  30
1752.245
  0
VERTEX
  8
PNOA-H_AMS_1956-57_33k_ES_PAN_21mic_H50_0278_fot_29C-50605_E_tif
  70
32
  10
510741.000
  20
4647573.833
  30
1752.332
  0
VERTEX
  8
PNOA-H_AMS_1956-57_33k_ES_PAN_21mic_H50_0278_fot_29C-50605_E_tif
  70
32
  10
510741.000
  20
4647574.500
  30
1752.401
  0
VERTEX
  8
PNOA-H_AMS_1956-57_33k_ES_PAN_21mic_H50_0278_fot_29C-50605_E_tif
  70
32
  10
510755.500
  20
4648504.186
  30
1852.374
  0
VERTEX
  8
PNOA-H_AMS_1956-57_33k_ES_PAN_21mic_H50_0278_fot_29C-50605_E_tif
  70
32
  10
510775.470
  20
4649784.609
  30
1990.063
  0
VERTEX
  8
PNOA-H_AMS_1956-57_33k_ES_PAN_21mic_H50_0278_fot_29C-50605_E_tif
  70
32
  10
512077.571
  20
4649786.509
  30
0
  0
VERTEX
  8
PNOA-H_AMS_1956-57_33k_ES_PAN_21mic_H50_0278_fot_29C-50605_E_tif
  70
32
  10
512081.510
  20
4647473.412
  30
0
  0
VERTEX
  8
PNOA-H_AMS_1956-57_33k_ES_PAN_21mic_H50_0278_fot_29C-50605_E_tif
  70
32
  10
512081.821
  20
4647290.655
  30
0
  0
SEQEND
  8
PNOA-H_AMS_1956-57_33k_ES_PAN_21mic_H50_0278_fot_29C-50605_E_tif
  0
INSERT
  8
FeatureAttribs
  2
FEATURE
  41
1
  42
1
  43
1
  50
0
  10
510917.382
  20
4645274.000
 66
1
  0
ATTRIB
  8
FeatureAttribs
 70
0
  1
PNOA-H_AMS_1956-57_33k_ES_PAN_21mic_H50_0316_fot_30D-50551_W.tif
  2
NAME
  10
510917.382
  20
4645274.000
 40
33.30316
  0
SEQEND
  0
POLYLINE
  8
PNOA-H_AMS_1956-57_33k_ES_PAN_21mic_H50_0316_fot_30D-50551_W_tif
  70
9
  66
1
  0
VERTEX
  8
PNOA-H_AMS_1956-57_33k_ES_PAN_21mic_H50_0316_fot_30D-50551_W_tif
  70
32
  10
510667.638
  20
4642975.117
  30
1296.971
  0
VERTEX
  8
PNOA-H_AMS_1956-57_33k_ES_PAN_21mic_H50_0316_fot_30D-50551_W_tif
  70
32
  10
510667.000
  20
4642975.000
  30
1296.899
  0
VERTEX
  8
PNOA-H_AMS_1956-57_33k_ES_PAN_21mic_H50_0316_fot_30D-50551_W_tif
  70
32
  10
509702.000
  20
4643286.000
  30
1231.813
  0
VERTEX
  8
PNOA-H_AMS_1956-57_33k_ES_PAN_21mic_H50_0316_fot_30D-50551_W_tif
  70
32
  10
509702.012
  20
4643286.496
  30
1231.846
  0
VERTEX
  8
PNOA-H_AMS_1956-57_33k_ES_PAN_21mic_H50_0316_fot_30D-50551_W_tif
  70
32
  10
509795.259
  20
4647188.241
  30
1489.26
  0
VERTEX
  8
PNOA-H_AMS_1956-57_33k_ES_PAN_21mic_H50_0316_fot_30D-50551_W_tif
  70
32
  10
509797.488
  20
4647281.503
  30
1495.413
  0
VERTEX
  8
PNOA-H_AMS_1956-57_33k_ES_PAN_21mic_H50_0316_fot_30D-50551_W_tif
  70
32
  10
509797.492
  20
4647281.652
  30
1495.423
  0
VERTEX
  8
PNOA-H_AMS_1956-57_33k_ES_PAN_21mic_H50_0316_fot_30D-50551_W_tif
  70
32
  10
509797.500
  20
4647282.000
  30
1495.446
  0
VERTEX
  8
PNOA-H_AMS_1956-57_33k_ES_PAN_21mic_H50_0316_fot_30D-50551_W_tif
  70
32
  10
510738.500
  20
4647572.500
  30
1751.418
  0
VERTEX
  8
PNOA-H_AMS_1956-57_33k_ES_PAN_21mic_H50_0316_fot_30D-50551_W_tif
  70
32
  10
510740.000
  20
4647573.000
  30
1751.936
  0
VERTEX
  8
PNOA-H_AMS_1956-57_33k_ES_PAN_21mic_H50_0316_fot_30D-50551_W_tif
  70
32
  10
510740.324
  20
4647572.932
  30
1751.955
  0
VERTEX
  8
PNOA-H_AMS_1956-57_33k_ES_PAN_21mic_H50_0316_fot_30D-50551_W_tif
  70
32
  10
511093.199
  20
4647498.680
  30
1772.52
  0
VERTEX
  8
PNOA-H_AMS_1956-57_33k_ES_PAN_21mic_H50_0316_fot_30D-50551_W_tif
  70
32
  10
512081.821
  20
4647290.655
  30
1830.135
  0
VERTEX
  8
PNOA-H_AMS_1956-57_33k_ES_PAN_21mic_H50_0316_fot_30D-50551_W_tif
  70
32
  10
512081.822
  20
4647290.284
  30
0
  0
VERTEX
  8
PNOA-H_AMS_1956-57_33k_ES_PAN_21mic_H50_0316_fot_30D-50551_W_tif
  70
32
  10
512085.447
  20
4645160.322
  30
0
  0
VERTEX
  8
PNOA-H_AMS_1956-57_33k_ES_PAN_21mic_H50_0316_fot_30D-50551_W_tif
  70
32
  10
512088.722
  20
4643235.706
  30
0
  0
VERTEX
  8
PNOA-H_AMS_1956-57_33k_ES_PAN_21mic_H50_0316_fot_30D-50551_W_tif
  70
32
  10
512088.722
  20
4643235.162
  30
1456.063
  0
VERTEX
  8
PNOA-H_AMS_1956-57_33k_ES_PAN_21mic_H50_0316_fot_30D-50551_W_tif
  70
32
  10
511025.625
  20
4643040.625
  30
1337.048
  0
VERTEX
  8
PNOA-H_AMS_1956-57_33k_ES_PAN_21mic_H50_0316_fot_30D-50551_W_tif
  70
32
  10
510667.638
  20
4642975.117
  30
1296.971
  0
SEQEND
  8
PNOA-H_AMS_1956-57_33k_ES_PAN_21mic_H50_0316_fot_30D-50551_W_tif
  0
INSERT
  8
FeatureAttribs
  2
FEATURE
  41
1
  42
1
  43
1
  50
0
  10
508513.999
  20
4645319.750
 66
1
  0
ATTRIB
  8
FeatureAttribs
 70
0
  1
PNOA-H_AMS_1956-57_33k_ES_PAN_21mic_H50_0316_fot_30D-50552_W.tif
  2
NAME
  10
508513.999
  20
4645319.750
 40
33.30316
  0
SEQEND
  0
POLYLINE
  8
PNOA-H_AMS_1956-57_33k_ES_PAN_21mic_H50_0316_fot_30D-50552_W_tif
  70
9
  66
1
  0
VERTEX
  8
PNOA-H_AMS_1956-57_33k_ES_PAN_21mic_H50_0316_fot_30D-50552_W_tif
  70
32
  10
508422.783
  20
4643006.062
  30
1186.879
  0
VERTEX
  8
PNOA-H_AMS_1956-57_33k_ES_PAN_21mic_H50_0316_fot_30D-50552_W_tif
  70
32
  10
508422.500
  20
4643006.000
  30
1186.869
  0
VERTEX
  8
PNOA-H_AMS_1956-57_33k_ES_PAN_21mic_H50_0316_fot_30D-50552_W_tif
  70
32
  10
507195.294
  20
4643355.774
  30
1183.823
  0
VERTEX
  8
PNOA-H_AMS_1956-57_33k_ES_PAN_21mic_H50_0316_fot_30D-50552_W_tif
  70
32
  10
507194.500
  20
4643356.000
  30
1183.821
  0
VERTEX
  8
PNOA-H_AMS_1956-57_33k_ES_PAN_21mic_H50_0316_fot_30D-50552_W_tif
  70
32
  10
507362.500
  20
4647324.500
  30
1430.995
  0
VERTEX
  8
PNOA-H_AMS_1956-57_33k_ES_PAN_21mic_H50_0316_fot_30D-50552_W_tif
  70
32
  10
507362.973
  20
4647324.854
  30
1431.118
  0
VERTEX
  8
PNOA-H_AMS_1956-57_33k_ES_PAN_21mic_H50_0316_fot_30D-50552_W_tif
  70
32
  10
507364.500
  20
4647326.000
  30
1431.517
  0
VERTEX
  8
PNOA-H_AMS_1956-57_33k_ES_PAN_21mic_H50_0316_fot_30D-50552_W_tif
  70
32
  10
507366.187
  20
4647326.437
  30
1431.912
  0
VERTEX
  8
PNOA-H_AMS_1956-57_33k_ES_PAN_21mic_H50_0316_fot_30D-50552_W_tif
  70
32
  10
507378.000
  20
4647329.500
  30
1434.681
  0
VERTEX
  8
PNOA-H_AMS_1956-57_33k_ES_PAN_21mic_H50_0316_fot_30D-50552_W_tif
  70
32
  10
508552.500
  20
4647633.000
  30
1641.646
  0
VERTEX
  8
PNOA-H_AMS_1956-57_33k_ES_PAN_21mic_H50_0316_fot_30D-50552_W_tif
  70
32
  10
508554.500
  20
4647633.500
  30
1642.024
  0
VERTEX
  8
PNOA-H_AMS_1956-57_33k_ES_PAN_21mic_H50_0316_fot_30D-50552_W_tif
  70
32
  10
508555.742
  20
4647633.304
  30
1642.218
  0
VERTEX
  8
PNOA-H_AMS_1956-57_33k_ES_PAN_21mic_H50_0316_fot_30D-50552_W_tif
  70
32
  10
508559.009
  20
4647632.788
  30
1642.727
  0
VERTEX
  8
PNOA-H_AMS_1956-57_33k_ES_PAN_21mic_H50_0316_fot_30D-50552_W_tif
  70
32
  10
508564.000
  20
4647632.000
  30
1643.505
  0
VERTEX
  8
PNOA-H_AMS_1956-57_33k_ES_PAN_21mic_H50_0316_fot_30D-50552_W_tif
  70
32
  10
509797.240
  20
4647281.574
  30
1495.385
  0
VERTEX
  8
PNOA-H_AMS_1956-57_33k_ES_PAN_21mic_H50_0316_fot_30D-50552_W_tif
  70
32
  10
509797.488
  20
4647281.503
  30
1495.355
  0
VERTEX
  8
PNOA-H_AMS_1956-57_33k_ES_PAN_21mic_H50_0316_fot_30D-50552_W_tif
  70
32
  10
509797.500
  20
4647281.500
  30
1495.354
  0
VERTEX
  8
PNOA-H_AMS_1956-57_33k_ES_PAN_21mic_H50_0316_fot_30D-50552_W_tif
  70
32
  10
509795.259
  20
4647188.241
  30
1489.2
  0
VERTEX
  8
PNOA-H_AMS_1956-57_33k_ES_PAN_21mic_H50_0316_fot_30D-50552_W_tif
  70
32
  10
509701.509
  20
4643286.393
  30
1231.754
  0
VERTEX
  8
PNOA-H_AMS_1956-57_33k_ES_PAN_21mic_H50_0316_fot_30D-50552_W_tif
  70
32
  10
509701.500
  20
4643286.000
  30
1231.728
  0
VERTEX
  8
PNOA-H_AMS_1956-57_33k_ES_PAN_21mic_H50_0316_fot_30D-50552_W_tif
  70
32
  10
508423.494
  20
4643006.218
  30
1186.904
  0
VERTEX
  8
PNOA-H_AMS_1956-57_33k_ES_PAN_21mic_H50_0316_fot_30D-50552_W_tif
  70
32
  10
508422.783
  20
4643006.062
  30
1186.879
  0
SEQEND
  8
PNOA-H_AMS_1956-57_33k_ES_PAN_21mic_H50_0316_fot_30D-50552_W_tif
  0
INSERT
  8
FeatureAttribs
  2
FEATURE
  41
1
  42
1
  43
1
  50
0
  10
509524.136
  20
4640924.250
 66
1
  0
ATTRIB
  8
FeatureAttribs
 70
0
  1
PNOA-H_AMS_1956-57_33k_ES_PAN_21mic_H50_0316_fot_31B-36874_E.tif
  2
NAME
  10
509524.136
  20
4640924.250
 40
33.30316
  0
SEQEND
  0
POLYLINE
  8
PNOA-H_AMS_1956-57_33k_ES_PAN_21mic_H50_0316_fot_31B-36874_E_tif
  70
9
  66
1
  0
VERTEX
  8
PNOA-H_AMS_1956-57_33k_ES_PAN_21mic_H50_0316_fot_31B-36874_E_tif
  70
32
  10
510609.500
  20
4638562.000
  30
1440.031
  0
VERTEX
  8
PNOA-H_AMS_1956-57_33k_ES_PAN_21mic_H50_0316_fot_31B-36874_E_tif
  70
32
  10
510605.000
  20
4638562.000
  30
1439.464
  0
VERTEX
  8
PNOA-H_AMS_1956-57_33k_ES_PAN_21mic_H50_0316_fot_31B-36874_E_tif
  70
32
  10
510404.779
  20
4638574.500
  30
1427.058
  0
VERTEX
  8
PNOA-H_AMS_1956-57_33k_ES_PAN_21mic_H50_0316_fot_31B-36874_E_tif
  70
32
  10
508338.500
  20
4638703.500
  30
1299.035
  0
VERTEX
  8
PNOA-H_AMS_1956-57_33k_ES_PAN_21mic_H50_0316_fot_31B-36874_E_tif
  70
32
  10
508423.494
  20
4643006.218
  30
1186.847
  0
VERTEX
  8
PNOA-H_AMS_1956-57_33k_ES_PAN_21mic_H50_0316_fot_31B-36874_E_tif
  70
32
  10
508423.500
  20
4643006.500
  30
1186.84
  0
VERTEX
  8
PNOA-H_AMS_1956-57_33k_ES_PAN_21mic_H50_0316_fot_31B-36874_E_tif
  70
32
  10
509701.509
  20
4643286.393
  30
1231.775
  0
VERTEX
  8
PNOA-H_AMS_1956-57_33k_ES_PAN_21mic_H50_0316_fot_31B-36874_E_tif
  70
32
  10
509702.000
  20
4643286.500
  30
1231.792
  0
VERTEX
  8
PNOA-H_AMS_1956-57_33k_ES_PAN_21mic_H50_0316_fot_31B-36874_E_tif
  70
32
  10
509702.012
  20
4643286.496
  30
1231.793
  0
VERTEX
  8
PNOA-H_AMS_1956-57_33k_ES_PAN_21mic_H50_0316_fot_31B-36874_E_tif
  70
32
  10
510667.638
  20
4642975.117
  30
1296.998
  0
VERTEX
  8
PNOA-H_AMS_1956-57_33k_ES_PAN_21mic_H50_0316_fot_31B-36874_E_tif
  70
32
  10
510668.000
  20
4642975.000
  30
1297.022
  0
VERTEX
  8
PNOA-H_AMS_1956-57_33k_ES_PAN_21mic_H50_0316_fot_31B-36874_E_tif
  70
32
  10
510665.500
  20
4640529.500
  30
1167.215
  0
VERTEX
  8
PNOA-H_AMS_1956-57_33k_ES_PAN_21mic_H50_0316_fot_31B-36874_E_tif
  70
32
  10
510665.500
  20
4640293.000
  30
1226.074
  0
VERTEX
  8
PNOA-H_AMS_1956-57_33k_ES_PAN_21mic_H50_0316_fot_31B-36874_E_tif
  70
32
  10
510664.000
  20
4638592.000
  30
1445.126
  0
VERTEX
  8
PNOA-H_AMS_1956-57_33k_ES_PAN_21mic_H50_0316_fot_31B-36874_E_tif
  70
32
  10
510655.750
  20
4638587.417
  30
1444.357
  0
VERTEX
  8
PNOA-H_AMS_1956-57_33k_ES_PAN_21mic_H50_0316_fot_31B-36874_E_tif
  70
32
  10
510610.000
  20
4638562.000
  30
1440.094
  0
VERTEX
  8
PNOA-H_AMS_1956-57_33k_ES_PAN_21mic_H50_0316_fot_31B-36874_E_tif
  70
32
  10
510609.500
  20
4638562.000
  30
1440.031
  0
SEQEND
  8
PNOA-H_AMS_1956-57_33k_ES_PAN_21mic_H50_0316_fot_31B-36874_E_tif
  0
INSERT
  8
FeatureAttribs
  2
FEATURE
  41
1
  42
1
  43
1
  50
0
  10
511379.395
  20
4640913.853
 66
1
  0
ATTRIB
  8
FeatureAttribs
 70
0
  1
PNOA-H_AMS_1956-57_33k_ES_PAN_21mic_H50_0316_fot_31B-36875_E.tif
  2
NAME
  10
511379.395
  20
4640913.853
 40
33.30316
  0
SEQEND
  0
POLYLINE
  8
PNOA-H_AMS_1956-57_33k_ES_PAN_21mic_H50_0316_fot_31B-36875_E_tif
  70
9
  66
1
  0
VERTEX
  8
PNOA-H_AMS_1956-57_33k_ES_PAN_21mic_H50_0316_fot_31B-36875_E_tif
  70
32
  10
510664.097
  20
4638592.004
  30
1445.121
  0
VERTEX
  8
PNOA-H_AMS_1956-57_33k_ES_PAN_21mic_H50_0316_fot_31B-36875_E_tif
  70
32
  10
510664.000
  20
4638592.000
  30
1445.126
  0
VERTEX
  8
PNOA-H_AMS_1956-57_33k_ES_PAN_21mic_H50_0316_fot_31B-36875_E_tif
  70
32
  10
510668.000
  20
4642975.000
  30
1297.022
  0
VERTEX
  8
PNOA-H_AMS_1956-57_33k_ES_PAN_21mic_H50_0316_fot_31B-36875_E_tif
  70
32
  10
511025.625
  20
4643040.625
  30
1336.974
  0
VERTEX
  8
PNOA-H_AMS_1956-57_33k_ES_PAN_21mic_H50_0316_fot_31B-36875_E_tif
  70
32
  10
512088.722
  20
4643235.706
  30
1455.736
  0
VERTEX
  8
PNOA-H_AMS_1956-57_33k_ES_PAN_21mic_H50_0316_fot_31B-36875_E_tif
  70
32
  10
512088.722
  20
4643235.162
  30
0
  0
VERTEX
  8
PNOA-H_AMS_1956-57_33k_ES_PAN_21mic_H50_0316_fot_31B-36875_E_tif
  70
32
  10
512089.382
  20
4642847.242
  30
0
  0
VERTEX
  8
PNOA-H_AMS_1956-57_33k_ES_PAN_21mic_H50_0316_fot_31B-36875_E_tif
  70
32
  10
512093.316
  20
4640534.169
  30
0
  0
VERTEX
  8
PNOA-H_AMS_1956-57_33k_ES_PAN_21mic_H50_0316_fot_31B-36875_E_tif
  70
32
  10
512096.526
  20
4638646.398
  30
0
  0
VERTEX
  8
PNOA-H_AMS_1956-57_33k_ES_PAN_21mic_H50_0316_fot_31B-36875_E_tif
  70
32
  10
512096.526
  20
4638646.183
  30
1370.697
  0
VERTEX
  8
PNOA-H_AMS_1956-57_33k_ES_PAN_21mic_H50_0316_fot_31B-36875_E_tif
  70
32
  10
510664.097
  20
4638592.004
  30
1445.121
  0
SEQEND
  8
PNOA-H_AMS_1956-57_33k_ES_PAN_21mic_H50_0316_fot_31B-36875_E_tif
  0
INSERT
  8
FeatureAttribs
  2
FEATURE
  41
1
  42
1
  43
1
  50
0
  10
507234.965
  20
4640927.750
 66
1
  0
ATTRIB
  8
FeatureAttribs
 70
0
  1
PNOA-H_AMS_1956-57_33k_ES_PAN_21mic_H50_0316_fot_31B-36873_E.tif
  2
NAME
  10
507234.965
  20
4640927.750
 40
33.30316
  0
SEQEND
  0
POLYLINE
  8
PNOA-H_AMS_1956-57_33k_ES_PAN_21mic_H50_0316_fot_31B-36873_E_tif
  70
9
  66
1
  0
VERTEX
  8
PNOA-H_AMS_1956-57_33k_ES_PAN_21mic_H50_0316_fot_31B-36873_E_tif
  70
32
  10
508338.378
  20
4638703.445
  30
1299.033
  0
VERTEX
  8
PNOA-H_AMS_1956-57_33k_ES_PAN_21mic_H50_0316_fot_31B-36873_E_tif
  70
32
  10
507885.000
  20
4638499.500
  30
1292.195
  0
VERTEX
  8
PNOA-H_AMS_1956-57_33k_ES_PAN_21mic_H50_0316_fot_31B-36873_E_tif
  70
32
  10
507884.249
  20
4638499.612
  30
1292.224
  0
VERTEX
  8
PNOA-H_AMS_1956-57_33k_ES_PAN_21mic_H50_0316_fot_31B-36873_E_tif
  70
32
  10
506088.500
  20
4638768.000
  30
1362.537
  0
VERTEX
  8
PNOA-H_AMS_1956-57_33k_ES_PAN_21mic_H50_0316_fot_31B-36873_E_tif
  70
32
  10
506087.000
  20
4643071.000
  30
1176.925
  0
VERTEX
  8
PNOA-H_AMS_1956-57_33k_ES_PAN_21mic_H50_0316_fot_31B-36873_E_tif
  70
32
  10
506089.099
  20
4643071.541
  30
1176.914
  0
VERTEX
  8
PNOA-H_AMS_1956-57_33k_ES_PAN_21mic_H50_0316_fot_31B-36873_E_tif
  70
32
  10
506312.000
  20
4643129.000
  30
1175.766
  0
VERTEX
  8
PNOA-H_AMS_1956-57_33k_ES_PAN_21mic_H50_0316_fot_31B-36873_E_tif
  70
32
  10
506314.000
  20
4643129.500
  30
1175.763
  0
VERTEX
  8
PNOA-H_AMS_1956-57_33k_ES_PAN_21mic_H50_0316_fot_31B-36873_E_tif
  70
32
  10
507180.500
  20
4643353.000
  30
1182.646
  0
VERTEX
  8
PNOA-H_AMS_1956-57_33k_ES_PAN_21mic_H50_0316_fot_31B-36873_E_tif
  70
32
  10
507189.168
  20
4643354.625
  30
1183.24
  0
VERTEX
  8
PNOA-H_AMS_1956-57_33k_ES_PAN_21mic_H50_0316_fot_31B-36873_E_tif
  70
32
  10
507195.294
  20
4643355.774
  30
1183.659
  0
VERTEX
  8
PNOA-H_AMS_1956-57_33k_ES_PAN_21mic_H50_0316_fot_31B-36873_E_tif
  70
32
  10
507196.500
  20
4643356.000
  30
1183.741
  0
VERTEX
  8
PNOA-H_AMS_1956-57_33k_ES_PAN_21mic_H50_0316_fot_31B-36873_E_tif
  70
32
  10
508422.783
  20
4643006.062
  30
1186.863
  0
VERTEX
  8
PNOA-H_AMS_1956-57_33k_ES_PAN_21mic_H50_0316_fot_31B-36873_E_tif
  70
32
  10
508423.000
  20
4643006.000
  30
1186.864
  0
VERTEX
  8
PNOA-H_AMS_1956-57_33k_ES_PAN_21mic_H50_0316_fot_31B-36873_E_tif
  70
32
  10
508338.500
  20
4638703.500
  30
1299.035
  0
VERTEX
  8
PNOA-H_AMS_1956-57_33k_ES_PAN_21mic_H50_0316_fot_31B-36873_E_tif
  70
32
  10
508338.378
  20
4638703.445
  30
1299.033
  0
SEQEND
  8
PNOA-H_AMS_1956-57_33k_ES_PAN_21mic_H50_0316_fot_31B-36873_E_tif
  0
INSERT
  8
FeatureAttribs
  2
FEATURE
  41
1
  42
1
  43
1
  50
0
  10
511355.795
  20
4636392.924
 66
1
  0
ATTRIB
  8
FeatureAttribs
 70
0
  1
PNOA-H_AMS_1956-57_33k_ES_PAN_21mic_H50_0316_fot_32B-39530_W.tif
  2
NAME
  10
511355.795
  20
4636392.924
 40
33.30316
  0
SEQEND
  0
POLYLINE
  8
PNOA-H_AMS_1956-57_33k_ES_PAN_21mic_H50_0316_fot_32B-39530_W_tif
  70
9
  66
1
  0
VERTEX
  8
PNOA-H_AMS_1956-57_33k_ES_PAN_21mic_H50_0316_fot_32B-39530_W_tif
  70
32
  10
512101.179
  20
4635908.049
  30
0
  0
VERTEX
  8
PNOA-H_AMS_1956-57_33k_ES_PAN_21mic_H50_0316_fot_32B-39530_W_tif
  70
32
  10
512104.183
  20
4634139.450
  30
1116.893
  0
VERTEX
  8
PNOA-H_AMS_1956-57_33k_ES_PAN_21mic_H50_0316_fot_32B-39530_W_tif
  70
32
  10
510613.000
  20
4634185.000
  30
1145.428
  0
VERTEX
  8
PNOA-H_AMS_1956-57_33k_ES_PAN_21mic_H50_0316_fot_32B-39530_W_tif
  70
32
  10
510609.500
  20
4638562.000
  30
1440.034
  0
VERTEX
  8
PNOA-H_AMS_1956-57_33k_ES_PAN_21mic_H50_0316_fot_32B-39530_W_tif
  70
32
  10
510655.750
  20
4638587.417
  30
1444.112
  0
VERTEX
  8
PNOA-H_AMS_1956-57_33k_ES_PAN_21mic_H50_0316_fot_32B-39530_W_tif
  70
32
  10
510664.097
  20
4638592.004
  30
1444.848
  0
VERTEX
  8
PNOA-H_AMS_1956-57_33k_ES_PAN_21mic_H50_0316_fot_32B-39530_W_tif
  70
32
  10
510665.000
  20
4638592.500
  30
1444.928
  0
VERTEX
  8
PNOA-H_AMS_1956-57_33k_ES_PAN_21mic_H50_0316_fot_32B-39530_W_tif
  70
32
  10
512096.526
  20
4638646.398
  30
1413.22
  0
VERTEX
  8
PNOA-H_AMS_1956-57_33k_ES_PAN_21mic_H50_0316_fot_32B-39530_W_tif
  70
32
  10
512096.526
  20
4638646.183
  30
0
  0
VERTEX
  8
PNOA-H_AMS_1956-57_33k_ES_PAN_21mic_H50_0316_fot_32B-39530_W_tif
  70
32
  10
512097.249
  20
4638221.105
  30
0
  0
VERTEX
  8
PNOA-H_AMS_1956-57_33k_ES_PAN_21mic_H50_0316_fot_32B-39530_W_tif
  70
32
  10
512101.179
  20
4635908.049
  30
0
  0
SEQEND
  8
PNOA-H_AMS_1956-57_33k_ES_PAN_21mic_H50_0316_fot_32B-39530_W_tif
  0
INSERT
  8
FeatureAttribs
  2
FEATURE
  41
1
  42
1
  43
1
  50
0
  10
509258.484
  20
4636412.750
 66
1
  0
ATTRIB
  8
FeatureAttribs
 70
0
  1
PNOA-H_AMS_1956-57_33k_ES_PAN_21mic_H50_0316_fot_32B-39531_W.tif
  2
NAME
  10
509258.484
  20
4636412.750
 40
33.30316
  0
SEQEND
  0
POLYLINE
  8
PNOA-H_AMS_1956-57_33k_ES_PAN_21mic_H50_0316_fot_32B-39531_W_tif
  70
9
  66
1
  0
VERTEX
  8
PNOA-H_AMS_1956-57_33k_ES_PAN_21mic_H50_0316_fot_32B-39531_W_tif
  70
32
  10
508338.378
  20
4638703.445
  30
1298.944
  0
VERTEX
  8
PNOA-H_AMS_1956-57_33k_ES_PAN_21mic_H50_0316_fot_32B-39531_W_tif
  70
32
  10
510404.500
  20
4638574.500
  30
1430.847
  0
VERTEX
  8
PNOA-H_AMS_1956-57_33k_ES_PAN_21mic_H50_0316_fot_32B-39531_W_tif
  70
32
  10
510404.779
  20
4638574.500
  30
1430.82
  0
VERTEX
  8
PNOA-H_AMS_1956-57_33k_ES_PAN_21mic_H50_0316_fot_32B-39531_W_tif
  70
32
  10
510412.000
  20
4638574.500
  30
1430.122
  0
VERTEX
  8
PNOA-H_AMS_1956-57_33k_ES_PAN_21mic_H50_0316_fot_32B-39531_W_tif
  70
32
  10
510609.500
  20
4638562.000
  30
1440.034
  0
VERTEX
  8
PNOA-H_AMS_1956-57_33k_ES_PAN_21mic_H50_0316_fot_32B-39531_W_tif
  70
32
  10
510613.000
  20
4634185.000
  30
1145.428
  0
VERTEX
  8
PNOA-H_AMS_1956-57_33k_ES_PAN_21mic_H50_0316_fot_32B-39531_W_tif
  70
32
  10
510612.974
  20
4634184.986
  30
1145.432
  0
VERTEX
  8
PNOA-H_AMS_1956-57_33k_ES_PAN_21mic_H50_0316_fot_32B-39531_W_tif
  70
32
  10
510502.000
  20
4634122.000
  30
1160.941
  0
VERTEX
  8
PNOA-H_AMS_1956-57_33k_ES_PAN_21mic_H50_0316_fot_32B-39531_W_tif
  70
32
  10
507929.500
  20
4634134.000
  30
1139.059
  0
VERTEX
  8
PNOA-H_AMS_1956-57_33k_ES_PAN_21mic_H50_0316_fot_32B-39531_W_tif
  70
32
  10
507884.000
  20
4638499.500
  30
1292.508
  0
VERTEX
  8
PNOA-H_AMS_1956-57_33k_ES_PAN_21mic_H50_0316_fot_32B-39531_W_tif
  70
32
  10
507884.249
  20
4638499.612
  30
1292.512
  0
VERTEX
  8
PNOA-H_AMS_1956-57_33k_ES_PAN_21mic_H50_0316_fot_32B-39531_W_tif
  70
32
  10
508337.500
  20
4638703.500
  30
1298.888
  0
VERTEX
  8
PNOA-H_AMS_1956-57_33k_ES_PAN_21mic_H50_0316_fot_32B-39531_W_tif
  70
32
  10
508338.378
  20
4638703.445
  30
1298.944
  0
SEQEND
  8
PNOA-H_AMS_1956-57_33k_ES_PAN_21mic_H50_0316_fot_32B-39531_W_tif
  0
INSERT
  8
FeatureAttribs
  2
FEATURE
  41
1
  42
1
  43
1
  50
0
  10
509214.607
  20
4632705.104
 66
1
  0
ATTRIB
  8
FeatureAttribs
 70
0
  1
PNOA-H_AMS_1956-57_33k_ES_PAN_21mic_H50_0316_fot_33B-38724_E.tif
  2
NAME
  10
509214.607
  20
4632705.104
 40
33.30316
  0
SEQEND
  0
POLYLINE
  8
PNOA-H_AMS_1956-57_33k_ES_PAN_21mic_H50_0316_fot_33B-38724_E_tif
  70
9
  66
1
  0
VERTEX
  8
PNOA-H_AMS_1956-57_33k_ES_PAN_21mic_H50_0316_fot_33B-38724_E_tif
  70
32
  10
507906.073
  20
4631276.208
  30
0
  0
VERTEX
  8
PNOA-H_AMS_1956-57_33k_ES_PAN_21mic_H50_0316_fot_33B-38724_E_tif
  70
32
  10
507905.932
  20
4631276.208
  30
1162.881
  0
VERTEX
  8
PNOA-H_AMS_1956-57_33k_ES_PAN_21mic_H50_0316_fot_33B-38724_E_tif
  70
32
  10
507912.500
  20
4634088.500
  30
1141.314
  0
VERTEX
  8
PNOA-H_AMS_1956-57_33k_ES_PAN_21mic_H50_0316_fot_33B-38724_E_tif
  70
32
  10
507912.993
  20
4634124.000
  30
1139.025
  0
VERTEX
  8
PNOA-H_AMS_1956-57_33k_ES_PAN_21mic_H50_0316_fot_33B-38724_E_tif
  70
32
  10
507913.000
  20
4634124.500
  30
1138.993
  0
VERTEX
  8
PNOA-H_AMS_1956-57_33k_ES_PAN_21mic_H50_0316_fot_33B-38724_E_tif
  70
32
  10
507928.500
  20
4634133.500
  30
1139.078
  0
VERTEX
  8
PNOA-H_AMS_1956-57_33k_ES_PAN_21mic_H50_0316_fot_33B-38724_E_tif
  70
32
  10
507929.500
  20
4634134.000
  30
1139.059
  0
VERTEX
  8
PNOA-H_AMS_1956-57_33k_ES_PAN_21mic_H50_0316_fot_33B-38724_E_tif
  70
32
  10
510502.000
  20
4634122.000
  30
1160.941
  0
VERTEX
  8
PNOA-H_AMS_1956-57_33k_ES_PAN_21mic_H50_0316_fot_33B-38724_E_tif
  70
32
  10
510521.523
  20
4632580.551
  30
1156.871
  0
VERTEX
  8
PNOA-H_AMS_1956-57_33k_ES_PAN_21mic_H50_0316_fot_33B-38724_E_tif
  70
32
  10
510538.000
  20
4631279.677
  30
1153.437
  0
VERTEX
  8
PNOA-H_AMS_1956-57_33k_ES_PAN_21mic_H50_0316_fot_33B-38724_E_tif
  70
32
  10
508649.311
  20
4631276.929
  30
0
  0
VERTEX
  8
PNOA-H_AMS_1956-57_33k_ES_PAN_21mic_H50_0316_fot_33B-38724_E_tif
  70
32
  10
507906.073
  20
4631276.208
  30
0
  0
SEQEND
  8
PNOA-H_AMS_1956-57_33k_ES_PAN_21mic_H50_0316_fot_33B-38724_E_tif
  0
INSERT
  8
FeatureAttribs
  2
FEATURE
  41
1
  42
1
  43
1
  50
0
  10
511313.073
  20
4632732.339
 66
1
  0
ATTRIB
  8
FeatureAttribs
 70
0
  1
PNOA-H_AMS_1956-57_33k_ES_PAN_21mic_H50_0317_fot_33B-38725_E.tif
  2
NAME
  10
511313.073
  20
4632732.339
 40
33.30316
  0
SEQEND
  0
POLYLINE
  8
PNOA-H_AMS_1956-57_33k_ES_PAN_21mic_H50_0317_fot_33B-38725_E_tif
  70
9
  66
1
  0
VERTEX
  8
PNOA-H_AMS_1956-57_33k_ES_PAN_21mic_H50_0317_fot_33B-38725_E_tif
  70
32
  10
512109.036
  20
4631281.963
  30
0
  0
VERTEX
  8
PNOA-H_AMS_1956-57_33k_ES_PAN_21mic_H50_0317_fot_33B-38725_E_tif
  70
32
  10
510538.238
  20
4631279.678
  30
1153.494
  0
VERTEX
  8
PNOA-H_AMS_1956-57_33k_ES_PAN_21mic_H50_0317_fot_33B-38725_E_tif
  70
32
  10
510521.523
  20
4632580.551
  30
1157.032
  0
VERTEX
  8
PNOA-H_AMS_1956-57_33k_ES_PAN_21mic_H50_0317_fot_33B-38725_E_tif
  70
32
  10
510502.000
  20
4634100.000
  30
1161.164
  0
VERTEX
  8
PNOA-H_AMS_1956-57_33k_ES_PAN_21mic_H50_0317_fot_33B-38725_E_tif
  70
32
  10
510502.000
  20
4634122.000
  30
1160.942
  0
VERTEX
  8
PNOA-H_AMS_1956-57_33k_ES_PAN_21mic_H50_0317_fot_33B-38725_E_tif
  70
32
  10
510502.000
  20
4634122.500
  30
1160.936
  0
VERTEX
  8
PNOA-H_AMS_1956-57_33k_ES_PAN_21mic_H50_0317_fot_33B-38725_E_tif
  70
32
  10
510612.500
  20
4634185.000
  30
1145.472
  0
VERTEX
  8
PNOA-H_AMS_1956-57_33k_ES_PAN_21mic_H50_0317_fot_33B-38725_E_tif
  70
32
  10
510612.974
  20
4634184.986
  30
1145.463
  0
VERTEX
  8
PNOA-H_AMS_1956-57_33k_ES_PAN_21mic_H50_0317_fot_33B-38725_E_tif
  70
32
  10
512104.183
  20
4634139.444
  30
1116.908
  0
VERTEX
  8
PNOA-H_AMS_1956-57_33k_ES_PAN_21mic_H50_0317_fot_33B-38725_E_tif
  70
32
  10
512105.108
  20
4633595.002
  30
0
  0
VERTEX
  8
PNOA-H_AMS_1956-57_33k_ES_PAN_21mic_H50_0317_fot_33B-38725_E_tif
  70
32
  10
512109.036
  20
4631281.963
  30
0
  0
SEQEND
  8
PNOA-H_AMS_1956-57_33k_ES_PAN_21mic_H50_0317_fot_33B-38725_E_tif
  0
INSERT
  8
FeatureAttribs
  2
FEATURE
  41
1
  42
1
  43
1
  50
0
  10
485441.020
  20
4648681.863
 66
1
  0
ATTRIB
  8
FeatureAttribs
 70
0
  1
PNOA-H_AMS_1956-57_33k_ES_PAN_21mic_H50_0278_fot_29C-50594_E.tif
  2
NAME
  10
485441.020
  20
4648681.863
 40
33.30316
  0
SEQEND
  0
POLYLINE
  8
PNOA-H_AMS_1956-57_33k_ES_PAN_21mic_H50_0278_fot_29C-50594_E_tif
  70
9
  66
1
  0
VERTEX
  8
PNOA-H_AMS_1956-57_33k_ES_PAN_21mic_H50_0278_fot_29C-50594_E_tif
  70
32
  10
486407.500
  20
4647903.500
  30
1044.839
  0
VERTEX
  8
PNOA-H_AMS_1956-57_33k_ES_PAN_21mic_H50_0278_fot_29C-50594_E_tif
  70
32
  10
485687.500
  20
4647570.500
  30
1066.749
  0
VERTEX
  8
PNOA-H_AMS_1956-57_33k_ES_PAN_21mic_H50_0278_fot_29C-50594_E_tif
  70
32
  10
485687.471
  20
4647570.504
  30
1066.749
  0
VERTEX
  8
PNOA-H_AMS_1956-57_33k_ES_PAN_21mic_H50_0278_fot_29C-50594_E_tif
  70
32
  10
485376.833
  20
4647614.083
  30
1067.94
  0
VERTEX
  8
PNOA-H_AMS_1956-57_33k_ES_PAN_21mic_H50_0278_fot_29C-50594_E_tif
  70
32
  10
484467.202
  20
4647741.695
  30
1071.429
  0
VERTEX
  8
PNOA-H_AMS_1956-57_33k_ES_PAN_21mic_H50_0278_fot_29C-50594_E_tif
  70
32
  10
484467.202
  20
4647741.901
  30
0
  0
VERTEX
  8
PNOA-H_AMS_1956-57_33k_ES_PAN_21mic_H50_0278_fot_29C-50594_E_tif
  70
32
  10
484471.693
  20
4649793.226
  30
0
  0
VERTEX
  8
PNOA-H_AMS_1956-57_33k_ES_PAN_21mic_H50_0278_fot_29C-50594_E_tif
  70
32
  10
486420.401
  20
4649789.433
  30
1083.53
  0
VERTEX
  8
PNOA-H_AMS_1956-57_33k_ES_PAN_21mic_H50_0278_fot_29C-50594_E_tif
  70
32
  10
486411.500
  20
4648496.000
  30
1052.673
  0
VERTEX
  8
PNOA-H_AMS_1956-57_33k_ES_PAN_21mic_H50_0278_fot_29C-50594_E_tif
  70
32
  10
486411.500
  20
4648486.868
  30
1052.409
  0
VERTEX
  8
PNOA-H_AMS_1956-57_33k_ES_PAN_21mic_H50_0278_fot_29C-50594_E_tif
  70
32
  10
486411.500
  20
4648485.000
  30
1052.355
  0
VERTEX
  8
PNOA-H_AMS_1956-57_33k_ES_PAN_21mic_H50_0278_fot_29C-50594_E_tif
  70
32
  10
486407.503
  20
4647904.000
  30
1044.846
  0
VERTEX
  8
PNOA-H_AMS_1956-57_33k_ES_PAN_21mic_H50_0278_fot_29C-50594_E_tif
  70
32
  10
486407.500
  20
4647903.500
  30
1044.839
  0
SEQEND
  8
PNOA-H_AMS_1956-57_33k_ES_PAN_21mic_H50_0278_fot_29C-50594_E_tif
  0
INSERT
  8
FeatureAttribs
  2
FEATURE
  41
1
  42
1
  43
1
  50
0
  10
485161.592
  20
4632794.345
 66
1
  0
ATTRIB
  8
FeatureAttribs
 70
0
  1
PNOA-H_AMS_1956-57_33k_ES_PAN_21mic_H50_0316_fot_33B-38715_E.tif
  2
NAME
  10
485161.592
  20
4632794.345
 40
33.30316
  0
SEQEND
  0
POLYLINE
  8
PNOA-H_AMS_1956-57_33k_ES_PAN_21mic_H50_0316_fot_33B-38715_E_tif
  70
9
  66
1
  0
VERTEX
  8
PNOA-H_AMS_1956-57_33k_ES_PAN_21mic_H50_0316_fot_33B-38715_E_tif
  70
32
  10
485866.773
  20
4633836.311
  30
1122.182
  0
VERTEX
  8
PNOA-H_AMS_1956-57_33k_ES_PAN_21mic_H50_0316_fot_33B-38715_E_tif
  70
32
  10
485920.347
  20
4631285.787
  30
1139.356
  0
VERTEX
  8
PNOA-H_AMS_1956-57_33k_ES_PAN_21mic_H50_0316_fot_33B-38715_E_tif
  70
32
  10
485920.100
  20
4631285.787
  30
1142.087
  0
VERTEX
  8
PNOA-H_AMS_1956-57_33k_ES_PAN_21mic_H50_0316_fot_33B-38715_E_tif
  70
32
  10
484431.239
  20
4631288.676
  30
0
  0
VERTEX
  8
PNOA-H_AMS_1956-57_33k_ES_PAN_21mic_H50_0316_fot_33B-38715_E_tif
  70
32
  10
484436.288
  20
4633601.715
  30
0
  0
VERTEX
  8
PNOA-H_AMS_1956-57_33k_ES_PAN_21mic_H50_0316_fot_33B-38715_E_tif
  70
32
  10
484437.818
  20
4634302.359
  30
0
  0
VERTEX
  8
PNOA-H_AMS_1956-57_33k_ES_PAN_21mic_H50_0316_fot_33B-38715_E_tif
  70
32
  10
484437.820
  20
4634302.903
  30
1105.302
  0
VERTEX
  8
PNOA-H_AMS_1956-57_33k_ES_PAN_21mic_H50_0316_fot_33B-38715_E_tif
  70
32
  10
485864.500
  20
4633944.500
  30
1121.453
  0
VERTEX
  8
PNOA-H_AMS_1956-57_33k_ES_PAN_21mic_H50_0316_fot_33B-38715_E_tif
  70
32
  10
485866.773
  20
4633836.311
  30
1122.182
  0
SEQEND
  8
PNOA-H_AMS_1956-57_33k_ES_PAN_21mic_H50_0316_fot_33B-38715_E_tif
  0
INSERT
  8
FeatureAttribs
  2
FEATURE
  41
1
  42
1
  43
1
  50
0
  10
485723.321
  20
4636358.750
 66
1
  0
ATTRIB
  8
FeatureAttribs
 70
0
  1
PNOA-H_AMS_1956-57_33k_ES_PAN_21mic_H50_0316_fot_32B-39540_W.tif
  2
NAME
  10
485723.321
  20
4636358.750
 40
33.30316
  0
SEQEND
  0
POLYLINE
  8
PNOA-H_AMS_1956-57_33k_ES_PAN_21mic_H50_0316_fot_32B-39540_W_tif
  70
9
  66
1
  0
VERTEX
  8
PNOA-H_AMS_1956-57_33k_ES_PAN_21mic_H50_0316_fot_32B-39540_W_tif
  70
32
  10
485864.510
  20
4633944.504
  30
1121.453
  0
VERTEX
  8
PNOA-H_AMS_1956-57_33k_ES_PAN_21mic_H50_0316_fot_32B-39540_W_tif
  70
32
  10
485864.500
  20
4633944.500
  30
1121.453
  0
VERTEX
  8
PNOA-H_AMS_1956-57_33k_ES_PAN_21mic_H50_0316_fot_32B-39540_W_tif
  70
32
  10
484437.818
  20
4634302.359
  30
1101.739
  0
VERTEX
  8
PNOA-H_AMS_1956-57_33k_ES_PAN_21mic_H50_0316_fot_32B-39540_W_tif
  70
32
  10
484437.820
  20
4634302.903
  30
0
  0
VERTEX
  8
PNOA-H_AMS_1956-57_33k_ES_PAN_21mic_H50_0316_fot_32B-39540_W_tif
  70
32
  10
484441.340
  20
4635914.763
  30
0
  0
VERTEX
  8
PNOA-H_AMS_1956-57_33k_ES_PAN_21mic_H50_0316_fot_32B-39540_W_tif
  70
32
  10
484446.394
  20
4638227.819
  30
0
  0
VERTEX
  8
PNOA-H_AMS_1956-57_33k_ES_PAN_21mic_H50_0316_fot_32B-39540_W_tif
  70
32
  10
484447.028
  20
4638518.217
  30
0
  0
VERTEX
  8
PNOA-H_AMS_1956-57_33k_ES_PAN_21mic_H50_0316_fot_32B-39540_W_tif
  70
32
  10
484447.029
  20
4638518.720
  30
1113.727
  0
VERTEX
  8
PNOA-H_AMS_1956-57_33k_ES_PAN_21mic_H50_0316_fot_32B-39540_W_tif
  70
32
  10
485830.500
  20
4638679.000
  30
1140.603
  0
VERTEX
  8
PNOA-H_AMS_1956-57_33k_ES_PAN_21mic_H50_0316_fot_32B-39540_W_tif
  70
32
  10
485835.000
  20
4638679.500
  30
1140.266
  0
VERTEX
  8
PNOA-H_AMS_1956-57_33k_ES_PAN_21mic_H50_0316_fot_32B-39540_W_tif
  70
32
  10
486495.346
  20
4638755.491
  30
1120.88
  0
VERTEX
  8
PNOA-H_AMS_1956-57_33k_ES_PAN_21mic_H50_0316_fot_32B-39540_W_tif
  70
32
  10
486646.668
  20
4638772.904
  30
1116.437
  0
VERTEX
  8
PNOA-H_AMS_1956-57_33k_ES_PAN_21mic_H50_0316_fot_32B-39540_W_tif
  70
32
  10
486647.500
  20
4638773.000
  30
1116.413
  0
VERTEX
  8
PNOA-H_AMS_1956-57_33k_ES_PAN_21mic_H50_0316_fot_32B-39540_W_tif
  70
32
  10
486986.000
  20
4638580.500
  30
1120.866
  0
VERTEX
  8
PNOA-H_AMS_1956-57_33k_ES_PAN_21mic_H50_0316_fot_32B-39540_W_tif
  70
32
  10
486986.004
  20
4638580.000
  30
1120.861
  0
VERTEX
  8
PNOA-H_AMS_1956-57_33k_ES_PAN_21mic_H50_0316_fot_32B-39540_W_tif
  70
32
  10
487020.500
  20
4634399.500
  30
1076.514
  0
VERTEX
  8
PNOA-H_AMS_1956-57_33k_ES_PAN_21mic_H50_0316_fot_32B-39540_W_tif
  70
32
  10
487020.500
  20
4634366.500
  30
1076.688
  0
VERTEX
  8
PNOA-H_AMS_1956-57_33k_ES_PAN_21mic_H50_0316_fot_32B-39540_W_tif
  70
32
  10
487020.117
  20
4634366.360
  30
1076.703
  0
VERTEX
  8
PNOA-H_AMS_1956-57_33k_ES_PAN_21mic_H50_0316_fot_32B-39540_W_tif
  70
32
  10
485864.510
  20
4633944.504
  30
1121.453
  0
SEQEND
  8
PNOA-H_AMS_1956-57_33k_ES_PAN_21mic_H50_0316_fot_32B-39540_W_tif
  0
INSERT
  8
FeatureAttribs
  2
FEATURE
  41
1
  42
1
  43
1
  50
0
  10
487721.294
  20
4648720.466
 66
1
  0
ATTRIB
  8
FeatureAttribs
 70
0
  1
PNOA-H_AMS_1956-57_33k_ES_PAN_21mic_H50_0278_fot_29C-50595_E.tif
  2
NAME
  10
487721.294
  20
4648720.466
 40
33.30316
  0
SEQEND
  0
POLYLINE
  8
PNOA-H_AMS_1956-57_33k_ES_PAN_21mic_H50_0278_fot_29C-50595_E_tif
  70
9
  66
1
  0
VERTEX
  8
PNOA-H_AMS_1956-57_33k_ES_PAN_21mic_H50_0278_fot_29C-50595_E_tif
  70
32
  10
488334.109
  20
4647651.551
  30
1085.403
  0
VERTEX
  8
PNOA-H_AMS_1956-57_33k_ES_PAN_21mic_H50_0278_fot_29C-50595_E_tif
  70
32
  10
488334.000
  20
4647651.500
  30
1085.401
  0
VERTEX
  8
PNOA-H_AMS_1956-57_33k_ES_PAN_21mic_H50_0278_fot_29C-50595_E_tif
  70
32
  10
486407.503
  20
4647904.000
  30
1044.836
  0
VERTEX
  8
PNOA-H_AMS_1956-57_33k_ES_PAN_21mic_H50_0278_fot_29C-50595_E_tif
  70
32
  10
486407.500
  20
4647904.000
  30
1044.836
  0
VERTEX
  8
PNOA-H_AMS_1956-57_33k_ES_PAN_21mic_H50_0278_fot_29C-50595_E_tif
  70
32
  10
486411.500
  20
4648486.868
  30
1057.792
  0
VERTEX
  8
PNOA-H_AMS_1956-57_33k_ES_PAN_21mic_H50_0278_fot_29C-50595_E_tif
  70
32
  10
486420.439
  20
4649789.433
  30
1086.747
  0
VERTEX
  8
PNOA-H_AMS_1956-57_33k_ES_PAN_21mic_H50_0278_fot_29C-50595_E_tif
  70
32
  10
487922.429
  20
4649786.509
  30
0
  0
VERTEX
  8
PNOA-H_AMS_1956-57_33k_ES_PAN_21mic_H50_0278_fot_29C-50595_E_tif
  70
32
  10
489025.877
  20
4649784.899
  30
1134.115
  0
VERTEX
  8
PNOA-H_AMS_1956-57_33k_ES_PAN_21mic_H50_0278_fot_29C-50595_E_tif
  70
32
  10
489032.000
  20
4647978.500
  30
1098.321
  0
VERTEX
  8
PNOA-H_AMS_1956-57_33k_ES_PAN_21mic_H50_0278_fot_29C-50595_E_tif
  70
32
  10
489031.893
  20
4647978.450
  30
1098.319
  0
VERTEX
  8
PNOA-H_AMS_1956-57_33k_ES_PAN_21mic_H50_0278_fot_29C-50595_E_tif
  70
32
  10
488334.516
  20
4647651.742
  30
1085.41
  0
VERTEX
  8
PNOA-H_AMS_1956-57_33k_ES_PAN_21mic_H50_0278_fot_29C-50595_E_tif
  70
32
  10
488334.109
  20
4647651.551
  30
1085.403
  0
SEQEND
  8
PNOA-H_AMS_1956-57_33k_ES_PAN_21mic_H50_0278_fot_29C-50595_E_tif
  0
INSERT
  8
FeatureAttribs
  2
FEATURE
  41
1
  42
1
  43
1
  50
0
  10
485135.577
  20
4645412.248
 66
1
  0
ATTRIB
  8
FeatureAttribs
 70
0
  1
PNOA-H_AMS_1956-57_33k_ES_PAN_21mic_H50_0315_fot_30D-50561_W.tif
  2
NAME
  10
485135.577
  20
4645412.248
 40
33.30316
  0
SEQEND
  0
POLYLINE
  8
PNOA-H_AMS_1956-57_33k_ES_PAN_21mic_H50_0315_fot_30D-50561_W_tif
  70
9
  66
1
  0
VERTEX
  8
PNOA-H_AMS_1956-57_33k_ES_PAN_21mic_H50_0315_fot_30D-50561_W_tif
  70
32
  10
485927.000
  20
4643308.500
  30
1250.129
  0
VERTEX
  8
PNOA-H_AMS_1956-57_33k_ES_PAN_21mic_H50_0315_fot_30D-50561_W_tif
  70
32
  10
484457.007
  20
4643082.595
  30
1203.973
  0
VERTEX
  8
PNOA-H_AMS_1956-57_33k_ES_PAN_21mic_H50_0315_fot_30D-50561_W_tif
  70
32
  10
484457.008
  20
4643083.063
  30
0
  0
VERTEX
  8
PNOA-H_AMS_1956-57_33k_ES_PAN_21mic_H50_0315_fot_30D-50561_W_tif
  70
32
  10
484461.567
  20
4645167.038
  30
0
  0
VERTEX
  8
PNOA-H_AMS_1956-57_33k_ES_PAN_21mic_H50_0315_fot_30D-50561_W_tif
  70
32
  10
484466.629
  20
4647480.128
  30
0
  0
VERTEX
  8
PNOA-H_AMS_1956-57_33k_ES_PAN_21mic_H50_0315_fot_30D-50561_W_tif
  70
32
  10
484467.202
  20
4647741.695
  30
1071.623
  0
VERTEX
  8
PNOA-H_AMS_1956-57_33k_ES_PAN_21mic_H50_0315_fot_30D-50561_W_tif
  70
32
  10
484467.202
  20
4647741.901
  30
1071.613
  0
VERTEX
  8
PNOA-H_AMS_1956-57_33k_ES_PAN_21mic_H50_0315_fot_30D-50561_W_tif
  70
32
  10
485376.833
  20
4647614.083
  30
1067.959
  0
VERTEX
  8
PNOA-H_AMS_1956-57_33k_ES_PAN_21mic_H50_0315_fot_30D-50561_W_tif
  70
32
  10
485687.000
  20
4647570.500
  30
1066.714
  0
VERTEX
  8
PNOA-H_AMS_1956-57_33k_ES_PAN_21mic_H50_0315_fot_30D-50561_W_tif
  70
32
  10
485687.231
  20
4647566.421
  30
1066.895
  0
VERTEX
  8
PNOA-H_AMS_1956-57_33k_ES_PAN_21mic_H50_0315_fot_30D-50561_W_tif
  70
32
  10
485927.000
  20
4643326.500
  30
1255.404
  0
VERTEX
  8
PNOA-H_AMS_1956-57_33k_ES_PAN_21mic_H50_0315_fot_30D-50561_W_tif
  70
32
  10
485927.000
  20
4643317.843
  30
1252.867
  0
VERTEX
  8
PNOA-H_AMS_1956-57_33k_ES_PAN_21mic_H50_0315_fot_30D-50561_W_tif
  70
32
  10
485927.000
  20
4643308.846
  30
1250.231
  0
VERTEX
  8
PNOA-H_AMS_1956-57_33k_ES_PAN_21mic_H50_0315_fot_30D-50561_W_tif
  70
32
  10
485927.000
  20
4643308.500
  30
1250.129
  0
SEQEND
  8
PNOA-H_AMS_1956-57_33k_ES_PAN_21mic_H50_0315_fot_30D-50561_W_tif
  0
INSERT
  8
FeatureAttribs
  2
FEATURE
  41
1
  42
1
  43
1
  50
0
  10
489805.174
  20
4645511.500
 66
1
  0
ATTRIB
  8
FeatureAttribs
 70
0
  1
PNOA-H_AMS_1956-57_33k_ES_PAN_21mic_H50_0316_fot_30D-50559_W.tif
  2
NAME
  10
489805.174
  20
4645511.500
 40
33.30316
  0
SEQEND
  0
POLYLINE
  8
PNOA-H_AMS_1956-57_33k_ES_PAN_21mic_H50_0316_fot_30D-50559_W_tif
  70
9
  66
1
  0
VERTEX
  8
PNOA-H_AMS_1956-57_33k_ES_PAN_21mic_H50_0316_fot_30D-50559_W_tif
  70
32
  10
489031.893
  20
4647978.450
  30
1098.423
  0
VERTEX
  8
PNOA-H_AMS_1956-57_33k_ES_PAN_21mic_H50_0316_fot_30D-50559_W_tif
  70
32
  10
489928.500
  20
4647864.500
  30
1108.62
  0
VERTEX
  8
PNOA-H_AMS_1956-57_33k_ES_PAN_21mic_H50_0316_fot_30D-50559_W_tif
  70
32
  10
489930.320
  20
4647864.500
  30
1108.61
  0
VERTEX
  8
PNOA-H_AMS_1956-57_33k_ES_PAN_21mic_H50_0316_fot_30D-50559_W_tif
  70
32
  10
489932.000
  20
4647864.500
  30
1108.6
  0
VERTEX
  8
PNOA-H_AMS_1956-57_33k_ES_PAN_21mic_H50_0316_fot_30D-50559_W_tif
  70
32
  10
491087.000
  20
4647718.000
  30
1122.363
  0
VERTEX
  8
PNOA-H_AMS_1956-57_33k_ES_PAN_21mic_H50_0316_fot_30D-50559_W_tif
  70
32
  10
491091.921
  20
4647717.089
  30
1122.365
  0
VERTEX
  8
PNOA-H_AMS_1956-57_33k_ES_PAN_21mic_H50_0316_fot_30D-50559_W_tif
  70
32
  10
491100.008
  20
4647715.591
  30
1122.368
  0
VERTEX
  8
PNOA-H_AMS_1956-57_33k_ES_PAN_21mic_H50_0316_fot_30D-50559_W_tif
  70
32
  10
491100.500
  20
4647715.500
  30
1122.368
  0
VERTEX
  8
PNOA-H_AMS_1956-57_33k_ES_PAN_21mic_H50_0316_fot_30D-50559_W_tif
  70
32
  10
491181.500
  20
4643472.000
  30
1109.873
  0
VERTEX
  8
PNOA-H_AMS_1956-57_33k_ES_PAN_21mic_H50_0316_fot_30D-50559_W_tif
  70
32
  10
490911.682
  20
4643394.273
  30
1102.89
  0
VERTEX
  8
PNOA-H_AMS_1956-57_33k_ES_PAN_21mic_H50_0316_fot_30D-50559_W_tif
  70
32
  10
489697.500
  20
4643044.500
  30
1071.466
  0
VERTEX
  8
PNOA-H_AMS_1956-57_33k_ES_PAN_21mic_H50_0316_fot_30D-50559_W_tif
  70
32
  10
489697.263
  20
4643044.576
  30
1071.485
  0
VERTEX
  8
PNOA-H_AMS_1956-57_33k_ES_PAN_21mic_H50_0316_fot_30D-50559_W_tif
  70
32
  10
488599.978
  20
4643395.847
  30
1156.432
  0
VERTEX
  8
PNOA-H_AMS_1956-57_33k_ES_PAN_21mic_H50_0316_fot_30D-50559_W_tif
  70
32
  10
488599.500
  20
4643396.000
  30
1156.469
  0
VERTEX
  8
PNOA-H_AMS_1956-57_33k_ES_PAN_21mic_H50_0316_fot_30D-50559_W_tif
  70
32
  10
488351.031
  20
4647386.500
  30
1089.863
  0
VERTEX
  8
PNOA-H_AMS_1956-57_33k_ES_PAN_21mic_H50_0316_fot_30D-50559_W_tif
  70
32
  10
488334.516
  20
4647651.742
  30
1085.436
  0
VERTEX
  8
PNOA-H_AMS_1956-57_33k_ES_PAN_21mic_H50_0316_fot_30D-50559_W_tif
  70
32
  10
488334.500
  20
4647652.000
  30
1085.432
  0
VERTEX
  8
PNOA-H_AMS_1956-57_33k_ES_PAN_21mic_H50_0316_fot_30D-50559_W_tif
  70
32
  10
489031.500
  20
4647978.500
  30
1098.418
  0
VERTEX
  8
PNOA-H_AMS_1956-57_33k_ES_PAN_21mic_H50_0316_fot_30D-50559_W_tif
  70
32
  10
489031.893
  20
4647978.450
  30
1098.423
  0
SEQEND
  8
PNOA-H_AMS_1956-57_33k_ES_PAN_21mic_H50_0316_fot_30D-50559_W_tif
  0
INSERT
  8
FeatureAttribs
  2
FEATURE
  41
1
  42
1
  43
1
  50
0
  10
487139.779
  20
4645439.250
 66
1
  0
ATTRIB
  8
FeatureAttribs
 70
0
  1
PNOA-H_AMS_1956-57_33k_ES_PAN_21mic_H50_0316_fot_30D-50560_W.tif
  2
NAME
  10
487139.779
  20
4645439.250
 40
33.30316
  0
SEQEND
  0
POLYLINE
  8
PNOA-H_AMS_1956-57_33k_ES_PAN_21mic_H50_0316_fot_30D-50560_W_tif
  70
9
  66
1
  0
VERTEX
  8
PNOA-H_AMS_1956-57_33k_ES_PAN_21mic_H50_0316_fot_30D-50560_W_tif
  70
32
  10
488600.000
  20
4643395.500
  30
1156.336
  0
VERTEX
  8
PNOA-H_AMS_1956-57_33k_ES_PAN_21mic_H50_0316_fot_30D-50560_W_tif
  70
32
  10
486698.000
  20
4642974.500
  30
1206.871
  0
VERTEX
  8
PNOA-H_AMS_1956-57_33k_ES_PAN_21mic_H50_0316_fot_30D-50560_W_tif
  70
32
  10
486697.662
  20
4642974.647
  30
1206.89
  0
VERTEX
  8
PNOA-H_AMS_1956-57_33k_ES_PAN_21mic_H50_0316_fot_30D-50560_W_tif
  70
32
  10
486184.333
  20
4643197.500
  30
1235.814
  0
VERTEX
  8
PNOA-H_AMS_1956-57_33k_ES_PAN_21mic_H50_0316_fot_30D-50560_W_tif
  70
32
  10
485927.631
  20
4643308.943
  30
1250.278
  0
VERTEX
  8
PNOA-H_AMS_1956-57_33k_ES_PAN_21mic_H50_0316_fot_30D-50560_W_tif
  70
32
  10
485927.500
  20
4643309.000
  30
1250.286
  0
VERTEX
  8
PNOA-H_AMS_1956-57_33k_ES_PAN_21mic_H50_0316_fot_30D-50560_W_tif
  70
32
  10
485927.000
  20
4643317.843
  30
1249.903
  0
VERTEX
  8
PNOA-H_AMS_1956-57_33k_ES_PAN_21mic_H50_0316_fot_30D-50560_W_tif
  70
32
  10
485687.000
  20
4647562.500
  30
1066.346
  0
VERTEX
  8
PNOA-H_AMS_1956-57_33k_ES_PAN_21mic_H50_0316_fot_30D-50560_W_tif
  70
32
  10
485687.231
  20
4647566.421
  30
1066.539
  0
VERTEX
  8
PNOA-H_AMS_1956-57_33k_ES_PAN_21mic_H50_0316_fot_30D-50560_W_tif
  70
32
  10
485687.471
  20
4647570.504
  30
1066.74
  0
VERTEX
  8
PNOA-H_AMS_1956-57_33k_ES_PAN_21mic_H50_0316_fot_30D-50560_W_tif
  70
32
  10
485687.500
  20
4647571.000
  30
1066.764
  0
VERTEX
  8
PNOA-H_AMS_1956-57_33k_ES_PAN_21mic_H50_0316_fot_30D-50560_W_tif
  70
32
  10
485833.500
  20
4647638.500
  30
1067.044
  0
VERTEX
  8
PNOA-H_AMS_1956-57_33k_ES_PAN_21mic_H50_0316_fot_30D-50560_W_tif
  70
32
  10
485834.500
  20
4647639.000
  30
1067.04
  0
VERTEX
  8
PNOA-H_AMS_1956-57_33k_ES_PAN_21mic_H50_0316_fot_30D-50560_W_tif
  70
32
  10
486407.500
  20
4647904.000
  30
1044.836
  0
VERTEX
  8
PNOA-H_AMS_1956-57_33k_ES_PAN_21mic_H50_0316_fot_30D-50560_W_tif
  70
32
  10
486407.503
  20
4647904.000
  30
1044.836
  0
VERTEX
  8
PNOA-H_AMS_1956-57_33k_ES_PAN_21mic_H50_0316_fot_30D-50560_W_tif
  70
32
  10
488334.109
  20
4647651.551
  30
1085.416
  0
VERTEX
  8
PNOA-H_AMS_1956-57_33k_ES_PAN_21mic_H50_0316_fot_30D-50560_W_tif
  70
32
  10
488334.500
  20
4647651.500
  30
1085.424
  0
VERTEX
  8
PNOA-H_AMS_1956-57_33k_ES_PAN_21mic_H50_0316_fot_30D-50560_W_tif
  70
32
  10
488351.031
  20
4647386.500
  30
1089.84
  0
VERTEX
  8
PNOA-H_AMS_1956-57_33k_ES_PAN_21mic_H50_0316_fot_30D-50560_W_tif
  70
32
  10
488599.978
  20
4643395.847
  30
1156.33
  0
VERTEX
  8
PNOA-H_AMS_1956-57_33k_ES_PAN_21mic_H50_0316_fot_30D-50560_W_tif
  70
32
  10
488600.000
  20
4643395.500
  30
1156.336
  0
SEQEND
  8
PNOA-H_AMS_1956-57_33k_ES_PAN_21mic_H50_0316_fot_30D-50560_W_tif
  0
INSERT
  8
FeatureAttribs
  2
FEATURE
  41
1
  42
1
  43
1
  50
0
  10
488178.349
  20
4640987.750
 66
1
  0
ATTRIB
  8
FeatureAttribs
 70
0
  1
PNOA-H_AMS_1956-57_33k_ES_PAN_21mic_H50_0316_fot_31B-36866_E.tif
  2
NAME
  10
488178.349
  20
4640987.750
 40
33.30316
  0
SEQEND
  0
POLYLINE
  8
PNOA-H_AMS_1956-57_33k_ES_PAN_21mic_H50_0316_fot_31B-36866_E_tif
  70
9
  66
1
  0
VERTEX
  8
PNOA-H_AMS_1956-57_33k_ES_PAN_21mic_H50_0316_fot_31B-36866_E_tif
  70
32
  10
486986.004
  20
4638580.000
  30
1120.856
  0
VERTEX
  8
PNOA-H_AMS_1956-57_33k_ES_PAN_21mic_H50_0316_fot_31B-36866_E_tif
  70
32
  10
486986.000
  20
4638580.000
  30
1120.856
  0
VERTEX
  8
PNOA-H_AMS_1956-57_33k_ES_PAN_21mic_H50_0316_fot_31B-36866_E_tif
  70
32
  10
486646.668
  20
4638772.904
  30
1116.73
  0
VERTEX
  8
PNOA-H_AMS_1956-57_33k_ES_PAN_21mic_H50_0316_fot_31B-36866_E_tif
  70
32
  10
486646.500
  20
4638773.000
  30
1116.728
  0
VERTEX
  8
PNOA-H_AMS_1956-57_33k_ES_PAN_21mic_H50_0316_fot_31B-36866_E_tif
  70
32
  10
486697.000
  20
4642974.500
  30
1206.84
  0
VERTEX
  8
PNOA-H_AMS_1956-57_33k_ES_PAN_21mic_H50_0316_fot_31B-36866_E_tif
  70
32
  10
486697.662
  20
4642974.647
  30
1206.823
  0
VERTEX
  8
PNOA-H_AMS_1956-57_33k_ES_PAN_21mic_H50_0316_fot_31B-36866_E_tif
  70
32
  10
488596.000
  20
4643395.000
  30
1157.449
  0
VERTEX
  8
PNOA-H_AMS_1956-57_33k_ES_PAN_21mic_H50_0316_fot_31B-36866_E_tif
  70
32
  10
488598.500
  20
4643395.500
  30
1156.801
  0
VERTEX
  8
PNOA-H_AMS_1956-57_33k_ES_PAN_21mic_H50_0316_fot_31B-36866_E_tif
  70
32
  10
488600.000
  20
4643395.500
  30
1156.336
  0
VERTEX
  8
PNOA-H_AMS_1956-57_33k_ES_PAN_21mic_H50_0316_fot_31B-36866_E_tif
  70
32
  10
488601.000
  20
4643395.500
  30
1156.026
  0
VERTEX
  8
PNOA-H_AMS_1956-57_33k_ES_PAN_21mic_H50_0316_fot_31B-36866_E_tif
  70
32
  10
489697.000
  20
4643044.500
  30
1071.476
  0
VERTEX
  8
PNOA-H_AMS_1956-57_33k_ES_PAN_21mic_H50_0316_fot_31B-36866_E_tif
  70
32
  10
489668.500
  20
4638677.500
  30
1211.591
  0
VERTEX
  8
PNOA-H_AMS_1956-57_33k_ES_PAN_21mic_H50_0316_fot_31B-36866_E_tif
  70
32
  10
489668.050
  20
4638672.998
  30
1212.51
  0
VERTEX
  8
PNOA-H_AMS_1956-57_33k_ES_PAN_21mic_H50_0316_fot_31B-36866_E_tif
  70
32
  10
489668.000
  20
4638672.500
  30
1212.612
  0
VERTEX
  8
PNOA-H_AMS_1956-57_33k_ES_PAN_21mic_H50_0316_fot_31B-36866_E_tif
  70
32
  10
489657.500
  20
4638666.000
  30
1213.089
  0
VERTEX
  8
PNOA-H_AMS_1956-57_33k_ES_PAN_21mic_H50_0316_fot_31B-36866_E_tif
  70
32
  10
489657.000
  20
4638665.984
  30
1213.072
  0
VERTEX
  8
PNOA-H_AMS_1956-57_33k_ES_PAN_21mic_H50_0316_fot_31B-36866_E_tif
  70
32
  10
486986.004
  20
4638580.000
  30
1120.856
  0
SEQEND
  8
PNOA-H_AMS_1956-57_33k_ES_PAN_21mic_H50_0316_fot_31B-36866_E_tif
  0
INSERT
  8
FeatureAttribs
  2
FEATURE
  41
1
  42
1
  43
1
  50
0
  10
485562.247
  20
4640913.609
 66
1
  0
ATTRIB
  8
FeatureAttribs
 70
0
  1
PNOA-H_AMS_1956-57_33k_ES_PAN_21mic_H50_0316_fot_31B-36865_E.tif
  2
NAME
  10
485562.247
  20
4640913.609
 40
33.30316
  0
SEQEND
  0
POLYLINE
  8
PNOA-H_AMS_1956-57_33k_ES_PAN_21mic_H50_0316_fot_31B-36865_E_tif
  70
9
  66
1
  0
VERTEX
  8
PNOA-H_AMS_1956-57_33k_ES_PAN_21mic_H50_0316_fot_31B-36865_E_tif
  70
32
  10
486495.346
  20
4638755.491
  30
1116.328
  0
VERTEX
  8
PNOA-H_AMS_1956-57_33k_ES_PAN_21mic_H50_0316_fot_31B-36865_E_tif
  70
32
  10
484447.028
  20
4638518.217
  30
1110.904
  0
VERTEX
  8
PNOA-H_AMS_1956-57_33k_ES_PAN_21mic_H50_0316_fot_31B-36865_E_tif
  70
32
  10
484447.029
  20
4638518.720
  30
0
  0
VERTEX
  8
PNOA-H_AMS_1956-57_33k_ES_PAN_21mic_H50_0316_fot_31B-36865_E_tif
  70
32
  10
484451.449
  20
4640540.884
  30
0
  0
VERTEX
  8
PNOA-H_AMS_1956-57_33k_ES_PAN_21mic_H50_0316_fot_31B-36865_E_tif
  70
32
  10
484456.507
  20
4642853.957
  30
0
  0
VERTEX
  8
PNOA-H_AMS_1956-57_33k_ES_PAN_21mic_H50_0316_fot_31B-36865_E_tif
  70
32
  10
484457.007
  20
4643082.595
  30
0
  0
VERTEX
  8
PNOA-H_AMS_1956-57_33k_ES_PAN_21mic_H50_0316_fot_31B-36865_E_tif
  70
32
  10
484457.008
  20
4643083.063
  30
1187.322
  0
VERTEX
  8
PNOA-H_AMS_1956-57_33k_ES_PAN_21mic_H50_0316_fot_31B-36865_E_tif
  70
32
  10
485927.000
  20
4643308.846
  30
1250.187
  0
VERTEX
  8
PNOA-H_AMS_1956-57_33k_ES_PAN_21mic_H50_0316_fot_31B-36865_E_tif
  70
32
  10
485927.631
  20
4643308.943
  30
1250.214
  0
VERTEX
  8
PNOA-H_AMS_1956-57_33k_ES_PAN_21mic_H50_0316_fot_31B-36865_E_tif
  70
32
  10
485928.000
  20
4643309.000
  30
1250.23
  0
VERTEX
  8
PNOA-H_AMS_1956-57_33k_ES_PAN_21mic_H50_0316_fot_31B-36865_E_tif
  70
32
  10
486184.333
  20
4643197.500
  30
1235.767
  0
VERTEX
  8
PNOA-H_AMS_1956-57_33k_ES_PAN_21mic_H50_0316_fot_31B-36865_E_tif
  70
32
  10
486697.000
  20
4642974.500
  30
1206.84
  0
VERTEX
  8
PNOA-H_AMS_1956-57_33k_ES_PAN_21mic_H50_0316_fot_31B-36865_E_tif
  70
32
  10
486646.500
  20
4638773.000
  30
1116.728
  0
VERTEX
  8
PNOA-H_AMS_1956-57_33k_ES_PAN_21mic_H50_0316_fot_31B-36865_E_tif
  70
32
  10
486495.346
  20
4638755.491
  30
1116.328
  0
SEQEND
  8
PNOA-H_AMS_1956-57_33k_ES_PAN_21mic_H50_0316_fot_31B-36865_E_tif
  0
INSERT
  8
FeatureAttribs
  2
FEATURE
  41
1
  42
1
  43
1
  50
0
  10
488334.025
  20
4636317.500
 66
1
  0
ATTRIB
  8
FeatureAttribs
 70
0
  1
PNOA-H_AMS_1956-57_33k_ES_PAN_21mic_H50_0316_fot_32B-39539_W.tif
  2
NAME
  10
488334.025
  20
4636317.500
 40
33.30316
  0
SEQEND
  0
POLYLINE
  8
PNOA-H_AMS_1956-57_33k_ES_PAN_21mic_H50_0316_fot_32B-39539_W_tif
  70
9
  66
1
  0
VERTEX
  8
PNOA-H_AMS_1956-57_33k_ES_PAN_21mic_H50_0316_fot_32B-39539_W_tif
  70
32
  10
488670.736
  20
4633969.184
  30
1099.342
  0
VERTEX
  8
PNOA-H_AMS_1956-57_33k_ES_PAN_21mic_H50_0316_fot_32B-39539_W_tif
  70
32
  10
488670.000
  20
4633969.000
  30
1099.424
  0
VERTEX
  8
PNOA-H_AMS_1956-57_33k_ES_PAN_21mic_H50_0316_fot_32B-39539_W_tif
  70
32
  10
487022.117
  20
4634366.110
  30
1076.71
  0
VERTEX
  8
PNOA-H_AMS_1956-57_33k_ES_PAN_21mic_H50_0316_fot_32B-39539_W_tif
  70
32
  10
487020.500
  20
4634366.500
  30
1076.688
  0
VERTEX
  8
PNOA-H_AMS_1956-57_33k_ES_PAN_21mic_H50_0316_fot_32B-39539_W_tif
  70
32
  10
486986.000
  20
4638580.000
  30
1120.856
  0
VERTEX
  8
PNOA-H_AMS_1956-57_33k_ES_PAN_21mic_H50_0316_fot_32B-39539_W_tif
  70
32
  10
486986.004
  20
4638580.000
  30
1120.856
  0
VERTEX
  8
PNOA-H_AMS_1956-57_33k_ES_PAN_21mic_H50_0316_fot_32B-39539_W_tif
  70
32
  10
489653.000
  20
4638666.000
  30
1212.581
  0
VERTEX
  8
PNOA-H_AMS_1956-57_33k_ES_PAN_21mic_H50_0316_fot_32B-39539_W_tif
  70
32
  10
489657.000
  20
4638666.000
  30
1213.032
  0
VERTEX
  8
PNOA-H_AMS_1956-57_33k_ES_PAN_21mic_H50_0316_fot_32B-39539_W_tif
  70
32
  10
489657.000
  20
4638665.984
  30
1213.032
  0
VERTEX
  8
PNOA-H_AMS_1956-57_33k_ES_PAN_21mic_H50_0316_fot_32B-39539_W_tif
  70
32
  10
489669.000
  20
4634347.000
  30
1130.819
  0
VERTEX
  8
PNOA-H_AMS_1956-57_33k_ES_PAN_21mic_H50_0316_fot_32B-39539_W_tif
  70
32
  10
489668.465
  20
4634346.797
  30
1130.787
  0
VERTEX
  8
PNOA-H_AMS_1956-57_33k_ES_PAN_21mic_H50_0316_fot_32B-39539_W_tif
  70
32
  10
489147.000
  20
4634149.000
  30
1099.483
  0
VERTEX
  8
PNOA-H_AMS_1956-57_33k_ES_PAN_21mic_H50_0316_fot_32B-39539_W_tif
  70
32
  10
489145.937
  20
4634149.000
  30
1099.352
  0
VERTEX
  8
PNOA-H_AMS_1956-57_33k_ES_PAN_21mic_H50_0316_fot_32B-39539_W_tif
  70
32
  10
489145.500
  20
4634149.000
  30
1099.298
  0
VERTEX
  8
PNOA-H_AMS_1956-57_33k_ES_PAN_21mic_H50_0316_fot_32B-39539_W_tif
  70
32
  10
489022.816
  20
4634102.288
  30
1099.097
  0
VERTEX
  8
PNOA-H_AMS_1956-57_33k_ES_PAN_21mic_H50_0316_fot_32B-39539_W_tif
  70
32
  10
488678.000
  20
4633971.000
  30
1098.53
  0
VERTEX
  8
PNOA-H_AMS_1956-57_33k_ES_PAN_21mic_H50_0316_fot_32B-39539_W_tif
  70
32
  10
488674.398
  20
4633970.100
  30
1098.932
  0
VERTEX
  8
PNOA-H_AMS_1956-57_33k_ES_PAN_21mic_H50_0316_fot_32B-39539_W_tif
  70
32
  10
488670.736
  20
4633969.184
  30
1099.342
  0
SEQEND
  8
PNOA-H_AMS_1956-57_33k_ES_PAN_21mic_H50_0316_fot_32B-39539_W_tif
  0
INSERT
  8
FeatureAttribs
  2
FEATURE
  41
1
  42
1
  43
1
  50
0
  10
487275.731
  20
4632823.677
 66
1
  0
ATTRIB
  8
FeatureAttribs
 70
0
  1
PNOA-H_AMS_1956-57_33k_ES_PAN_21mic_H50_0316_fot_33B-38716_E.tif
  2
NAME
  10
487275.731
  20
4632823.677
 40
33.30316
  0
SEQEND
  0
POLYLINE
  8
PNOA-H_AMS_1956-57_33k_ES_PAN_21mic_H50_0316_fot_33B-38716_E_tif
  70
9
  66
1
  0
VERTEX
  8
PNOA-H_AMS_1956-57_33k_ES_PAN_21mic_H50_0316_fot_33B-38716_E_tif
  70
32
  10
488671.500
  20
4633969.000
  30
1099.255
  0
VERTEX
  8
PNOA-H_AMS_1956-57_33k_ES_PAN_21mic_H50_0316_fot_33B-38716_E_tif
  70
32
  10
488652.765
  20
4631280.855
  30
1053.484
  0
VERTEX
  8
PNOA-H_AMS_1956-57_33k_ES_PAN_21mic_H50_0316_fot_33B-38716_E_tif
  70
32
  10
487890.964
  20
4631281.963
  30
0
  0
VERTEX
  8
PNOA-H_AMS_1956-57_33k_ES_PAN_21mic_H50_0316_fot_33B-38716_E_tif
  70
32
  10
485920.347
  20
4631285.787
  30
0
  0
VERTEX
  8
PNOA-H_AMS_1956-57_33k_ES_PAN_21mic_H50_0316_fot_33B-38716_E_tif
  70
32
  10
485920.100
  20
4631285.787
  30
1142.245
  0
VERTEX
  8
PNOA-H_AMS_1956-57_33k_ES_PAN_21mic_H50_0316_fot_33B-38716_E_tif
  70
32
  10
485866.773
  20
4633836.311
  30
1122.271
  0
VERTEX
  8
PNOA-H_AMS_1956-57_33k_ES_PAN_21mic_H50_0316_fot_33B-38716_E_tif
  70
32
  10
485864.510
  20
4633944.504
  30
1121.423
  0
VERTEX
  8
PNOA-H_AMS_1956-57_33k_ES_PAN_21mic_H50_0316_fot_33B-38716_E_tif
  70
32
  10
485864.500
  20
4633945.000
  30
1121.419
  0
VERTEX
  8
PNOA-H_AMS_1956-57_33k_ES_PAN_21mic_H50_0316_fot_33B-38716_E_tif
  70
32
  10
487017.500
  20
4634366.000
  30
1076.974
  0
VERTEX
  8
PNOA-H_AMS_1956-57_33k_ES_PAN_21mic_H50_0316_fot_33B-38716_E_tif
  70
32
  10
487019.000
  20
4634366.500
  30
1076.815
  0
VERTEX
  8
PNOA-H_AMS_1956-57_33k_ES_PAN_21mic_H50_0316_fot_33B-38716_E_tif
  70
32
  10
487020.117
  20
4634366.360
  30
1076.706
  0
VERTEX
  8
PNOA-H_AMS_1956-57_33k_ES_PAN_21mic_H50_0316_fot_33B-38716_E_tif
  70
32
  10
487022.117
  20
4634366.110
  30
1076.512
  0
VERTEX
  8
PNOA-H_AMS_1956-57_33k_ES_PAN_21mic_H50_0316_fot_33B-38716_E_tif
  70
32
  10
487027.000
  20
4634365.500
  30
1076.037
  0
VERTEX
  8
PNOA-H_AMS_1956-57_33k_ES_PAN_21mic_H50_0316_fot_33B-38716_E_tif
  70
32
  10
488670.736
  20
4633969.184
  30
1099.244
  0
VERTEX
  8
PNOA-H_AMS_1956-57_33k_ES_PAN_21mic_H50_0316_fot_33B-38716_E_tif
  70
32
  10
488671.500
  20
4633969.000
  30
1099.255
  0
SEQEND
  8
PNOA-H_AMS_1956-57_33k_ES_PAN_21mic_H50_0316_fot_33B-38716_E_tif
  0
ENDSEC
  0
EOF
