  0
SECTION
  2
HEADER
  9
$ACADVER
  1
AC1009
  9
$LUNITS
  70
2
  9
$LIMMIN
  10
374375.917
  20
4668963.715
  9
$LIMMAX
  10
402168.339
  20
4687906.908
  9
$EXTMIN
  10
374375.917
  20
4668963.715
  9
$EXTMAX
  10
402168.339
  20
4687906.908
  999
Created by Global Mapper
  999
Projection: UTM
  999
Datum: ETRS89
  999
Ground Units: meters
  999
ZONE: 30
  0
ENDSEC
  0
SECTION
  2
TABLES
  0
ENDSEC
  0
SECTION
  2
BLOCKS
  0
BLOCK
  8
FeatureAttribs
  70
0
  2
FEATURE
  3
FEATURE
  10
0.00000000
  20
0.00000000
  0
ATTDEF
  8
FeatureAttribs
  70
0
  1
 
  2
NAME
  3
NAME
  10
0.00000000
  20
0.00000000
  40
1.00000000
  0
ENDBLK
  0
ENDSEC
  0
SECTION
  2
ENTITIES
  0
POLYLINE
  8
Unknown_Area_Type
  70
1
  66
1
  0
VERTEX
  8
Unknown_Area_Type
  10
377289.992
  20
4670598.586
  0
VERTEX
  8
Unknown_Area_Type
  10
377289.500
  20
4670598.500
  0
VERTEX
  8
Unknown_Area_Type
  10
377289.491
  20
4670598.505
  0
VERTEX
  8
Unknown_Area_Type
  10
376789.840
  20
4670846.826
  0
VERTEX
  8
Unknown_Area_Type
  10
376542.000
  20
4670970.000
  0
VERTEX
  8
Unknown_Area_Type
  10
376593.632
  20
4673800.000
  0
VERTEX
  8
Unknown_Area_Type
  10
376599.653
  20
4674130.000
  0
VERTEX
  8
Unknown_Area_Type
  10
376616.000
  20
4675026.000
  0
VERTEX
  8
Unknown_Area_Type
  10
377077.617
  20
4675114.012
  0
VERTEX
  8
Unknown_Area_Type
  10
378168.500
  20
4675322.000
  0
VERTEX
  8
Unknown_Area_Type
  10
378171.000
  20
4675322.500
  0
VERTEX
  8
Unknown_Area_Type
  10
378363.303
  20
4675358.611
  0
VERTEX
  8
Unknown_Area_Type
  10
378391.296
  20
4675363.868
  0
VERTEX
  8
Unknown_Area_Type
  10
378392.000
  20
4675364.000
  0
VERTEX
  8
Unknown_Area_Type
  10
379358.862
  20
4674932.562
  0
VERTEX
  8
Unknown_Area_Type
  10
379359.000
  20
4674932.500
  0
VERTEX
  8
Unknown_Area_Type
  10
379345.536
  20
4674130.000
  0
VERTEX
  8
Unknown_Area_Type
  10
379339.999
  20
4673800.000
  0
VERTEX
  8
Unknown_Area_Type
  10
379292.500
  20
4670969.000
  0
VERTEX
  8
Unknown_Area_Type
  10
379292.000
  20
4670950.000
  0
VERTEX
  8
Unknown_Area_Type
  10
379290.000
  20
4670949.500
  0
VERTEX
  8
Unknown_Area_Type
  10
377289.992
  20
4670598.586
  0
SEQEND
  8
Unknown_Area_Type
  0
POLYLINE
  8
Unknown_Area_Type
  70
1
  66
1
  0
VERTEX
  8
Unknown_Area_Type
  10
380002.296
  20
4670600.600
  0
VERTEX
  8
Unknown_Area_Type
  10
380001.500
  20
4670600.500
  0
VERTEX
  8
Unknown_Area_Type
  10
379292.000
  20
4670950.000
  0
VERTEX
  8
Unknown_Area_Type
  10
379339.947
  20
4673800.000
  0
VERTEX
  8
Unknown_Area_Type
  10
379345.499
  20
4674130.000
  0
VERTEX
  8
Unknown_Area_Type
  10
379359.000
  20
4674932.500
  0
VERTEX
  8
Unknown_Area_Type
  10
379359.659
  20
4674932.618
  0
VERTEX
  8
Unknown_Area_Type
  10
381230.000
  20
4675269.101
  0
VERTEX
  8
Unknown_Area_Type
  10
381235.000
  20
4675270.000
  0
VERTEX
  8
Unknown_Area_Type
  10
381237.500
  20
4675270.500
  0
VERTEX
  8
Unknown_Area_Type
  10
381237.789
  20
4675270.372
  0
VERTEX
  8
Unknown_Area_Type
  10
381520.000
  20
4675145.507
  0
VERTEX
  8
Unknown_Area_Type
  10
381851.528
  20
4674998.821
  0
VERTEX
  8
Unknown_Area_Type
  10
382158.348
  20
4674863.067
  0
VERTEX
  8
Unknown_Area_Type
  10
382158.500
  20
4674863.000
  0
VERTEX
  8
Unknown_Area_Type
  10
382150.494
  20
4674010.000
  0
VERTEX
  8
Unknown_Area_Type
  10
382147.491
  20
4673690.000
  0
VERTEX
  8
Unknown_Area_Type
  10
382121.000
  20
4670867.500
  0
VERTEX
  8
Unknown_Area_Type
  10
381440.000
  20
4670781.712
  0
VERTEX
  8
Unknown_Area_Type
  10
381150.000
  20
4670745.180
  0
VERTEX
  8
Unknown_Area_Type
  10
380421.965
  20
4670653.467
  0
VERTEX
  8
Unknown_Area_Type
  10
380002.296
  20
4670600.600
  0
SEQEND
  8
Unknown_Area_Type
  0
POLYLINE
  8
Unknown_Area_Type
  70
1
  66
1
  0
VERTEX
  8
Unknown_Area_Type
  10
374591.960
  20
4679418.819
  0
VERTEX
  8
Unknown_Area_Type
  10
374554.087
  20
4679388.748
  0
VERTEX
  8
Unknown_Area_Type
  10
374554.089
  20
4679388.870
  0
VERTEX
  8
Unknown_Area_Type
  10
374582.266
  20
4680967.003
  0
VERTEX
  8
Unknown_Area_Type
  10
374623.586
  20
4683280.297
  0
VERTEX
  8
Unknown_Area_Type
  10
374637.937
  20
4684083.378
  0
VERTEX
  8
Unknown_Area_Type
  10
374637.943
  20
4684083.746
  0
VERTEX
  8
Unknown_Area_Type
  10
374744.815
  20
4684023.883
  0
VERTEX
  8
Unknown_Area_Type
  10
374745.500
  20
4684023.500
  0
VERTEX
  8
Unknown_Area_Type
  10
374736.833
  20
4683390.000
  0
VERTEX
  8
Unknown_Area_Type
  10
374733.961
  20
4683180.000
  0
VERTEX
  8
Unknown_Area_Type
  10
374732.319
  20
4683060.000
  0
VERTEX
  8
Unknown_Area_Type
  10
374730.000
  20
4682890.500
  0
VERTEX
  8
Unknown_Area_Type
  10
374683.500
  20
4679491.500
  0
VERTEX
  8
Unknown_Area_Type
  10
374591.960
  20
4679418.819
  0
SEQEND
  8
Unknown_Area_Type
  0
POLYLINE
  8
Unknown_Area_Type
  70
1
  66
1
  0
VERTEX
  8
Unknown_Area_Type
  10
382598.420
  20
4670608.543
  0
VERTEX
  8
Unknown_Area_Type
  10
382598.000
  20
4670608.500
  0
VERTEX
  8
Unknown_Area_Type
  10
382121.000
  20
4670867.500
  0
VERTEX
  8
Unknown_Area_Type
  10
382147.491
  20
4673690.000
  0
VERTEX
  8
Unknown_Area_Type
  10
382150.494
  20
4674010.000
  0
VERTEX
  8
Unknown_Area_Type
  10
382158.500
  20
4674863.000
  0
VERTEX
  8
Unknown_Area_Type
  10
382202.472
  20
4674871.585
  0
VERTEX
  8
Unknown_Area_Type
  10
382263.500
  20
4674883.500
  0
VERTEX
  8
Unknown_Area_Type
  10
382266.000
  20
4674884.000
  0
VERTEX
  8
Unknown_Area_Type
  10
384041.812
  20
4675226.771
  0
VERTEX
  8
Unknown_Area_Type
  10
384042.658
  20
4675226.934
  0
VERTEX
  8
Unknown_Area_Type
  10
384043.000
  20
4675227.000
  0
VERTEX
  8
Unknown_Area_Type
  10
384946.337
  20
4674848.068
  0
VERTEX
  8
Unknown_Area_Type
  10
384946.500
  20
4674848.000
  0
VERTEX
  8
Unknown_Area_Type
  10
384941.261
  20
4674010.000
  0
VERTEX
  8
Unknown_Area_Type
  10
384939.260
  20
4673690.000
  0
VERTEX
  8
Unknown_Area_Type
  10
384921.500
  20
4670849.500
  0
VERTEX
  8
Unknown_Area_Type
  10
384919.500
  20
4670849.000
  0
VERTEX
  8
Unknown_Area_Type
  10
382830.107
  20
4670632.545
  0
VERTEX
  8
Unknown_Area_Type
  10
382598.420
  20
4670608.543
  0
SEQEND
  8
Unknown_Area_Type
  0
POLYLINE
  8
Unknown_Area_Type
  70
1
  66
1
  0
VERTEX
  8
Unknown_Area_Type
  10
387059.518
  20
4670801.740
  0
VERTEX
  8
Unknown_Area_Type
  10
385293.000
  20
4670642.000
  0
VERTEX
  8
Unknown_Area_Type
  10
385292.473
  20
4670642.088
  0
VERTEX
  8
Unknown_Area_Type
  10
385290.866
  20
4670642.356
  0
VERTEX
  8
Unknown_Area_Type
  10
385290.000
  20
4670642.500
  0
VERTEX
  8
Unknown_Area_Type
  10
384921.500
  20
4670849.000
  0
VERTEX
  8
Unknown_Area_Type
  10
384921.503
  20
4670849.498
  0
VERTEX
  8
Unknown_Area_Type
  10
384939.260
  20
4673690.000
  0
VERTEX
  8
Unknown_Area_Type
  10
384941.261
  20
4674010.000
  0
VERTEX
  8
Unknown_Area_Type
  10
384946.500
  20
4674848.000
  0
VERTEX
  8
Unknown_Area_Type
  10
385526.083
  20
4674965.260
  0
VERTEX
  8
Unknown_Area_Type
  10
386716.000
  20
4675206.000
  0
VERTEX
  8
Unknown_Area_Type
  10
386718.500
  20
4675206.500
  0
VERTEX
  8
Unknown_Area_Type
  10
386718.842
  20
4675206.367
  0
VERTEX
  8
Unknown_Area_Type
  10
387327.876
  20
4674969.863
  0
VERTEX
  8
Unknown_Area_Type
  10
387806.500
  20
4674784.000
  0
VERTEX
  8
Unknown_Area_Type
  10
387806.488
  20
4674783.699
  0
VERTEX
  8
Unknown_Area_Type
  10
387775.374
  20
4674010.000
  0
VERTEX
  8
Unknown_Area_Type
  10
387762.506
  20
4673690.000
  0
VERTEX
  8
Unknown_Area_Type
  10
387648.500
  20
4670855.000
  0
VERTEX
  8
Unknown_Area_Type
  10
387059.518
  20
4670801.740
  0
SEQEND
  8
Unknown_Area_Type
  0
POLYLINE
  8
Unknown_Area_Type
  70
1
  66
1
  0
VERTEX
  8
Unknown_Area_Type
  10
390883.937
  20
4670590.039
  0
VERTEX
  8
Unknown_Area_Type
  10
390883.500
  20
4670590.000
  0
VERTEX
  8
Unknown_Area_Type
  10
390544.500
  20
4670797.500
  0
VERTEX
  8
Unknown_Area_Type
  10
390544.499
  20
4670798.000
  0
VERTEX
  8
Unknown_Area_Type
  10
390544.303
  20
4670853.608
  0
VERTEX
  8
Unknown_Area_Type
  10
390534.745
  20
4673580.000
  0
VERTEX
  8
Unknown_Area_Type
  10
390533.624
  20
4673900.000
  0
VERTEX
  8
Unknown_Area_Type
  10
390530.500
  20
4674791.000
  0
VERTEX
  8
Unknown_Area_Type
  10
390531.132
  20
4674791.142
  0
VERTEX
  8
Unknown_Area_Type
  10
392314.500
  20
4675192.500
  0
VERTEX
  8
Unknown_Area_Type
  10
392316.500
  20
4675192.500
  0
VERTEX
  8
Unknown_Area_Type
  10
392318.000
  20
4675192.500
  0
VERTEX
  8
Unknown_Area_Type
  10
392325.000
  20
4675190.000
  0
VERTEX
  8
Unknown_Area_Type
  10
392506.000
  20
4675122.500
  0
VERTEX
  8
Unknown_Area_Type
  10
392508.000
  20
4675122.000
  0
VERTEX
  8
Unknown_Area_Type
  10
393406.003
  20
4674790.399
  0
VERTEX
  8
Unknown_Area_Type
  10
393412.500
  20
4674788.000
  0
VERTEX
  8
Unknown_Area_Type
  10
393387.094
  20
4673900.000
  0
VERTEX
  8
Unknown_Area_Type
  10
393377.938
  20
4673580.000
  0
VERTEX
  8
Unknown_Area_Type
  10
393298.500
  20
4670803.500
  0
VERTEX
  8
Unknown_Area_Type
  10
390883.937
  20
4670590.039
  0
SEQEND
  8
Unknown_Area_Type
  0
POLYLINE
  8
Unknown_Area_Type
  70
1
  66
1
  0
VERTEX
  8
Unknown_Area_Type
  10
374527.777
  20
4670680.612
  0
VERTEX
  8
Unknown_Area_Type
  10
374527.000
  20
4670680.500
  0
VERTEX
  8
Unknown_Area_Type
  10
374399.863
  20
4670743.984
  0
VERTEX
  8
Unknown_Area_Type
  10
374399.872
  20
4670744.479
  0
VERTEX
  8
Unknown_Area_Type
  10
374417.153
  20
4671713.907
  0
VERTEX
  8
Unknown_Area_Type
  10
374458.407
  20
4674027.169
  0
VERTEX
  8
Unknown_Area_Type
  10
374491.319
  20
4675871.962
  0
VERTEX
  8
Unknown_Area_Type
  10
374491.330
  20
4675872.601
  0
VERTEX
  8
Unknown_Area_Type
  10
374650.000
  20
4675809.377
  0
VERTEX
  8
Unknown_Area_Type
  10
376615.677
  20
4675026.129
  0
VERTEX
  8
Unknown_Area_Type
  10
376616.000
  20
4675026.000
  0
VERTEX
  8
Unknown_Area_Type
  10
376599.653
  20
4674130.000
  0
VERTEX
  8
Unknown_Area_Type
  10
376593.632
  20
4673800.000
  0
VERTEX
  8
Unknown_Area_Type
  10
376542.000
  20
4670970.000
  0
VERTEX
  8
Unknown_Area_Type
  10
376541.612
  20
4670969.944
  0
VERTEX
  8
Unknown_Area_Type
  10
375850.501
  20
4670870.651
  0
VERTEX
  8
Unknown_Area_Type
  10
374560.000
  20
4670685.241
  0
VERTEX
  8
Unknown_Area_Type
  10
374527.777
  20
4670680.612
  0
SEQEND
  8
Unknown_Area_Type
  0
POLYLINE
  8
Unknown_Area_Type
  70
1
  66
1
  0
VERTEX
  8
Unknown_Area_Type
  10
393752.342
  20
4670518.599
  0
VERTEX
  8
Unknown_Area_Type
  10
393751.500
  20
4670518.500
  0
VERTEX
  8
Unknown_Area_Type
  10
393298.562
  20
4670803.461
  0
VERTEX
  8
Unknown_Area_Type
  10
393298.500
  20
4670803.500
  0
VERTEX
  8
Unknown_Area_Type
  10
393377.938
  20
4673580.000
  0
VERTEX
  8
Unknown_Area_Type
  10
393387.094
  20
4673900.000
  0
VERTEX
  8
Unknown_Area_Type
  10
393412.500
  20
4674788.000
  0
VERTEX
  8
Unknown_Area_Type
  10
393413.342
  20
4674788.198
  0
VERTEX
  8
Unknown_Area_Type
  10
394990.000
  20
4675158.365
  0
VERTEX
  8
Unknown_Area_Type
  10
395071.500
  20
4675177.500
  0
VERTEX
  8
Unknown_Area_Type
  10
395073.500
  20
4675178.000
  0
VERTEX
  8
Unknown_Area_Type
  10
395076.000
  20
4675178.000
  0
VERTEX
  8
Unknown_Area_Type
  10
395077.500
  20
4675178.000
  0
VERTEX
  8
Unknown_Area_Type
  10
395088.000
  20
4675174.500
  0
VERTEX
  8
Unknown_Area_Type
  10
395270.000
  20
4675112.541
  0
VERTEX
  8
Unknown_Area_Type
  10
396144.000
  20
4674815.000
  0
VERTEX
  8
Unknown_Area_Type
  10
396143.617
  20
4673790.000
  0
VERTEX
  8
Unknown_Area_Type
  10
396143.505
  20
4673490.000
  0
VERTEX
  8
Unknown_Area_Type
  10
396142.500
  20
4670800.500
  0
VERTEX
  8
Unknown_Area_Type
  10
395200.000
  20
4670689.339
  0
VERTEX
  8
Unknown_Area_Type
  10
394920.000
  20
4670656.316
  0
VERTEX
  8
Unknown_Area_Type
  10
394229.751
  20
4670574.906
  0
VERTEX
  8
Unknown_Area_Type
  10
393752.342
  20
4670518.599
  0
SEQEND
  8
Unknown_Area_Type
  0
POLYLINE
  8
Unknown_Area_Type
  70
1
  66
1
  0
VERTEX
  8
Unknown_Area_Type
  10
388094.437
  20
4670581.539
  0
VERTEX
  8
Unknown_Area_Type
  10
388094.000
  20
4670581.500
  0
VERTEX
  8
Unknown_Area_Type
  10
388040.000
  20
4670614.651
  0
VERTEX
  8
Unknown_Area_Type
  10
387648.564
  20
4670854.961
  0
VERTEX
  8
Unknown_Area_Type
  10
387648.500
  20
4670855.000
  0
VERTEX
  8
Unknown_Area_Type
  10
387762.521
  20
4673690.000
  0
VERTEX
  8
Unknown_Area_Type
  10
387775.391
  20
4674010.000
  0
VERTEX
  8
Unknown_Area_Type
  10
387806.500
  20
4674783.500
  0
VERTEX
  8
Unknown_Area_Type
  10
387806.810
  20
4674783.574
  0
VERTEX
  8
Unknown_Area_Type
  10
388110.000
  20
4674856.038
  0
VERTEX
  8
Unknown_Area_Type
  10
388400.000
  20
4674925.349
  0
VERTEX
  8
Unknown_Area_Type
  10
388409.000
  20
4674927.500
  0
VERTEX
  8
Unknown_Area_Type
  10
388411.000
  20
4674928.000
  0
VERTEX
  8
Unknown_Area_Type
  10
389303.599
  20
4675140.232
  0
VERTEX
  8
Unknown_Area_Type
  10
389504.464
  20
4675187.991
  0
VERTEX
  8
Unknown_Area_Type
  10
389504.500
  20
4675188.000
  0
VERTEX
  8
Unknown_Area_Type
  10
390083.457
  20
4674963.979
  0
VERTEX
  8
Unknown_Area_Type
  10
390530.500
  20
4674791.000
  0
VERTEX
  8
Unknown_Area_Type
  10
390533.698
  20
4673900.000
  0
VERTEX
  8
Unknown_Area_Type
  10
390534.846
  20
4673580.000
  0
VERTEX
  8
Unknown_Area_Type
  10
390544.500
  20
4670890.000
  0
VERTEX
  8
Unknown_Area_Type
  10
390544.303
  20
4670853.608
  0
VERTEX
  8
Unknown_Area_Type
  10
390544.002
  20
4670797.956
  0
VERTEX
  8
Unknown_Area_Type
  10
390544.000
  20
4670797.500
  0
VERTEX
  8
Unknown_Area_Type
  10
388320.000
  20
4670601.425
  0
VERTEX
  8
Unknown_Area_Type
  10
388147.347
  20
4670586.203
  0
VERTEX
  8
Unknown_Area_Type
  10
388094.437
  20
4670581.539
  0
SEQEND
  8
Unknown_Area_Type
  0
POLYLINE
  8
Unknown_Area_Type
  70
1
  66
1
  0
VERTEX
  8
Unknown_Area_Type
  10
377640.872
  20
4683958.569
  0
VERTEX
  8
Unknown_Area_Type
  10
377640.500
  20
4683958.500
  0
VERTEX
  8
Unknown_Area_Type
  10
376852.500
  20
4684383.000
  0
VERTEX
  8
Unknown_Area_Type
  10
376922.792
  20
4687680.000
  0
VERTEX
  8
Unknown_Area_Type
  10
376926.795
  20
4687867.750
  0
VERTEX
  8
Unknown_Area_Type
  10
376927.258
  20
4687867.741
  0
VERTEX
  8
Unknown_Area_Type
  10
378139.054
  20
4687846.372
  0
VERTEX
  8
Unknown_Area_Type
  10
379821.004
  20
4687817.535
  0
VERTEX
  8
Unknown_Area_Type
  10
379821.407
  20
4687817.528
  0
VERTEX
  8
Unknown_Area_Type
  10
379810.841
  20
4687680.000
  0
VERTEX
  8
Unknown_Area_Type
  10
379700.954
  20
4686249.739
  0
VERTEX
  8
Unknown_Area_Type
  10
379552.032
  20
4684311.414
  0
VERTEX
  8
Unknown_Area_Type
  10
379552.000
  20
4684311.000
  0
VERTEX
  8
Unknown_Area_Type
  10
377794.856
  20
4683986.965
  0
VERTEX
  8
Unknown_Area_Type
  10
377640.872
  20
4683958.569
  0
SEQEND
  8
Unknown_Area_Type
  0
POLYLINE
  8
Unknown_Area_Type
  70
1
  66
1
  0
VERTEX
  8
Unknown_Area_Type
  10
396582.923
  20
4670541.046
  0
VERTEX
  8
Unknown_Area_Type
  10
396582.500
  20
4670541.000
  0
VERTEX
  8
Unknown_Area_Type
  10
396142.500
  20
4670800.500
  0
VERTEX
  8
Unknown_Area_Type
  10
396143.505
  20
4673490.000
  0
VERTEX
  8
Unknown_Area_Type
  10
396143.617
  20
4673790.000
  0
VERTEX
  8
Unknown_Area_Type
  10
396144.000
  20
4674815.000
  0
VERTEX
  8
Unknown_Area_Type
  10
396144.000
  20
4674815.500
  0
VERTEX
  8
Unknown_Area_Type
  10
396601.500
  20
4674924.500
  0
VERTEX
  8
Unknown_Area_Type
  10
396603.500
  20
4674925.000
  0
VERTEX
  8
Unknown_Area_Type
  10
397675.000
  20
4675180.500
  0
VERTEX
  8
Unknown_Area_Type
  10
397680.509
  20
4675181.287
  0
VERTEX
  8
Unknown_Area_Type
  10
397684.140
  20
4675181.806
  0
VERTEX
  8
Unknown_Area_Type
  10
397685.500
  20
4675182.000
  0
VERTEX
  8
Unknown_Area_Type
  10
398551.833
  20
4674918.667
  0
VERTEX
  8
Unknown_Area_Type
  10
398985.000
  20
4674787.000
  0
VERTEX
  8
Unknown_Area_Type
  10
398969.875
  20
4673790.000
  0
VERTEX
  8
Unknown_Area_Type
  10
398965.324
  20
4673490.000
  0
VERTEX
  8
Unknown_Area_Type
  10
398924.500
  20
4670799.000
  0
VERTEX
  8
Unknown_Area_Type
  10
398924.033
  20
4670796.665
  0
VERTEX
  8
Unknown_Area_Type
  10
398923.580
  20
4670794.401
  0
VERTEX
  8
Unknown_Area_Type
  10
398923.500
  20
4670794.000
  0
VERTEX
  8
Unknown_Area_Type
  10
396585.579
  20
4670541.333
  0
VERTEX
  8
Unknown_Area_Type
  10
396582.923
  20
4670541.046
  0
SEQEND
  8
Unknown_Area_Type
  0
POLYLINE
  8
Unknown_Area_Type
  70
1
  66
1
  0
VERTEX
  8
Unknown_Area_Type
  10
374810.000
  20
4684034.174
  0
VERTEX
  8
Unknown_Area_Type
  10
374747.500
  20
4684023.500
  0
VERTEX
  8
Unknown_Area_Type
  10
374746.411
  20
4684023.656
  0
VERTEX
  8
Unknown_Area_Type
  10
374744.815
  20
4684023.883
  0
VERTEX
  8
Unknown_Area_Type
  10
374744.000
  20
4684024.000
  0
VERTEX
  8
Unknown_Area_Type
  10
374637.937
  20
4684083.378
  0
VERTEX
  8
Unknown_Area_Type
  10
374637.943
  20
4684083.746
  0
VERTEX
  8
Unknown_Area_Type
  10
374664.923
  20
4685593.599
  0
VERTEX
  8
Unknown_Area_Type
  10
374706.276
  20
4687906.908
  0
VERTEX
  8
Unknown_Area_Type
  10
376926.795
  20
4687867.750
  0
VERTEX
  8
Unknown_Area_Type
  10
376927.258
  20
4687867.741
  0
VERTEX
  8
Unknown_Area_Type
  10
376923.230
  20
4687680.000
  0
VERTEX
  8
Unknown_Area_Type
  10
376852.500
  20
4684383.000
  0
VERTEX
  8
Unknown_Area_Type
  10
374810.000
  20
4684034.174
  0
SEQEND
  8
Unknown_Area_Type
  0
POLYLINE
  8
Unknown_Area_Type
  70
1
  66
1
  0
VERTEX
  8
Unknown_Area_Type
  10
385211.896
  20
4684092.868
  0
VERTEX
  8
Unknown_Area_Type
  10
383348.000
  20
4683685.000
  0
VERTEX
  8
Unknown_Area_Type
  10
383346.342
  20
4683685.184
  0
VERTEX
  8
Unknown_Area_Type
  10
383344.835
  20
4683685.352
  0
VERTEX
  8
Unknown_Area_Type
  10
383343.500
  20
4683685.500
  0
VERTEX
  8
Unknown_Area_Type
  10
382414.000
  20
4684177.500
  0
VERTEX
  8
Unknown_Area_Type
  10
382535.528
  20
4687570.000
  0
VERTEX
  8
Unknown_Area_Type
  10
382542.740
  20
4687771.348
  0
VERTEX
  8
Unknown_Area_Type
  10
385004.592
  20
4687730.347
  0
VERTEX
  8
Unknown_Area_Type
  10
385383.833
  20
4687724.216
  0
VERTEX
  8
Unknown_Area_Type
  10
385384.285
  20
4687724.209
  0
VERTEX
  8
Unknown_Area_Type
  10
385376.990
  20
4687570.000
  0
VERTEX
  8
Unknown_Area_Type
  10
385212.500
  20
4684093.000
  0
VERTEX
  8
Unknown_Area_Type
  10
385211.896
  20
4684092.868
  0
SEQEND
  8
Unknown_Area_Type
  0
POLYLINE
  8
Unknown_Area_Type
  70
1
  66
1
  0
VERTEX
  8
Unknown_Area_Type
  10
386247.799
  20
4683545.107
  0
VERTEX
  8
Unknown_Area_Type
  10
386247.000
  20
4683545.000
  0
VERTEX
  8
Unknown_Area_Type
  10
385214.197
  20
4684092.101
  0
VERTEX
  8
Unknown_Area_Type
  10
385212.500
  20
4684093.000
  0
VERTEX
  8
Unknown_Area_Type
  10
385376.557
  20
4687570.000
  0
VERTEX
  8
Unknown_Area_Type
  10
385383.833
  20
4687724.216
  0
VERTEX
  8
Unknown_Area_Type
  10
385384.285
  20
4687724.209
  0
VERTEX
  8
Unknown_Area_Type
  10
388243.588
  20
4687677.989
  0
VERTEX
  8
Unknown_Area_Type
  10
388243.800
  20
4687677.986
  0
VERTEX
  8
Unknown_Area_Type
  10
388237.720
  20
4687570.000
  0
VERTEX
  8
Unknown_Area_Type
  10
388036.500
  20
4683996.500
  0
VERTEX
  8
Unknown_Area_Type
  10
388035.348
  20
4683977.678
  0
VERTEX
  8
Unknown_Area_Type
  10
388035.000
  20
4683972.000
  0
VERTEX
  8
Unknown_Area_Type
  10
388034.000
  20
4683971.500
  0
VERTEX
  8
Unknown_Area_Type
  10
386254.500
  20
4683546.000
  0
VERTEX
  8
Unknown_Area_Type
  10
386249.262
  20
4683545.302
  0
VERTEX
  8
Unknown_Area_Type
  10
386247.799
  20
4683545.107
  0
SEQEND
  8
Unknown_Area_Type
  0
POLYLINE
  8
Unknown_Area_Type
  70
1
  66
1
  0
VERTEX
  8
Unknown_Area_Type
  10
381390.000
  20
4683970.329
  0
VERTEX
  8
Unknown_Area_Type
  10
380513.500
  20
4683793.000
  0
VERTEX
  8
Unknown_Area_Type
  10
380513.481
  20
4683793.010
  0
VERTEX
  8
Unknown_Area_Type
  10
379552.500
  20
4684311.000
  0
VERTEX
  8
Unknown_Area_Type
  10
379552.537
  20
4684311.480
  0
VERTEX
  8
Unknown_Area_Type
  10
379700.954
  20
4686249.739
  0
VERTEX
  8
Unknown_Area_Type
  10
379810.472
  20
4687680.000
  0
VERTEX
  8
Unknown_Area_Type
  10
379821.004
  20
4687817.535
  0
VERTEX
  8
Unknown_Area_Type
  10
379821.407
  20
4687817.528
  0
VERTEX
  8
Unknown_Area_Type
  10
381571.826
  20
4687787.518
  0
VERTEX
  8
Unknown_Area_Type
  10
382542.740
  20
4687771.348
  0
VERTEX
  8
Unknown_Area_Type
  10
382535.528
  20
4687570.000
  0
VERTEX
  8
Unknown_Area_Type
  10
382414.000
  20
4684177.500
  0
VERTEX
  8
Unknown_Area_Type
  10
381680.000
  20
4684029.001
  0
VERTEX
  8
Unknown_Area_Type
  10
381390.000
  20
4683970.329
  0
SEQEND
  8
Unknown_Area_Type
  0
POLYLINE
  8
Unknown_Area_Type
  70
1
  66
1
  0
VERTEX
  8
Unknown_Area_Type
  10
394116.045
  20
4683634.002
  0
VERTEX
  8
Unknown_Area_Type
  10
394116.000
  20
4683634.000
  0
VERTEX
  8
Unknown_Area_Type
  10
393712.000
  20
4683815.500
  0
VERTEX
  8
Unknown_Area_Type
  10
393727.500
  20
4685542.158
  0
VERTEX
  8
Unknown_Area_Type
  10
393744.716
  20
4687460.000
  0
VERTEX
  8
Unknown_Area_Type
  10
393745.906
  20
4687592.567
  0
VERTEX
  8
Unknown_Area_Type
  10
395302.856
  20
4687568.926
  0
VERTEX
  8
Unknown_Area_Type
  10
396506.208
  20
4687551.243
  0
VERTEX
  8
Unknown_Area_Type
  10
396506.244
  20
4687551.242
  0
VERTEX
  8
Unknown_Area_Type
  10
396505.300
  20
4687360.000
  0
VERTEX
  8
Unknown_Area_Type
  10
396487.500
  20
4683753.500
  0
VERTEX
  8
Unknown_Area_Type
  10
396487.000
  20
4683737.500
  0
VERTEX
  8
Unknown_Area_Type
  10
396459.885
  20
4683730.434
  0
VERTEX
  8
Unknown_Area_Type
  10
396404.500
  20
4683716.000
  0
VERTEX
  8
Unknown_Area_Type
  10
396394.500
  20
4683713.500
  0
VERTEX
  8
Unknown_Area_Type
  10
396394.335
  20
4683713.494
  0
VERTEX
  8
Unknown_Area_Type
  10
396381.000
  20
4683713.000
  0
VERTEX
  8
Unknown_Area_Type
  10
395410.000
  20
4683679.133
  0
VERTEX
  8
Unknown_Area_Type
  10
395130.000
  20
4683669.367
  0
VERTEX
  8
Unknown_Area_Type
  10
394116.045
  20
4683634.002
  0
SEQEND
  8
Unknown_Area_Type
  0
POLYLINE
  8
Unknown_Area_Type
  70
1
  66
1
  0
VERTEX
  8
Unknown_Area_Type
  10
393712.000
  20
4683815.500
  0
VERTEX
  8
Unknown_Area_Type
  10
391988.000
  20
4683386.500
  0
VERTEX
  8
Unknown_Area_Type
  10
391987.982
  20
4683386.508
  0
VERTEX
  8
Unknown_Area_Type
  10
390975.500
  20
4683861.000
  0
VERTEX
  8
Unknown_Area_Type
  10
390905.827
  20
4687460.000
  0
VERTEX
  8
Unknown_Area_Type
  10
390902.416
  20
4687636.219
  0
VERTEX
  8
Unknown_Area_Type
  10
390902.599
  20
4687636.216
  0
VERTEX
  8
Unknown_Area_Type
  10
391870.107
  20
4687621.050
  0
VERTEX
  8
Unknown_Area_Type
  10
393745.878
  20
4687592.568
  0
VERTEX
  8
Unknown_Area_Type
  10
393744.675
  20
4687460.000
  0
VERTEX
  8
Unknown_Area_Type
  10
393727.500
  20
4685567.500
  0
VERTEX
  8
Unknown_Area_Type
  10
393727.500
  20
4685542.158
  0
VERTEX
  8
Unknown_Area_Type
  10
393727.500
  20
4685522.000
  0
VERTEX
  8
Unknown_Area_Type
  10
393712.000
  20
4683815.500
  0
SEQEND
  8
Unknown_Area_Type
  0
POLYLINE
  8
Unknown_Area_Type
  70
1
  66
1
  0
VERTEX
  8
Unknown_Area_Type
  10
399400.000
  20
4670495.000
  0
VERTEX
  8
Unknown_Area_Type
  10
399399.500
  20
4670495.000
  0
VERTEX
  8
Unknown_Area_Type
  10
399386.500
  20
4670503.000
  0
VERTEX
  8
Unknown_Area_Type
  10
398924.073
  20
4670794.454
  0
VERTEX
  8
Unknown_Area_Type
  10
398924.000
  20
4670794.500
  0
VERTEX
  8
Unknown_Area_Type
  10
398924.033
  20
4670796.665
  0
VERTEX
  8
Unknown_Area_Type
  10
398965.184
  20
4673490.000
  0
VERTEX
  8
Unknown_Area_Type
  10
398969.767
  20
4673790.000
  0
VERTEX
  8
Unknown_Area_Type
  10
398985.000
  20
4674787.000
  0
VERTEX
  8
Unknown_Area_Type
  10
398985.511
  20
4674787.148
  0
VERTEX
  8
Unknown_Area_Type
  10
400242.500
  20
4675151.500
  0
VERTEX
  8
Unknown_Area_Type
  10
400244.000
  20
4675152.000
  0
VERTEX
  8
Unknown_Area_Type
  10
400244.905
  20
4675151.828
  0
VERTEX
  8
Unknown_Area_Type
  10
400249.125
  20
4675151.024
  0
VERTEX
  8
Unknown_Area_Type
  10
400254.500
  20
4675150.000
  0
VERTEX
  8
Unknown_Area_Type
  10
401990.032
  20
4674682.473
  0
VERTEX
  8
Unknown_Area_Type
  10
401990.029
  20
4674682.216
  0
VERTEX
  8
Unknown_Area_Type
  10
401974.818
  20
4673590.169
  0
VERTEX
  8
Unknown_Area_Type
  10
401942.610
  20
4671276.938
  0
VERTEX
  8
Unknown_Area_Type
  10
401935.831
  20
4670789.885
  0
VERTEX
  8
Unknown_Area_Type
  10
401935.829
  20
4670789.742
  0
VERTEX
  8
Unknown_Area_Type
  10
399403.000
  20
4670495.000
  0
VERTEX
  8
Unknown_Area_Type
  10
399400.000
  20
4670495.000
  0
SEQEND
  8
Unknown_Area_Type
  0
POLYLINE
  8
Unknown_Area_Type
  70
1
  66
1
  0
VERTEX
  8
Unknown_Area_Type
  10
374683.937
  20
4679491.555
  0
VERTEX
  8
Unknown_Area_Type
  10
374683.500
  20
4679491.500
  0
VERTEX
  8
Unknown_Area_Type
  10
374683.500
  20
4679504.000
  0
VERTEX
  8
Unknown_Area_Type
  10
374730.000
  20
4682893.625
  0
VERTEX
  8
Unknown_Area_Type
  10
374732.282
  20
4683060.000
  0
VERTEX
  8
Unknown_Area_Type
  10
374733.929
  20
4683180.000
  0
VERTEX
  8
Unknown_Area_Type
  10
374736.809
  20
4683390.000
  0
VERTEX
  8
Unknown_Area_Type
  10
374745.500
  20
4684023.500
  0
VERTEX
  8
Unknown_Area_Type
  10
374746.411
  20
4684023.656
  0
VERTEX
  8
Unknown_Area_Type
  10
374810.000
  20
4684034.521
  0
VERTEX
  8
Unknown_Area_Type
  10
376846.500
  20
4684382.500
  0
VERTEX
  8
Unknown_Area_Type
  10
376849.500
  20
4684383.000
  0
VERTEX
  8
Unknown_Area_Type
  10
376852.500
  20
4684383.000
  0
VERTEX
  8
Unknown_Area_Type
  10
376853.500
  20
4684383.000
  0
VERTEX
  8
Unknown_Area_Type
  10
377640.872
  20
4683958.569
  0
VERTEX
  8
Unknown_Area_Type
  10
377641.000
  20
4683958.500
  0
VERTEX
  8
Unknown_Area_Type
  10
377628.577
  20
4683390.000
  0
VERTEX
  8
Unknown_Area_Type
  10
377621.366
  20
4683060.000
  0
VERTEX
  8
Unknown_Area_Type
  10
377555.000
  20
4680023.000
  0
VERTEX
  8
Unknown_Area_Type
  10
374730.000
  20
4679499.870
  0
VERTEX
  8
Unknown_Area_Type
  10
374687.500
  20
4679492.000
  0
VERTEX
  8
Unknown_Area_Type
  10
374683.937
  20
4679491.555
  0
SEQEND
  8
Unknown_Area_Type
  0
POLYLINE
  8
Unknown_Area_Type
  70
1
  66
1
  0
VERTEX
  8
Unknown_Area_Type
  10
389146.836
  20
4683399.585
  0
VERTEX
  8
Unknown_Area_Type
  10
389146.500
  20
4683399.500
  0
VERTEX
  8
Unknown_Area_Type
  10
388540.000
  20
4683711.617
  0
VERTEX
  8
Unknown_Area_Type
  10
388260.000
  20
4683855.711
  0
VERTEX
  8
Unknown_Area_Type
  10
388035.000
  20
4683971.500
  0
VERTEX
  8
Unknown_Area_Type
  10
388035.027
  20
4683971.986
  0
VERTEX
  8
Unknown_Area_Type
  10
388035.348
  20
4683977.678
  0
VERTEX
  8
Unknown_Area_Type
  10
388237.511
  20
4687570.000
  0
VERTEX
  8
Unknown_Area_Type
  10
388243.588
  20
4687677.989
  0
VERTEX
  8
Unknown_Area_Type
  10
388243.800
  20
4687677.986
  0
VERTEX
  8
Unknown_Area_Type
  10
388437.352
  20
4687674.857
  0
VERTEX
  8
Unknown_Area_Type
  10
390902.416
  20
4687636.219
  0
VERTEX
  8
Unknown_Area_Type
  10
390902.599
  20
4687636.216
  0
VERTEX
  8
Unknown_Area_Type
  10
390906.002
  20
4687460.000
  0
VERTEX
  8
Unknown_Area_Type
  10
390975.500
  20
4683861.000
  0
VERTEX
  8
Unknown_Area_Type
  10
389599.209
  20
4683513.729
  0
VERTEX
  8
Unknown_Area_Type
  10
389146.836
  20
4683399.585
  0
SEQEND
  8
Unknown_Area_Type
  0
POLYLINE
  8
Unknown_Area_Type
  70
1
  66
1
  0
VERTEX
  8
Unknown_Area_Type
  10
381369.853
  20
4679500.561
  0
VERTEX
  8
Unknown_Area_Type
  10
381369.500
  20
4679500.500
  0
VERTEX
  8
Unknown_Area_Type
  10
381310.000
  20
4679525.326
  0
VERTEX
  8
Unknown_Area_Type
  10
380366.500
  20
4679919.000
  0
VERTEX
  8
Unknown_Area_Type
  10
380485.686
  20
4683060.000
  0
VERTEX
  8
Unknown_Area_Type
  10
380498.208
  20
4683390.000
  0
VERTEX
  8
Unknown_Area_Type
  10
380513.500
  20
4683793.000
  0
VERTEX
  8
Unknown_Area_Type
  10
381390.000
  20
4683970.472
  0
VERTEX
  8
Unknown_Area_Type
  10
381680.000
  20
4684029.191
  0
VERTEX
  8
Unknown_Area_Type
  10
382410.000
  20
4684177.000
  0
VERTEX
  8
Unknown_Area_Type
  10
382412.500
  20
4684177.500
  0
VERTEX
  8
Unknown_Area_Type
  10
382414.000
  20
4684177.500
  0
VERTEX
  8
Unknown_Area_Type
  10
382414.500
  20
4684177.500
  0
VERTEX
  8
Unknown_Area_Type
  10
382425.000
  20
4684172.000
  0
VERTEX
  8
Unknown_Area_Type
  10
383344.835
  20
4683685.352
  0
VERTEX
  8
Unknown_Area_Type
  10
383345.500
  20
4683685.000
  0
VERTEX
  8
Unknown_Area_Type
  10
383332.906
  20
4683270.000
  0
VERTEX
  8
Unknown_Area_Type
  10
383322.892
  20
4682940.000
  0
VERTEX
  8
Unknown_Area_Type
  10
383228.500
  20
4679829.500
  0
VERTEX
  8
Unknown_Area_Type
  10
383228.148
  20
4679826.858
  0
VERTEX
  8
Unknown_Area_Type
  10
383227.556
  20
4679822.423
  0
VERTEX
  8
Unknown_Area_Type
  10
383227.500
  20
4679822.000
  0
VERTEX
  8
Unknown_Area_Type
  10
381622.482
  20
4679544.275
  0
VERTEX
  8
Unknown_Area_Type
  10
381600.000
  20
4679540.385
  0
VERTEX
  8
Unknown_Area_Type
  10
381369.853
  20
4679500.561
  0
SEQEND
  8
Unknown_Area_Type
  0
POLYLINE
  8
Unknown_Area_Type
  70
1
  66
1
  0
VERTEX
  8
Unknown_Area_Type
  10
396782.746
  20
4683614.503
  0
VERTEX
  8
Unknown_Area_Type
  10
396782.500
  20
4683614.500
  0
VERTEX
  8
Unknown_Area_Type
  10
396487.377
  20
4683737.343
  0
VERTEX
  8
Unknown_Area_Type
  10
396487.000
  20
4683737.500
  0
VERTEX
  8
Unknown_Area_Type
  10
396505.245
  20
4687360.000
  0
VERTEX
  8
Unknown_Area_Type
  10
396506.208
  20
4687551.243
  0
VERTEX
  8
Unknown_Area_Type
  10
396506.244
  20
4687551.242
  0
VERTEX
  8
Unknown_Area_Type
  10
398735.600
  20
4687518.483
  0
VERTEX
  8
Unknown_Area_Type
  10
399313.986
  20
4687510.267
  0
VERTEX
  8
Unknown_Area_Type
  10
399309.067
  20
4687360.000
  0
VERTEX
  8
Unknown_Area_Type
  10
399187.500
  20
4683647.000
  0
VERTEX
  8
Unknown_Area_Type
  10
397120.322
  20
4683619.065
  0
VERTEX
  8
Unknown_Area_Type
  10
396782.746
  20
4683614.503
  0
SEQEND
  8
Unknown_Area_Type
  0
POLYLINE
  8
Unknown_Area_Type
  70
1
  66
1
  0
VERTEX
  8
Unknown_Area_Type
  10
384061.747
  20
4679459.610
  0
VERTEX
  8
Unknown_Area_Type
  10
384061.000
  20
4679459.500
  0
VERTEX
  8
Unknown_Area_Type
  10
383228.000
  20
4679822.000
  0
VERTEX
  8
Unknown_Area_Type
  10
383228.015
  20
4679822.494
  0
VERTEX
  8
Unknown_Area_Type
  10
383228.148
  20
4679826.858
  0
VERTEX
  8
Unknown_Area_Type
  10
383322.839
  20
4682940.000
  0
VERTEX
  8
Unknown_Area_Type
  10
383332.877
  20
4683270.000
  0
VERTEX
  8
Unknown_Area_Type
  10
383345.500
  20
4683685.000
  0
VERTEX
  8
Unknown_Area_Type
  10
383346.342
  20
4683685.184
  0
VERTEX
  8
Unknown_Area_Type
  10
385209.500
  20
4684092.500
  0
VERTEX
  8
Unknown_Area_Type
  10
385211.500
  20
4684093.000
  0
VERTEX
  8
Unknown_Area_Type
  10
385211.896
  20
4684092.868
  0
VERTEX
  8
Unknown_Area_Type
  10
385214.197
  20
4684092.101
  0
VERTEX
  8
Unknown_Area_Type
  10
385216.000
  20
4684091.500
  0
VERTEX
  8
Unknown_Area_Type
  10
386247.799
  20
4683545.107
  0
VERTEX
  8
Unknown_Area_Type
  10
386248.000
  20
4683545.000
  0
VERTEX
  8
Unknown_Area_Type
  10
386236.610
  20
4683270.000
  0
VERTEX
  8
Unknown_Area_Type
  10
386222.942
  20
4682940.000
  0
VERTEX
  8
Unknown_Area_Type
  10
386091.500
  20
4679766.500
  0
VERTEX
  8
Unknown_Area_Type
  10
386091.000
  20
4679758.500
  0
VERTEX
  8
Unknown_Area_Type
  10
386089.500
  20
4679758.000
  0
VERTEX
  8
Unknown_Area_Type
  10
384523.102
  20
4679527.500
  0
VERTEX
  8
Unknown_Area_Type
  10
384061.747
  20
4679459.610
  0
SEQEND
  8
Unknown_Area_Type
  0
POLYLINE
  8
Unknown_Area_Type
  70
1
  66
1
  0
VERTEX
  8
Unknown_Area_Type
  10
378573.349
  20
4679588.564
  0
VERTEX
  8
Unknown_Area_Type
  10
378573.000
  20
4679588.500
  0
VERTEX
  8
Unknown_Area_Type
  10
377555.000
  20
4680023.000
  0
VERTEX
  8
Unknown_Area_Type
  10
377621.366
  20
4683060.000
  0
VERTEX
  8
Unknown_Area_Type
  10
377628.577
  20
4683390.000
  0
VERTEX
  8
Unknown_Area_Type
  10
377641.000
  20
4683958.500
  0
VERTEX
  8
Unknown_Area_Type
  10
377794.856
  20
4683986.965
  0
VERTEX
  8
Unknown_Area_Type
  10
378168.000
  20
4684056.000
  0
VERTEX
  8
Unknown_Area_Type
  10
378170.500
  20
4684056.500
  0
VERTEX
  8
Unknown_Area_Type
  10
379552.032
  20
4684311.414
  0
VERTEX
  8
Unknown_Area_Type
  10
379552.500
  20
4684311.500
  0
VERTEX
  8
Unknown_Area_Type
  10
379552.537
  20
4684311.480
  0
VERTEX
  8
Unknown_Area_Type
  10
380513.500
  20
4683793.500
  0
VERTEX
  8
Unknown_Area_Type
  10
380513.481
  20
4683793.010
  0
VERTEX
  8
Unknown_Area_Type
  10
380498.191
  20
4683390.000
  0
VERTEX
  8
Unknown_Area_Type
  10
380485.671
  20
4683060.000
  0
VERTEX
  8
Unknown_Area_Type
  10
380366.500
  20
4679919.000
  0
VERTEX
  8
Unknown_Area_Type
  10
378824.664
  20
4679634.876
  0
VERTEX
  8
Unknown_Area_Type
  10
378573.349
  20
4679588.564
  0
SEQEND
  8
Unknown_Area_Type
  0
POLYLINE
  8
Unknown_Area_Type
  70
1
  66
1
  0
VERTEX
  8
Unknown_Area_Type
  10
389452.861
  20
4679382.077
  0
VERTEX
  8
Unknown_Area_Type
  10
389452.000
  20
4679382.000
  0
VERTEX
  8
Unknown_Area_Type
  10
388982.000
  20
4679642.500
  0
VERTEX
  8
Unknown_Area_Type
  10
388982.021
  20
4679642.988
  0
VERTEX
  8
Unknown_Area_Type
  10
388982.086
  20
4679644.471
  0
VERTEX
  8
Unknown_Area_Type
  10
389122.428
  20
4682840.000
  0
VERTEX
  8
Unknown_Area_Type
  10
389136.043
  20
4683150.000
  0
VERTEX
  8
Unknown_Area_Type
  10
389147.000
  20
4683399.500
  0
VERTEX
  8
Unknown_Area_Type
  10
389599.209
  20
4683513.729
  0
VERTEX
  8
Unknown_Area_Type
  10
390972.000
  20
4683860.500
  0
VERTEX
  8
Unknown_Area_Type
  10
390974.000
  20
4683861.000
  0
VERTEX
  8
Unknown_Area_Type
  10
390975.500
  20
4683861.000
  0
VERTEX
  8
Unknown_Area_Type
  10
390976.500
  20
4683861.000
  0
VERTEX
  8
Unknown_Area_Type
  10
390984.000
  20
4683857.500
  0
VERTEX
  8
Unknown_Area_Type
  10
391988.000
  20
4683387.000
  0
VERTEX
  8
Unknown_Area_Type
  10
391987.982
  20
4683386.508
  0
VERTEX
  8
Unknown_Area_Type
  10
391979.309
  20
4683150.000
  0
VERTEX
  8
Unknown_Area_Type
  10
391967.941
  20
4682840.000
  0
VERTEX
  8
Unknown_Area_Type
  10
391849.000
  20
4679596.500
  0
VERTEX
  8
Unknown_Area_Type
  10
391448.022
  20
4679560.618
  0
VERTEX
  8
Unknown_Area_Type
  10
389917.665
  20
4679423.671
  0
VERTEX
  8
Unknown_Area_Type
  10
389452.861
  20
4679382.077
  0
SEQEND
  8
Unknown_Area_Type
  0
POLYLINE
  8
Unknown_Area_Type
  70
1
  66
1
  0
VERTEX
  8
Unknown_Area_Type
  10
386741.344
  20
4679442.076
  0
VERTEX
  8
Unknown_Area_Type
  10
386740.500
  20
4679442.000
  0
VERTEX
  8
Unknown_Area_Type
  10
386363.790
  20
4679625.570
  0
VERTEX
  8
Unknown_Area_Type
  10
386262.232
  20
4679675.059
  0
VERTEX
  8
Unknown_Area_Type
  10
386091.000
  20
4679758.500
  0
VERTEX
  8
Unknown_Area_Type
  10
386222.616
  20
4682940.000
  0
VERTEX
  8
Unknown_Area_Type
  10
386236.268
  20
4683270.000
  0
VERTEX
  8
Unknown_Area_Type
  10
386247.500
  20
4683541.500
  0
VERTEX
  8
Unknown_Area_Type
  10
386248.000
  20
4683545.000
  0
VERTEX
  8
Unknown_Area_Type
  10
386249.262
  20
4683545.302
  0
VERTEX
  8
Unknown_Area_Type
  10
386361.000
  20
4683572.000
  0
VERTEX
  8
Unknown_Area_Type
  10
386363.000
  20
4683572.500
  0
VERTEX
  8
Unknown_Area_Type
  10
388035.000
  20
4683972.000
  0
VERTEX
  8
Unknown_Area_Type
  10
388035.027
  20
4683971.986
  0
VERTEX
  8
Unknown_Area_Type
  10
388260.000
  20
4683856.161
  0
VERTEX
  8
Unknown_Area_Type
  10
388540.000
  20
4683712.007
  0
VERTEX
  8
Unknown_Area_Type
  10
389146.836
  20
4683399.585
  0
VERTEX
  8
Unknown_Area_Type
  10
389147.000
  20
4683399.500
  0
VERTEX
  8
Unknown_Area_Type
  10
389136.058
  20
4683150.000
  0
VERTEX
  8
Unknown_Area_Type
  10
389122.463
  20
4682840.000
  0
VERTEX
  8
Unknown_Area_Type
  10
388983.000
  20
4679660.000
  0
VERTEX
  8
Unknown_Area_Type
  10
388982.086
  20
4679644.471
  0
VERTEX
  8
Unknown_Area_Type
  10
388982.000
  20
4679643.000
  0
VERTEX
  8
Unknown_Area_Type
  10
388980.500
  20
4679642.500
  0
VERTEX
  8
Unknown_Area_Type
  10
388470.000
  20
4679596.806
  0
VERTEX
  8
Unknown_Area_Type
  10
388190.000
  20
4679571.743
  0
VERTEX
  8
Unknown_Area_Type
  10
387064.494
  20
4679471.000
  0
VERTEX
  8
Unknown_Area_Type
  10
386741.344
  20
4679442.076
  0
SEQEND
  8
Unknown_Area_Type
  0
POLYLINE
  8
Unknown_Area_Type
  70
1
  66
1
  0
VERTEX
  8
Unknown_Area_Type
  10
399512.447
  20
4683505.519
  0
VERTEX
  8
Unknown_Area_Type
  10
399511.000
  20
4683505.500
  0
VERTEX
  8
Unknown_Area_Type
  10
399272.804
  20
4683593.449
  0
VERTEX
  8
Unknown_Area_Type
  10
399251.000
  20
4683601.500
  0
VERTEX
  8
Unknown_Area_Type
  10
399249.926
  20
4683602.261
  0
VERTEX
  8
Unknown_Area_Type
  10
399187.500
  20
4683646.500
  0
VERTEX
  8
Unknown_Area_Type
  10
399187.516
  20
4683646.989
  0
VERTEX
  8
Unknown_Area_Type
  10
399309.067
  20
4687360.000
  0
VERTEX
  8
Unknown_Area_Type
  10
399313.986
  20
4687510.267
  0
VERTEX
  8
Unknown_Area_Type
  10
402168.339
  20
4687469.722
  0
VERTEX
  8
Unknown_Area_Type
  10
402136.053
  20
4685156.443
  0
VERTEX
  8
Unknown_Area_Type
  10
402113.511
  20
4683540.638
  0
VERTEX
  8
Unknown_Area_Type
  10
402113.510
  20
4683540.599
  0
VERTEX
  8
Unknown_Area_Type
  10
400405.582
  20
4683517.565
  0
VERTEX
  8
Unknown_Area_Type
  10
399512.447
  20
4683505.519
  0
SEQEND
  8
Unknown_Area_Type
  0
POLYLINE
  8
Unknown_Area_Type
  70
1
  66
1
  0
VERTEX
  8
Unknown_Area_Type
  10
397753.500
  20
4679380.500
  0
VERTEX
  8
Unknown_Area_Type
  10
397682.000
  20
4679363.000
  0
VERTEX
  8
Unknown_Area_Type
  10
397681.795
  20
4679363.074
  0
VERTEX
  8
Unknown_Area_Type
  10
397505.500
  20
4679426.250
  0
VERTEX
  8
Unknown_Area_Type
  10
397329.063
  20
4679489.477
  0
VERTEX
  8
Unknown_Area_Type
  10
397329.000
  20
4679489.500
  0
VERTEX
  8
Unknown_Area_Type
  10
396899.146
  20
4682740.000
  0
VERTEX
  8
Unknown_Area_Type
  10
396858.151
  20
4683050.000
  0
VERTEX
  8
Unknown_Area_Type
  10
396783.589
  20
4683613.829
  0
VERTEX
  8
Unknown_Area_Type
  10
396783.500
  20
4683614.500
  0
VERTEX
  8
Unknown_Area_Type
  10
397120.322
  20
4683619.065
  0
VERTEX
  8
Unknown_Area_Type
  10
399144.500
  20
4683646.500
  0
VERTEX
  8
Unknown_Area_Type
  10
399181.500
  20
4683647.000
  0
VERTEX
  8
Unknown_Area_Type
  10
399187.500
  20
4683647.000
  0
VERTEX
  8
Unknown_Area_Type
  10
399187.516
  20
4683646.989
  0
VERTEX
  8
Unknown_Area_Type
  10
399250.000
  20
4683602.500
  0
VERTEX
  8
Unknown_Area_Type
  10
399249.926
  20
4683602.261
  0
VERTEX
  8
Unknown_Area_Type
  10
399249.811
  20
4683601.886
  0
VERTEX
  8
Unknown_Area_Type
  10
399249.500
  20
4683600.875
  0
VERTEX
  8
Unknown_Area_Type
  10
399248.625
  20
4683598.031
  0
VERTEX
  8
Unknown_Area_Type
  10
399248.000
  20
4683596.000
  0
VERTEX
  8
Unknown_Area_Type
  10
399054.532
  20
4683050.000
  0
VERTEX
  8
Unknown_Area_Type
  10
398944.687
  20
4682740.000
  0
VERTEX
  8
Unknown_Area_Type
  10
397755.000
  20
4679382.500
  0
VERTEX
  8
Unknown_Area_Type
  10
397754.112
  20
4679381.316
  0
VERTEX
  8
Unknown_Area_Type
  10
397753.868
  20
4679380.990
  0
VERTEX
  8
Unknown_Area_Type
  10
397753.500
  20
4679380.500
  0
SEQEND
  8
Unknown_Area_Type
  0
POLYLINE
  8
Unknown_Area_Type
  70
1
  66
1
  0
VERTEX
  8
Unknown_Area_Type
  10
394968.814
  20
4679365.583
  0
VERTEX
  8
Unknown_Area_Type
  10
394968.500
  20
4679365.500
  0
VERTEX
  8
Unknown_Area_Type
  10
394486.500
  20
4679538.500
  0
VERTEX
  8
Unknown_Area_Type
  10
394485.941
  20
4679539.338
  0
VERTEX
  8
Unknown_Area_Type
  10
394484.870
  20
4679540.945
  0
VERTEX
  8
Unknown_Area_Type
  10
394484.500
  20
4679541.500
  0
VERTEX
  8
Unknown_Area_Type
  10
394187.494
  20
4682840.000
  0
VERTEX
  8
Unknown_Area_Type
  10
394159.581
  20
4683150.000
  0
VERTEX
  8
Unknown_Area_Type
  10
394116.000
  20
4683634.000
  0
VERTEX
  8
Unknown_Area_Type
  10
394116.045
  20
4683634.002
  0
VERTEX
  8
Unknown_Area_Type
  10
395130.000
  20
4683669.380
  0
VERTEX
  8
Unknown_Area_Type
  10
395410.000
  20
4683679.149
  0
VERTEX
  8
Unknown_Area_Type
  10
396394.335
  20
4683713.494
  0
VERTEX
  8
Unknown_Area_Type
  10
396394.500
  20
4683713.500
  0
VERTEX
  8
Unknown_Area_Type
  10
396178.156
  20
4683050.000
  0
VERTEX
  8
Unknown_Area_Type
  10
396077.076
  20
4682740.000
  0
VERTEX
  8
Unknown_Area_Type
  10
395993.427
  20
4682483.459
  0
VERTEX
  8
Unknown_Area_Type
  10
395340.000
  20
4680479.476
  0
VERTEX
  8
Unknown_Area_Type
  10
395060.000
  20
4679620.750
  0
VERTEX
  8
Unknown_Area_Type
  10
394981.500
  20
4679380.000
  0
VERTEX
  8
Unknown_Area_Type
  10
394981.000
  20
4679378.000
  0
VERTEX
  8
Unknown_Area_Type
  10
394978.008
  20
4679368.026
  0
VERTEX
  8
Unknown_Area_Type
  10
394978.000
  20
4679368.000
  0
VERTEX
  8
Unknown_Area_Type
  10
394973.249
  20
4679366.750
  0
VERTEX
  8
Unknown_Area_Type
  10
394968.814
  20
4679365.583
  0
SEQEND
  8
Unknown_Area_Type
  0
POLYLINE
  8
Unknown_Area_Type
  70
1
  66
1
  0
VERTEX
  8
Unknown_Area_Type
  10
400244.905
  20
4675151.828
  0
VERTEX
  8
Unknown_Area_Type
  10
398986.000
  20
4674787.000
  0
VERTEX
  8
Unknown_Area_Type
  10
398985.511
  20
4674787.148
  0
VERTEX
  8
Unknown_Area_Type
  10
398551.833
  20
4674918.667
  0
VERTEX
  8
Unknown_Area_Type
  10
397684.140
  20
4675181.806
  0
VERTEX
  8
Unknown_Area_Type
  10
397683.500
  20
4675182.000
  0
VERTEX
  8
Unknown_Area_Type
  10
397681.910
  20
4678110.000
  0
VERTEX
  8
Unknown_Area_Type
  10
397681.741
  20
4678420.000
  0
VERTEX
  8
Unknown_Area_Type
  10
397681.500
  20
4678864.500
  0
VERTEX
  8
Unknown_Area_Type
  10
397681.500
  20
4679363.000
  0
VERTEX
  8
Unknown_Area_Type
  10
397681.795
  20
4679363.074
  0
VERTEX
  8
Unknown_Area_Type
  10
397753.500
  20
4679381.000
  0
VERTEX
  8
Unknown_Area_Type
  10
397753.868
  20
4679380.990
  0
VERTEX
  8
Unknown_Area_Type
  10
400249.832
  20
4679316.004
  0
VERTEX
  8
Unknown_Area_Type
  10
400250.000
  20
4679316.000
  0
VERTEX
  8
Unknown_Area_Type
  10
400320.772
  20
4679287.136
  0
VERTEX
  8
Unknown_Area_Type
  10
400377.500
  20
4679264.000
  0
VERTEX
  8
Unknown_Area_Type
  10
400350.343
  20
4678420.000
  0
VERTEX
  8
Unknown_Area_Type
  10
400340.368
  20
4678110.000
  0
VERTEX
  8
Unknown_Area_Type
  10
400249.500
  20
4675286.000
  0
VERTEX
  8
Unknown_Area_Type
  10
400249.500
  20
4675282.000
  0
VERTEX
  8
Unknown_Area_Type
  10
400245.500
  20
4675152.000
  0
VERTEX
  8
Unknown_Area_Type
  10
400244.905
  20
4675151.828
  0
SEQEND
  8
Unknown_Area_Type
  0
POLYLINE
  8
Unknown_Area_Type
  70
1
  66
1
  0
VERTEX
  8
Unknown_Area_Type
  10
397680.509
  20
4675181.287
  0
VERTEX
  8
Unknown_Area_Type
  10
396144.000
  20
4674815.000
  0
VERTEX
  8
Unknown_Area_Type
  10
395270.000
  20
4675112.062
  0
VERTEX
  8
Unknown_Area_Type
  10
395076.000
  20
4675178.000
  0
VERTEX
  8
Unknown_Area_Type
  10
394998.526
  20
4678210.000
  0
VERTEX
  8
Unknown_Area_Type
  10
394993.160
  20
4678420.000
  0
VERTEX
  8
Unknown_Area_Type
  10
394990.349
  20
4678530.000
  0
VERTEX
  8
Unknown_Area_Type
  10
394969.000
  20
4679365.500
  0
VERTEX
  8
Unknown_Area_Type
  10
394973.249
  20
4679366.750
  0
VERTEX
  8
Unknown_Area_Type
  10
394977.500
  20
4679368.000
  0
VERTEX
  8
Unknown_Area_Type
  10
394978.008
  20
4679368.026
  0
VERTEX
  8
Unknown_Area_Type
  10
395060.000
  20
4679372.268
  0
VERTEX
  8
Unknown_Area_Type
  10
395340.000
  20
4679386.754
  0
VERTEX
  8
Unknown_Area_Type
  10
396591.500
  20
4679451.500
  0
VERTEX
  8
Unknown_Area_Type
  10
396601.000
  20
4679452.000
  0
VERTEX
  8
Unknown_Area_Type
  10
397203.167
  20
4679482.997
  0
VERTEX
  8
Unknown_Area_Type
  10
397329.063
  20
4679489.477
  0
VERTEX
  8
Unknown_Area_Type
  10
397329.500
  20
4679489.500
  0
VERTEX
  8
Unknown_Area_Type
  10
397505.500
  20
4679426.250
  0
VERTEX
  8
Unknown_Area_Type
  10
397681.500
  20
4679363.000
  0
VERTEX
  8
Unknown_Area_Type
  10
397681.951
  20
4678420.000
  0
VERTEX
  8
Unknown_Area_Type
  10
397682.099
  20
4678110.000
  0
VERTEX
  8
Unknown_Area_Type
  10
397683.500
  20
4675182.000
  0
VERTEX
  8
Unknown_Area_Type
  10
397680.509
  20
4675181.287
  0
SEQEND
  8
Unknown_Area_Type
  0
POLYLINE
  8
Unknown_Area_Type
  70
1
  66
1
  0
VERTEX
  8
Unknown_Area_Type
  10
392312.500
  20
4675191.500
  0
VERTEX
  8
Unknown_Area_Type
  10
390531.500
  20
4674791.000
  0
VERTEX
  8
Unknown_Area_Type
  10
390531.132
  20
4674791.142
  0
VERTEX
  8
Unknown_Area_Type
  10
390083.457
  20
4674963.979
  0
VERTEX
  8
Unknown_Area_Type
  10
389504.500
  20
4675187.500
  0
VERTEX
  8
Unknown_Area_Type
  10
389504.464
  20
4675187.991
  0
VERTEX
  8
Unknown_Area_Type
  10
389503.909
  20
4675195.477
  0
VERTEX
  8
Unknown_Area_Type
  10
389503.500
  20
4675201.000
  0
VERTEX
  8
Unknown_Area_Type
  10
389467.156
  20
4678210.000
  0
VERTEX
  8
Unknown_Area_Type
  10
389463.291
  20
4678530.000
  0
VERTEX
  8
Unknown_Area_Type
  10
389453.000
  20
4679382.000
  0
VERTEX
  8
Unknown_Area_Type
  10
389917.665
  20
4679423.671
  0
VERTEX
  8
Unknown_Area_Type
  10
390451.000
  20
4679471.500
  0
VERTEX
  8
Unknown_Area_Type
  10
390456.500
  20
4679472.000
  0
VERTEX
  8
Unknown_Area_Type
  10
391448.022
  20
4679560.618
  0
VERTEX
  8
Unknown_Area_Type
  10
391849.069
  20
4679596.461
  0
VERTEX
  8
Unknown_Area_Type
  10
391849.500
  20
4679596.500
  0
VERTEX
  8
Unknown_Area_Type
  10
392249.441
  20
4679371.533
  0
VERTEX
  8
Unknown_Area_Type
  10
392249.500
  20
4679371.500
  0
VERTEX
  8
Unknown_Area_Type
  10
392263.084
  20
4678530.000
  0
VERTEX
  8
Unknown_Area_Type
  10
392268.250
  20
4678210.000
  0
VERTEX
  8
Unknown_Area_Type
  10
392316.500
  20
4675221.000
  0
VERTEX
  8
Unknown_Area_Type
  10
392316.500
  20
4675192.500
  0
VERTEX
  8
Unknown_Area_Type
  10
392312.500
  20
4675191.500
  0
SEQEND
  8
Unknown_Area_Type
  0
POLYLINE
  8
Unknown_Area_Type
  70
1
  66
1
  0
VERTEX
  8
Unknown_Area_Type
  10
388110.000
  20
4674855.724
  0
VERTEX
  8
Unknown_Area_Type
  10
387807.000
  20
4674783.500
  0
VERTEX
  8
Unknown_Area_Type
  10
387806.810
  20
4674783.574
  0
VERTEX
  8
Unknown_Area_Type
  10
387806.488
  20
4674783.699
  0
VERTEX
  8
Unknown_Area_Type
  10
387327.876
  20
4674969.863
  0
VERTEX
  8
Unknown_Area_Type
  10
386719.500
  20
4675206.500
  0
VERTEX
  8
Unknown_Area_Type
  10
386735.672
  20
4678320.000
  0
VERTEX
  8
Unknown_Area_Type
  10
386737.334
  20
4678640.000
  0
VERTEX
  8
Unknown_Area_Type
  10
386741.500
  20
4679442.000
  0
VERTEX
  8
Unknown_Area_Type
  10
387064.494
  20
4679471.000
  0
VERTEX
  8
Unknown_Area_Type
  10
388190.000
  20
4679572.055
  0
VERTEX
  8
Unknown_Area_Type
  10
388401.000
  20
4679591.000
  0
VERTEX
  8
Unknown_Area_Type
  10
388406.500
  20
4679591.500
  0
VERTEX
  8
Unknown_Area_Type
  10
388470.000
  20
4679597.182
  0
VERTEX
  8
Unknown_Area_Type
  10
388982.000
  20
4679643.000
  0
VERTEX
  8
Unknown_Area_Type
  10
388982.021
  20
4679642.988
  0
VERTEX
  8
Unknown_Area_Type
  10
389452.861
  20
4679382.077
  0
VERTEX
  8
Unknown_Area_Type
  10
389453.000
  20
4679382.000
  0
VERTEX
  8
Unknown_Area_Type
  10
389463.361
  20
4678530.000
  0
VERTEX
  8
Unknown_Area_Type
  10
389467.252
  20
4678210.000
  0
VERTEX
  8
Unknown_Area_Type
  10
389503.909
  20
4675195.477
  0
VERTEX
  8
Unknown_Area_Type
  10
389504.000
  20
4675188.000
  0
VERTEX
  8
Unknown_Area_Type
  10
389303.599
  20
4675140.232
  0
VERTEX
  8
Unknown_Area_Type
  10
388400.000
  20
4674924.849
  0
VERTEX
  8
Unknown_Area_Type
  10
388110.000
  20
4674855.724
  0
SEQEND
  8
Unknown_Area_Type
  0
POLYLINE
  8
Unknown_Area_Type
  70
1
  66
1
  0
VERTEX
  8
Unknown_Area_Type
  10
382158.348
  20
4674863.067
  0
VERTEX
  8
Unknown_Area_Type
  10
382158.000
  20
4674863.000
  0
VERTEX
  8
Unknown_Area_Type
  10
381851.528
  20
4674998.821
  0
VERTEX
  8
Unknown_Area_Type
  10
381520.000
  20
4675145.746
  0
VERTEX
  8
Unknown_Area_Type
  10
381238.500
  20
4675270.500
  0
VERTEX
  8
Unknown_Area_Type
  10
381333.301
  20
4678320.000
  0
VERTEX
  8
Unknown_Area_Type
  10
381336.721
  20
4678430.000
  0
VERTEX
  8
Unknown_Area_Type
  10
381343.249
  20
4678640.000
  0
VERTEX
  8
Unknown_Area_Type
  10
381346.980
  20
4678760.000
  0
VERTEX
  8
Unknown_Area_Type
  10
381370.000
  20
4679500.500
  0
VERTEX
  8
Unknown_Area_Type
  10
381600.000
  20
4679540.377
  0
VERTEX
  8
Unknown_Area_Type
  10
381622.482
  20
4679544.275
  0
VERTEX
  8
Unknown_Area_Type
  10
382264.000
  20
4679655.500
  0
VERTEX
  8
Unknown_Area_Type
  10
382266.500
  20
4679656.000
  0
VERTEX
  8
Unknown_Area_Type
  10
383227.556
  20
4679822.423
  0
VERTEX
  8
Unknown_Area_Type
  10
383228.000
  20
4679822.500
  0
VERTEX
  8
Unknown_Area_Type
  10
383228.015
  20
4679822.494
  0
VERTEX
  8
Unknown_Area_Type
  10
384061.747
  20
4679459.610
  0
VERTEX
  8
Unknown_Area_Type
  10
384062.000
  20
4679459.500
  0
VERTEX
  8
Unknown_Area_Type
  10
384058.237
  20
4678640.000
  0
VERTEX
  8
Unknown_Area_Type
  10
384056.768
  20
4678320.000
  0
VERTEX
  8
Unknown_Area_Type
  10
384043.000
  20
4675321.500
  0
VERTEX
  8
Unknown_Area_Type
  10
384042.500
  20
4675227.000
  0
VERTEX
  8
Unknown_Area_Type
  10
384041.812
  20
4675226.771
  0
VERTEX
  8
Unknown_Area_Type
  10
384041.000
  20
4675226.500
  0
VERTEX
  8
Unknown_Area_Type
  10
382202.472
  20
4674871.585
  0
VERTEX
  8
Unknown_Area_Type
  10
382158.348
  20
4674863.067
  0
SEQEND
  8
Unknown_Area_Type
  0
POLYLINE
  8
Unknown_Area_Type
  70
1
  66
1
  0
VERTEX
  8
Unknown_Area_Type
  10
402059.265
  20
4679650.788
  0
VERTEX
  8
Unknown_Area_Type
  10
400378.500
  20
4679264.000
  0
VERTEX
  8
Unknown_Area_Type
  10
400378.135
  20
4679264.146
  0
VERTEX
  8
Unknown_Area_Type
  10
400320.772
  20
4679287.136
  0
VERTEX
  8
Unknown_Area_Type
  10
400250.000
  20
4679315.500
  0
VERTEX
  8
Unknown_Area_Type
  10
400249.832
  20
4679316.004
  0
VERTEX
  8
Unknown_Area_Type
  10
400249.500
  20
4679317.000
  0
VERTEX
  8
Unknown_Area_Type
  10
399647.196
  20
4682740.000
  0
VERTEX
  8
Unknown_Area_Type
  10
399592.649
  20
4683050.000
  0
VERTEX
  8
Unknown_Area_Type
  10
399512.500
  20
4683505.500
  0
VERTEX
  8
Unknown_Area_Type
  10
400405.582
  20
4683517.565
  0
VERTEX
  8
Unknown_Area_Type
  10
402113.511
  20
4683540.638
  0
VERTEX
  8
Unknown_Area_Type
  10
402113.510
  20
4683540.599
  0
VERTEX
  8
Unknown_Area_Type
  10
402103.780
  20
4682843.172
  0
VERTEX
  8
Unknown_Area_Type
  10
402071.520
  20
4680529.909
  0
VERTEX
  8
Unknown_Area_Type
  10
402059.271
  20
4679651.255
  0
VERTEX
  8
Unknown_Area_Type
  10
402059.265
  20
4679650.788
  0
SEQEND
  8
Unknown_Area_Type
  0
POLYLINE
  8
Unknown_Area_Type
  70
1
  66
1
  0
VERTEX
  8
Unknown_Area_Type
  10
394485.941
  20
4679539.338
  0
VERTEX
  8
Unknown_Area_Type
  10
394555.000
  20
4679514.000
  0
VERTEX
  8
Unknown_Area_Type
  10
394556.000
  20
4679514.000
  0
VERTEX
  8
Unknown_Area_Type
  10
394964.500
  20
4679367.500
  0
VERTEX
  8
Unknown_Area_Type
  10
394968.814
  20
4679365.583
  0
VERTEX
  8
Unknown_Area_Type
  10
394969.000
  20
4679365.500
  0
VERTEX
  8
Unknown_Area_Type
  10
394969.500
  20
4679361.500
  0
VERTEX
  8
Unknown_Area_Type
  10
394990.668
  20
4678530.000
  0
VERTEX
  8
Unknown_Area_Type
  10
394993.468
  20
4678420.000
  0
VERTEX
  8
Unknown_Area_Type
  10
394998.814
  20
4678210.000
  0
VERTEX
  8
Unknown_Area_Type
  10
395076.000
  20
4675178.000
  0
VERTEX
  8
Unknown_Area_Type
  10
394990.000
  20
4675157.820
  0
VERTEX
  8
Unknown_Area_Type
  10
393414.000
  20
4674788.000
  0
VERTEX
  8
Unknown_Area_Type
  10
393413.342
  20
4674788.198
  0
VERTEX
  8
Unknown_Area_Type
  10
393406.003
  20
4674790.399
  0
VERTEX
  8
Unknown_Area_Type
  10
393399.000
  20
4674792.500
  0
VERTEX
  8
Unknown_Area_Type
  10
392316.500
  20
4675192.500
  0
VERTEX
  8
Unknown_Area_Type
  10
392268.122
  20
4678210.000
  0
VERTEX
  8
Unknown_Area_Type
  10
392262.991
  20
4678530.000
  0
VERTEX
  8
Unknown_Area_Type
  10
392249.500
  20
4679371.500
  0
VERTEX
  8
Unknown_Area_Type
  10
392695.803
  20
4679405.070
  0
VERTEX
  8
Unknown_Area_Type
  10
394483.000
  20
4679539.500
  0
VERTEX
  8
Unknown_Area_Type
  10
394485.000
  20
4679539.500
  0
VERTEX
  8
Unknown_Area_Type
  10
394485.500
  20
4679539.500
  0
VERTEX
  8
Unknown_Area_Type
  10
394485.941
  20
4679539.338
  0
SEQEND
  8
Unknown_Area_Type
  0
POLYLINE
  8
Unknown_Area_Type
  70
1
  66
1
  0
VERTEX
  8
Unknown_Area_Type
  10
379358.862
  20
4674932.562
  0
VERTEX
  8
Unknown_Area_Type
  10
379358.000
  20
4674932.500
  0
VERTEX
  8
Unknown_Area_Type
  10
379355.500
  20
4674933.500
  0
VERTEX
  8
Unknown_Area_Type
  10
378391.296
  20
4675363.868
  0
VERTEX
  8
Unknown_Area_Type
  10
378391.000
  20
4675364.000
  0
VERTEX
  8
Unknown_Area_Type
  10
378523.452
  20
4678430.000
  0
VERTEX
  8
Unknown_Area_Type
  10
378537.708
  20
4678760.000
  0
VERTEX
  8
Unknown_Area_Type
  10
378573.500
  20
4679588.500
  0
VERTEX
  8
Unknown_Area_Type
  10
378824.664
  20
4679634.876
  0
VERTEX
  8
Unknown_Area_Type
  10
380214.500
  20
4679891.500
  0
VERTEX
  8
Unknown_Area_Type
  10
380217.500
  20
4679892.000
  0
VERTEX
  8
Unknown_Area_Type
  10
380363.500
  20
4679919.000
  0
VERTEX
  8
Unknown_Area_Type
  10
380366.500
  20
4679919.000
  0
VERTEX
  8
Unknown_Area_Type
  10
380368.000
  20
4679919.000
  0
VERTEX
  8
Unknown_Area_Type
  10
381310.000
  20
4679525.560
  0
VERTEX
  8
Unknown_Area_Type
  10
381369.853
  20
4679500.561
  0
VERTEX
  8
Unknown_Area_Type
  10
381370.000
  20
4679500.500
  0
VERTEX
  8
Unknown_Area_Type
  10
381346.980
  20
4678760.000
  0
VERTEX
  8
Unknown_Area_Type
  10
381343.249
  20
4678640.000
  0
VERTEX
  8
Unknown_Area_Type
  10
381336.721
  20
4678430.000
  0
VERTEX
  8
Unknown_Area_Type
  10
381333.301
  20
4678320.000
  0
VERTEX
  8
Unknown_Area_Type
  10
381238.500
  20
4675270.500
  0
VERTEX
  8
Unknown_Area_Type
  10
381237.789
  20
4675270.372
  0
VERTEX
  8
Unknown_Area_Type
  10
381230.000
  20
4675268.969
  0
VERTEX
  8
Unknown_Area_Type
  10
379365.000
  20
4674933.000
  0
VERTEX
  8
Unknown_Area_Type
  10
379359.659
  20
4674932.618
  0
VERTEX
  8
Unknown_Area_Type
  10
379358.862
  20
4674932.562
  0
SEQEND
  8
Unknown_Area_Type
  0
POLYLINE
  8
Unknown_Area_Type
  70
1
  66
1
  0
VERTEX
  8
Unknown_Area_Type
  10
384946.337
  20
4674848.068
  0
VERTEX
  8
Unknown_Area_Type
  10
384946.000
  20
4674848.000
  0
VERTEX
  8
Unknown_Area_Type
  10
384042.658
  20
4675226.934
  0
VERTEX
  8
Unknown_Area_Type
  10
384042.500
  20
4675227.000
  0
VERTEX
  8
Unknown_Area_Type
  10
384056.750
  20
4678320.000
  0
VERTEX
  8
Unknown_Area_Type
  10
384058.224
  20
4678640.000
  0
VERTEX
  8
Unknown_Area_Type
  10
384062.000
  20
4679459.500
  0
VERTEX
  8
Unknown_Area_Type
  10
384523.102
  20
4679527.500
  0
VERTEX
  8
Unknown_Area_Type
  10
386089.500
  20
4679758.500
  0
VERTEX
  8
Unknown_Area_Type
  10
386091.000
  20
4679758.500
  0
VERTEX
  8
Unknown_Area_Type
  10
386091.500
  20
4679758.500
  0
VERTEX
  8
Unknown_Area_Type
  10
386106.000
  20
4679751.500
  0
VERTEX
  8
Unknown_Area_Type
  10
386262.232
  20
4679675.059
  0
VERTEX
  8
Unknown_Area_Type
  10
386362.500
  20
4679626.000
  0
VERTEX
  8
Unknown_Area_Type
  10
386363.790
  20
4679625.570
  0
VERTEX
  8
Unknown_Area_Type
  10
386364.000
  20
4679625.500
  0
VERTEX
  8
Unknown_Area_Type
  10
386741.344
  20
4679442.076
  0
VERTEX
  8
Unknown_Area_Type
  10
386741.500
  20
4679442.000
  0
VERTEX
  8
Unknown_Area_Type
  10
386737.334
  20
4678640.000
  0
VERTEX
  8
Unknown_Area_Type
  10
386735.672
  20
4678320.000
  0
VERTEX
  8
Unknown_Area_Type
  10
386719.500
  20
4675206.500
  0
VERTEX
  8
Unknown_Area_Type
  10
386718.842
  20
4675206.367
  0
VERTEX
  8
Unknown_Area_Type
  10
385526.083
  20
4674965.260
  0
VERTEX
  8
Unknown_Area_Type
  10
384946.337
  20
4674848.068
  0
SEQEND
  8
Unknown_Area_Type
  0
POLYLINE
  8
Unknown_Area_Type
  70
1
  66
1
  0
VERTEX
  8
Unknown_Area_Type
  10
376615.677
  20
4675026.129
  0
VERTEX
  8
Unknown_Area_Type
  10
376615.000
  20
4675026.000
  0
VERTEX
  8
Unknown_Area_Type
  10
374650.000
  20
4675808.751
  0
VERTEX
  8
Unknown_Area_Type
  10
374491.319
  20
4675871.962
  0
VERTEX
  8
Unknown_Area_Type
  10
374491.330
  20
4675872.601
  0
VERTEX
  8
Unknown_Area_Type
  10
374499.676
  20
4676340.440
  0
VERTEX
  8
Unknown_Area_Type
  10
374540.963
  20
4678653.718
  0
VERTEX
  8
Unknown_Area_Type
  10
374554.087
  20
4679388.748
  0
VERTEX
  8
Unknown_Area_Type
  10
374554.089
  20
4679388.870
  0
VERTEX
  8
Unknown_Area_Type
  10
374591.960
  20
4679418.819
  0
VERTEX
  8
Unknown_Area_Type
  10
374683.937
  20
4679491.555
  0
VERTEX
  8
Unknown_Area_Type
  10
374684.500
  20
4679492.000
  0
VERTEX
  8
Unknown_Area_Type
  10
374730.000
  20
4679500.425
  0
VERTEX
  8
Unknown_Area_Type
  10
377549.500
  20
4680022.500
  0
VERTEX
  8
Unknown_Area_Type
  10
377552.000
  20
4680023.000
  0
VERTEX
  8
Unknown_Area_Type
  10
377555.000
  20
4680023.000
  0
VERTEX
  8
Unknown_Area_Type
  10
377556.500
  20
4680023.000
  0
VERTEX
  8
Unknown_Area_Type
  10
377566.000
  20
4680019.000
  0
VERTEX
  8
Unknown_Area_Type
  10
378573.349
  20
4679588.564
  0
VERTEX
  8
Unknown_Area_Type
  10
378573.500
  20
4679588.500
  0
VERTEX
  8
Unknown_Area_Type
  10
378537.743
  20
4678760.000
  0
VERTEX
  8
Unknown_Area_Type
  10
378523.501
  20
4678430.000
  0
VERTEX
  8
Unknown_Area_Type
  10
378391.500
  20
4675371.500
  0
VERTEX
  8
Unknown_Area_Type
  10
378391.000
  20
4675364.000
  0
VERTEX
  8
Unknown_Area_Type
  10
378389.000
  20
4675363.500
  0
VERTEX
  8
Unknown_Area_Type
  10
378363.303
  20
4675358.611
  0
VERTEX
  8
Unknown_Area_Type
  10
377077.617
  20
4675114.012
  0
VERTEX
  8
Unknown_Area_Type
  10
376615.677
  20
4675026.129
  0
SEQEND
  8
Unknown_Area_Type
  0
POLYLINE
  8
Unknown_Area_Type
  70
1
  66
1
  0
VERTEX
  8
Unknown_Area_Type
  10
401990.032
  20
4674682.473
  0
VERTEX
  8
Unknown_Area_Type
  10
401990.029
  20
4674682.216
  0
VERTEX
  8
Unknown_Area_Type
  10
400249.125
  20
4675151.024
  0
VERTEX
  8
Unknown_Area_Type
  10
400245.500
  20
4675152.000
  0
VERTEX
  8
Unknown_Area_Type
  10
400340.455
  20
4678110.000
  0
VERTEX
  8
Unknown_Area_Type
  10
400350.407
  20
4678420.000
  0
VERTEX
  8
Unknown_Area_Type
  10
400377.500
  20
4679264.000
  0
VERTEX
  8
Unknown_Area_Type
  10
400378.135
  20
4679264.146
  0
VERTEX
  8
Unknown_Area_Type
  10
402059.271
  20
4679651.255
  0
VERTEX
  8
Unknown_Area_Type
  10
402059.265
  20
4679650.788
  0
VERTEX
  8
Unknown_Area_Type
  10
402039.273
  20
4678216.654
  0
VERTEX
  8
Unknown_Area_Type
  10
402007.039
  20
4675903.407
  0
VERTEX
  8
Unknown_Area_Type
  10
401990.032
  20
4674682.473
  0
SEQEND
  8
Unknown_Area_Type
  0
POLYLINE
  8
Unknown_Area_Type
  70
1
  66
1
  0
VERTEX
  8
Unknown_Area_Type
  10
380002.500
  20
4670600.500
  0
VERTEX
  8
Unknown_Area_Type
  10
379977.060
  20
4669303.249
  0
VERTEX
  8
Unknown_Area_Type
  10
377817.751
  20
4669340.151
  0
VERTEX
  8
Unknown_Area_Type
  10
377266.534
  20
4669349.840
  0
VERTEX
  8
Unknown_Area_Type
  10
377289.992
  20
4670598.586
  0
VERTEX
  8
Unknown_Area_Type
  10
377290.000
  20
4670599.000
  0
VERTEX
  8
Unknown_Area_Type
  10
379290.000
  20
4670950.000
  0
VERTEX
  8
Unknown_Area_Type
  10
379292.000
  20
4670950.000
  0
VERTEX
  8
Unknown_Area_Type
  10
379292.500
  20
4670950.000
  0
VERTEX
  8
Unknown_Area_Type
  10
379303.000
  20
4670945.000
  0
VERTEX
  8
Unknown_Area_Type
  10
380002.296
  20
4670600.600
  0
VERTEX
  8
Unknown_Area_Type
  10
380002.500
  20
4670600.500
  0
SEQEND
  8
Unknown_Area_Type
  0
POLYLINE
  8
Unknown_Area_Type
  70
1
  66
1
  0
VERTEX
  8
Unknown_Area_Type
  10
377289.491
  20
4670598.505
  0
VERTEX
  8
Unknown_Area_Type
  10
377266.179
  20
4669349.847
  0
VERTEX
  8
Unknown_Area_Type
  10
374505.382
  20
4669398.377
  0
VERTEX
  8
Unknown_Area_Type
  10
374528.000
  20
4670680.500
  0
VERTEX
  8
Unknown_Area_Type
  10
374560.000
  20
4670685.101
  0
VERTEX
  8
Unknown_Area_Type
  10
375850.501
  20
4670870.651
  0
VERTEX
  8
Unknown_Area_Type
  10
376538.000
  20
4670969.500
  0
VERTEX
  8
Unknown_Area_Type
  10
376541.500
  20
4670970.000
  0
VERTEX
  8
Unknown_Area_Type
  10
376541.612
  20
4670969.944
  0
VERTEX
  8
Unknown_Area_Type
  10
376789.840
  20
4670846.826
  0
VERTEX
  8
Unknown_Area_Type
  10
377289.500
  20
4670599.000
  0
VERTEX
  8
Unknown_Area_Type
  10
377289.491
  20
4670598.505
  0
SEQEND
  8
Unknown_Area_Type
  0
POLYLINE
  8
Unknown_Area_Type
  70
1
  66
1
  0
VERTEX
  8
Unknown_Area_Type
  10
388094.500
  20
4670581.500
  0
VERTEX
  8
Unknown_Area_Type
  10
388088.376
  20
4669169.618
  0
VERTEX
  8
Unknown_Area_Type
  10
385323.602
  20
4669214.166
  0
VERTEX
  8
Unknown_Area_Type
  10
385323.548
  20
4669214.167
  0
VERTEX
  8
Unknown_Area_Type
  10
385291.500
  20
4670642.000
  0
VERTEX
  8
Unknown_Area_Type
  10
385292.473
  20
4670642.088
  0
VERTEX
  8
Unknown_Area_Type
  10
387059.518
  20
4670801.740
  0
VERTEX
  8
Unknown_Area_Type
  10
387648.564
  20
4670854.961
  0
VERTEX
  8
Unknown_Area_Type
  10
387649.000
  20
4670855.000
  0
VERTEX
  8
Unknown_Area_Type
  10
388040.000
  20
4670614.958
  0
VERTEX
  8
Unknown_Area_Type
  10
388094.437
  20
4670581.539
  0
VERTEX
  8
Unknown_Area_Type
  10
388094.500
  20
4670581.500
  0
SEQEND
  8
Unknown_Area_Type
  0
POLYLINE
  8
Unknown_Area_Type
  70
1
  66
1
  0
VERTEX
  8
Unknown_Area_Type
  10
385291.500
  20
4670642.000
  0
VERTEX
  8
Unknown_Area_Type
  10
385323.602
  20
4669214.166
  0
VERTEX
  8
Unknown_Area_Type
  10
385323.548
  20
4669214.167
  0
VERTEX
  8
Unknown_Area_Type
  10
384701.399
  20
4669224.192
  0
VERTEX
  8
Unknown_Area_Type
  10
382615.849
  20
4669258.815
  0
VERTEX
  8
Unknown_Area_Type
  10
382615.739
  20
4669258.816
  0
VERTEX
  8
Unknown_Area_Type
  10
382598.500
  20
4670608.500
  0
VERTEX
  8
Unknown_Area_Type
  10
382830.107
  20
4670632.545
  0
VERTEX
  8
Unknown_Area_Type
  10
384915.000
  20
4670849.000
  0
VERTEX
  8
Unknown_Area_Type
  10
384919.500
  20
4670849.500
  0
VERTEX
  8
Unknown_Area_Type
  10
384921.500
  20
4670849.500
  0
VERTEX
  8
Unknown_Area_Type
  10
384921.503
  20
4670849.498
  0
VERTEX
  8
Unknown_Area_Type
  10
384932.500
  20
4670843.500
  0
VERTEX
  8
Unknown_Area_Type
  10
385290.866
  20
4670642.356
  0
VERTEX
  8
Unknown_Area_Type
  10
385291.500
  20
4670642.000
  0
SEQEND
  8
Unknown_Area_Type
  0
POLYLINE
  8
Unknown_Area_Type
  70
1
  66
1
  0
VERTEX
  8
Unknown_Area_Type
  10
374528.000
  20
4670680.500
  0
VERTEX
  8
Unknown_Area_Type
  10
374505.382
  20
4669398.377
  0
VERTEX
  8
Unknown_Area_Type
  10
374375.917
  20
4669400.653
  0
VERTEX
  8
Unknown_Area_Type
  10
374399.863
  20
4670743.984
  0
VERTEX
  8
Unknown_Area_Type
  10
374399.872
  20
4670744.479
  0
VERTEX
  8
Unknown_Area_Type
  10
374527.777
  20
4670680.612
  0
VERTEX
  8
Unknown_Area_Type
  10
374528.000
  20
4670680.500
  0
SEQEND
  8
Unknown_Area_Type
  0
POLYLINE
  8
Unknown_Area_Type
  70
1
  66
1
  0
VERTEX
  8
Unknown_Area_Type
  10
382598.500
  20
4670608.500
  0
VERTEX
  8
Unknown_Area_Type
  10
382615.849
  20
4669258.815
  0
VERTEX
  8
Unknown_Area_Type
  10
382615.739
  20
4669258.816
  0
VERTEX
  8
Unknown_Area_Type
  10
381259.578
  20
4669281.331
  0
VERTEX
  8
Unknown_Area_Type
  10
379977.175
  20
4669303.247
  0
VERTEX
  8
Unknown_Area_Type
  10
380002.500
  20
4670600.500
  0
VERTEX
  8
Unknown_Area_Type
  10
380421.965
  20
4670653.467
  0
VERTEX
  8
Unknown_Area_Type
  10
381150.000
  20
4670745.399
  0
VERTEX
  8
Unknown_Area_Type
  10
381440.000
  20
4670782.018
  0
VERTEX
  8
Unknown_Area_Type
  10
382113.000
  20
4670867.000
  0
VERTEX
  8
Unknown_Area_Type
  10
382117.000
  20
4670867.500
  0
VERTEX
  8
Unknown_Area_Type
  10
382121.000
  20
4670867.500
  0
VERTEX
  8
Unknown_Area_Type
  10
382122.000
  20
4670867.500
  0
VERTEX
  8
Unknown_Area_Type
  10
382598.420
  20
4670608.543
  0
VERTEX
  8
Unknown_Area_Type
  10
382598.500
  20
4670608.500
  0
SEQEND
  8
Unknown_Area_Type
  0
POLYLINE
  8
Unknown_Area_Type
  70
1
  66
1
  0
VERTEX
  8
Unknown_Area_Type
  10
393752.500
  20
4670518.500
  0
VERTEX
  8
Unknown_Area_Type
  10
393758.176
  20
4669082.065
  0
VERTEX
  8
Unknown_Area_Type
  10
393758.112
  20
4669082.066
  0
VERTEX
  8
Unknown_Area_Type
  10
391585.022
  20
4669114.958
  0
VERTEX
  8
Unknown_Area_Type
  10
390889.869
  20
4669125.819
  0
VERTEX
  8
Unknown_Area_Type
  10
390884.000
  20
4670590.000
  0
VERTEX
  8
Unknown_Area_Type
  10
393298.562
  20
4670803.461
  0
VERTEX
  8
Unknown_Area_Type
  10
393299.000
  20
4670803.500
  0
VERTEX
  8
Unknown_Area_Type
  10
393752.342
  20
4670518.599
  0
VERTEX
  8
Unknown_Area_Type
  10
393752.500
  20
4670518.500
  0
SEQEND
  8
Unknown_Area_Type
  0
POLYLINE
  8
Unknown_Area_Type
  70
1
  66
1
  0
VERTEX
  8
Unknown_Area_Type
  10
390884.000
  20
4670590.000
  0
VERTEX
  8
Unknown_Area_Type
  10
390889.869
  20
4669125.819
  0
VERTEX
  8
Unknown_Area_Type
  10
388143.213
  20
4669168.734
  0
VERTEX
  8
Unknown_Area_Type
  10
388088.478
  20
4669169.616
  0
VERTEX
  8
Unknown_Area_Type
  10
388094.500
  20
4670581.500
  0
VERTEX
  8
Unknown_Area_Type
  10
388147.347
  20
4670586.203
  0
VERTEX
  8
Unknown_Area_Type
  10
388320.000
  20
4670601.569
  0
VERTEX
  8
Unknown_Area_Type
  10
388403.500
  20
4670609.000
  0
VERTEX
  8
Unknown_Area_Type
  10
388409.500
  20
4670609.500
  0
VERTEX
  8
Unknown_Area_Type
  10
390544.002
  20
4670797.956
  0
VERTEX
  8
Unknown_Area_Type
  10
390544.499
  20
4670798.000
  0
VERTEX
  8
Unknown_Area_Type
  10
390883.937
  20
4670590.039
  0
VERTEX
  8
Unknown_Area_Type
  10
390884.000
  20
4670590.000
  0
SEQEND
  8
Unknown_Area_Type
  0
POLYLINE
  8
Unknown_Area_Type
  70
1
  66
1
  0
VERTEX
  8
Unknown_Area_Type
  10
396583.000
  20
4670541.000
  0
VERTEX
  8
Unknown_Area_Type
  10
396584.782
  20
4669040.042
  0
VERTEX
  8
Unknown_Area_Type
  10
395026.825
  20
4669062.862
  0
VERTEX
  8
Unknown_Area_Type
  10
393758.176
  20
4669082.065
  0
VERTEX
  8
Unknown_Area_Type
  10
393758.112
  20
4669082.066
  0
VERTEX
  8
Unknown_Area_Type
  10
393752.500
  20
4670518.500
  0
VERTEX
  8
Unknown_Area_Type
  10
394229.751
  20
4670574.906
  0
VERTEX
  8
Unknown_Area_Type
  10
394920.000
  20
4670656.486
  0
VERTEX
  8
Unknown_Area_Type
  10
395200.000
  20
4670689.579
  0
VERTEX
  8
Unknown_Area_Type
  10
396138.500
  20
4670800.500
  0
VERTEX
  8
Unknown_Area_Type
  10
396142.500
  20
4670800.500
  0
VERTEX
  8
Unknown_Area_Type
  10
396143.500
  20
4670800.500
  0
VERTEX
  8
Unknown_Area_Type
  10
396148.000
  20
4670798.000
  0
VERTEX
  8
Unknown_Area_Type
  10
396582.923
  20
4670541.046
  0
VERTEX
  8
Unknown_Area_Type
  10
396583.000
  20
4670541.000
  0
SEQEND
  8
Unknown_Area_Type
  0
POLYLINE
  8
Unknown_Area_Type
  70
1
  66
1
  0
VERTEX
  8
Unknown_Area_Type
  10
399400.000
  20
4670495.000
  0
VERTEX
  8
Unknown_Area_Type
  10
399390.345
  20
4668999.397
  0
VERTEX
  8
Unknown_Area_Type
  10
398468.623
  20
4669012.448
  0
VERTEX
  8
Unknown_Area_Type
  10
396584.782
  20
4669040.042
  0
VERTEX
  8
Unknown_Area_Type
  10
396583.000
  20
4670541.000
  0
VERTEX
  8
Unknown_Area_Type
  10
396585.579
  20
4670541.333
  0
VERTEX
  8
Unknown_Area_Type
  10
396598.500
  20
4670543.000
  0
VERTEX
  8
Unknown_Area_Type
  10
396603.000
  20
4670543.500
  0
VERTEX
  8
Unknown_Area_Type
  10
398923.580
  20
4670794.401
  0
VERTEX
  8
Unknown_Area_Type
  10
398924.073
  20
4670794.454
  0
VERTEX
  8
Unknown_Area_Type
  10
398924.500
  20
4670794.500
  0
VERTEX
  8
Unknown_Area_Type
  10
399400.000
  20
4670495.000
  0
SEQEND
  8
Unknown_Area_Type
  0
POLYLINE
  8
Unknown_Area_Type
  70
1
  66
1
  0
VERTEX
  8
Unknown_Area_Type
  10
401935.829
  20
4670789.742
  0
VERTEX
  8
Unknown_Area_Type
  10
401910.415
  20
4668963.715
  0
VERTEX
  8
Unknown_Area_Type
  10
399390.345
  20
4668999.397
  0
VERTEX
  8
Unknown_Area_Type
  10
399400.000
  20
4670495.000
  0
VERTEX
  8
Unknown_Area_Type
  10
401935.831
  20
4670789.885
  0
VERTEX
  8
Unknown_Area_Type
  10
401935.829
  20
4670789.742
  0
SEQEND
  8
Unknown_Area_Type
  0
POLYLINE
  8
Unknown_Area_Type
  70
1
  66
1
  0
VERTEX
  8
Unknown_Area_Type
  10
392249.441
  20
4679371.533
  0
VERTEX
  8
Unknown_Area_Type
  10
392249.000
  20
4679371.500
  0
VERTEX
  8
Unknown_Area_Type
  10
391849.069
  20
4679596.461
  0
VERTEX
  8
Unknown_Area_Type
  10
391849.000
  20
4679596.500
  0
VERTEX
  8
Unknown_Area_Type
  10
391967.957
  20
4682840.000
  0
VERTEX
  8
Unknown_Area_Type
  10
391979.326
  20
4683150.000
  0
VERTEX
  8
Unknown_Area_Type
  10
391988.000
  20
4683386.500
  0
VERTEX
  8
Unknown_Area_Type
  10
393710.000
  20
4683815.500
  0
VERTEX
  8
Unknown_Area_Type
  10
393712.000
  20
4683815.500
  0
VERTEX
  8
Unknown_Area_Type
  10
393713.000
  20
4683815.500
  0
VERTEX
  8
Unknown_Area_Type
  10
394116.000
  20
4683634.500
  0
VERTEX
  8
Unknown_Area_Type
  10
394116.045
  20
4683634.002
  0
VERTEX
  8
Unknown_Area_Type
  10
394159.696
  20
4683150.000
  0
VERTEX
  8
Unknown_Area_Type
  10
394187.654
  20
4682840.000
  0
VERTEX
  8
Unknown_Area_Type
  10
394315.000
  20
4681428.000
  0
VERTEX
  8
Unknown_Area_Type
  10
394315.000
  20
4681426.000
  0
VERTEX
  8
Unknown_Area_Type
  10
394484.870
  20
4679540.945
  0
VERTEX
  8
Unknown_Area_Type
  10
394485.000
  20
4679539.500
  0
VERTEX
  8
Unknown_Area_Type
  10
392695.803
  20
4679405.070
  0
VERTEX
  8
Unknown_Area_Type
  10
392249.441
  20
4679371.533
  0
SEQEND
  8
Unknown_Area_Type
  0
POLYLINE
  8
Unknown_Area_Type
  70
1
  66
1
  0
VERTEX
  8
Unknown_Area_Type
  10
395060.000
  20
4679372.238
  0
VERTEX
  8
Unknown_Area_Type
  10
394978.000
  20
4679368.000
  0
VERTEX
  8
Unknown_Area_Type
  10
394978.008
  20
4679368.026
  0
VERTEX
  8
Unknown_Area_Type
  10
395060.000
  20
4679619.586
  0
VERTEX
  8
Unknown_Area_Type
  10
395340.000
  20
4680478.661
  0
VERTEX
  8
Unknown_Area_Type
  10
395993.427
  20
4682483.459
  0
VERTEX
  8
Unknown_Area_Type
  10
396077.042
  20
4682740.000
  0
VERTEX
  8
Unknown_Area_Type
  10
396178.081
  20
4683050.000
  0
VERTEX
  8
Unknown_Area_Type
  10
396394.335
  20
4683713.494
  0
VERTEX
  8
Unknown_Area_Type
  10
396394.500
  20
4683714.000
  0
VERTEX
  8
Unknown_Area_Type
  10
396459.885
  20
4683730.434
  0
VERTEX
  8
Unknown_Area_Type
  10
396487.377
  20
4683737.343
  0
VERTEX
  8
Unknown_Area_Type
  10
396488.000
  20
4683737.500
  0
VERTEX
  8
Unknown_Area_Type
  10
396781.500
  20
4683615.500
  0
VERTEX
  8
Unknown_Area_Type
  10
396782.746
  20
4683614.503
  0
VERTEX
  8
Unknown_Area_Type
  10
396783.589
  20
4683613.829
  0
VERTEX
  8
Unknown_Area_Type
  10
396784.000
  20
4683613.500
  0
VERTEX
  8
Unknown_Area_Type
  10
396858.532
  20
4683050.000
  0
VERTEX
  8
Unknown_Area_Type
  10
396899.534
  20
4682740.000
  0
VERTEX
  8
Unknown_Area_Type
  10
397073.000
  20
4681428.500
  0
VERTEX
  8
Unknown_Area_Type
  10
397073.000
  20
4681426.000
  0
VERTEX
  8
Unknown_Area_Type
  10
397329.000
  20
4679489.500
  0
VERTEX
  8
Unknown_Area_Type
  10
397203.167
  20
4679482.997
  0
VERTEX
  8
Unknown_Area_Type
  10
395340.000
  20
4679386.708
  0
VERTEX
  8
Unknown_Area_Type
  10
395060.000
  20
4679372.238
  0
SEQEND
  8
Unknown_Area_Type
  0
POLYLINE
  8
Unknown_Area_Type
  70
1
  66
1
  0
VERTEX
  8
Unknown_Area_Type
  10
399647.255
  20
4682740.000
  0
VERTEX
  8
Unknown_Area_Type
  10
400250.000
  20
4679316.000
  0
VERTEX
  8
Unknown_Area_Type
  10
400249.832
  20
4679316.004
  0
VERTEX
  8
Unknown_Area_Type
  10
397754.000
  20
4679381.000
  0
VERTEX
  8
Unknown_Area_Type
  10
397754.112
  20
4679381.316
  0
VERTEX
  8
Unknown_Area_Type
  10
398944.516
  20
4682740.000
  0
VERTEX
  8
Unknown_Area_Type
  10
399054.389
  20
4683050.000
  0
VERTEX
  8
Unknown_Area_Type
  10
399248.625
  20
4683598.031
  0
VERTEX
  8
Unknown_Area_Type
  10
399249.500
  20
4683600.500
  0
VERTEX
  8
Unknown_Area_Type
  10
399249.500
  20
4683600.875
  0
VERTEX
  8
Unknown_Area_Type
  10
399249.500
  20
4683602.000
  0
VERTEX
  8
Unknown_Area_Type
  10
399249.811
  20
4683601.886
  0
VERTEX
  8
Unknown_Area_Type
  10
399272.804
  20
4683593.449
  0
VERTEX
  8
Unknown_Area_Type
  10
399512.447
  20
4683505.519
  0
VERTEX
  8
Unknown_Area_Type
  10
399512.500
  20
4683505.500
  0
VERTEX
  8
Unknown_Area_Type
  10
399592.684
  20
4683050.000
  0
VERTEX
  8
Unknown_Area_Type
  10
399647.255
  20
4682740.000
  0
SEQEND
  8
Unknown_Area_Type
  0
ENDSEC
  0
EOF
