  0
SECTION
  2
HEADER
  9
$ACADVER
  1
AC1009
  9
$LUNITS
  70
2
  9
$LIMMIN
  10
346840.992
  20
4669400.653
  9
$LIMMAX
  10
374706.276
  20
4688451.773
  9
$EXTMIN
  10
346840.992
  20
4669400.653
  9
$EXTMAX
  10
374706.276
  20
4688451.773
  999
Created by Global Mapper
  999
Projection: UTM
  999
Datum: ETRS89
  999
Ground Units: meters
  999
ZONE: 30
  0
ENDSEC
  0
SECTION
  2
TABLES
  0
ENDSEC
  0
SECTION
  2
BLOCKS
  0
BLOCK
  8
FeatureAttribs
  70
0
  2
FEATURE
  3
FEATURE
  10
0.00000000
  20
0.00000000
  0
ATTDEF
  8
FeatureAttribs
  70
0
  1
 
  2
NAME
  3
NAME
  10
0.00000000
  20
0.00000000
  40
1.00000000
  0
ENDBLK
  0
ENDSEC
  0
SECTION
  2
ENTITIES
  0
POLYLINE
  8
Unknown_Area_Type
  70
1
  66
1
  0
VERTEX
  8
Unknown_Area_Type
  10
348530.436
  20
4675967.970
  0
VERTEX
  8
Unknown_Area_Type
  10
349496.500
  20
4675900.500
  0
VERTEX
  8
Unknown_Area_Type
  10
349498.829
  20
4675900.500
  0
VERTEX
  8
Unknown_Area_Type
  10
349500.000
  20
4675900.500
  0
VERTEX
  8
Unknown_Area_Type
  10
351066.000
  20
4675791.500
  0
VERTEX
  8
Unknown_Area_Type
  10
351049.332
  20
4674680.000
  0
VERTEX
  8
Unknown_Area_Type
  10
351043.933
  20
4674320.000
  0
VERTEX
  8
Unknown_Area_Type
  10
351007.500
  20
4671890.500
  0
VERTEX
  8
Unknown_Area_Type
  10
351007.229
  20
4671890.403
  0
VERTEX
  8
Unknown_Area_Type
  10
349568.000
  20
4671374.000
  0
VERTEX
  8
Unknown_Area_Type
  10
349567.285
  20
4671374.102
  0
VERTEX
  8
Unknown_Area_Type
  10
349566.434
  20
4671374.224
  0
VERTEX
  8
Unknown_Area_Type
  10
349564.500
  20
4671374.500
  0
VERTEX
  8
Unknown_Area_Type
  10
348218.687
  20
4671910.227
  0
VERTEX
  8
Unknown_Area_Type
  10
348218.000
  20
4671910.500
  0
VERTEX
  8
Unknown_Area_Type
  10
348242.843
  20
4674320.000
  0
VERTEX
  8
Unknown_Area_Type
  10
348246.555
  20
4674680.000
  0
VERTEX
  8
Unknown_Area_Type
  10
348258.500
  20
4675838.500
  0
VERTEX
  8
Unknown_Area_Type
  10
348258.571
  20
4675838.534
  0
VERTEX
  8
Unknown_Area_Type
  10
348530.000
  20
4675968.000
  0
VERTEX
  8
Unknown_Area_Type
  10
348530.436
  20
4675967.970
  0
SEQEND
  8
Unknown_Area_Type
  0
POLYLINE
  8
Unknown_Area_Type
  70
1
  66
1
  0
VERTEX
  8
Unknown_Area_Type
  10
355304.552
  20
4671127.192
  0
VERTEX
  8
Unknown_Area_Type
  10
355304.000
  20
4671127.000
  0
VERTEX
  8
Unknown_Area_Type
  10
353930.000
  20
4671715.190
  0
VERTEX
  8
Unknown_Area_Type
  10
353834.580
  20
4671756.038
  0
VERTEX
  8
Unknown_Area_Type
  10
353833.500
  20
4671756.500
  0
VERTEX
  8
Unknown_Area_Type
  10
353927.692
  20
4674180.000
  0
VERTEX
  8
Unknown_Area_Type
  10
353930.000
  20
4674239.377
  0
VERTEX
  8
Unknown_Area_Type
  10
353933.133
  20
4674320.000
  0
VERTEX
  8
Unknown_Area_Type
  10
353941.295
  20
4674530.000
  0
VERTEX
  8
Unknown_Area_Type
  10
353990.500
  20
4675796.000
  0
VERTEX
  8
Unknown_Area_Type
  10
353990.917
  20
4675798.500
  0
VERTEX
  8
Unknown_Area_Type
  10
353990.917
  20
4675798.504
  0
VERTEX
  8
Unknown_Area_Type
  10
353991.000
  20
4675799.000
  0
VERTEX
  8
Unknown_Area_Type
  10
354020.000
  20
4675814.442
  0
VERTEX
  8
Unknown_Area_Type
  10
354029.500
  20
4675819.500
  0
VERTEX
  8
Unknown_Area_Type
  10
354032.500
  20
4675821.000
  0
VERTEX
  8
Unknown_Area_Type
  10
354033.500
  20
4675821.000
  0
VERTEX
  8
Unknown_Area_Type
  10
354053.000
  20
4675821.000
  0
VERTEX
  8
Unknown_Area_Type
  10
356700.000
  20
4675757.512
  0
VERTEX
  8
Unknown_Area_Type
  10
356700.500
  20
4675757.500
  0
VERTEX
  8
Unknown_Area_Type
  10
356848.000
  20
4675671.000
  0
VERTEX
  8
Unknown_Area_Type
  10
356848.031
  20
4675670.500
  0
VERTEX
  8
Unknown_Area_Type
  10
356848.337
  20
4675665.607
  0
VERTEX
  8
Unknown_Area_Type
  10
356848.500
  20
4675663.000
  0
VERTEX
  8
Unknown_Area_Type
  10
356814.562
  20
4674651.338
  0
VERTEX
  8
Unknown_Area_Type
  10
356810.491
  20
4674530.000
  0
VERTEX
  8
Unknown_Area_Type
  10
356798.749
  20
4674180.000
  0
VERTEX
  8
Unknown_Area_Type
  10
356767.500
  20
4673248.500
  0
VERTEX
  8
Unknown_Area_Type
  10
356767.500
  20
4673238.100
  0
VERTEX
  8
Unknown_Area_Type
  10
356767.500
  20
4673234.000
  0
VERTEX
  8
Unknown_Area_Type
  10
356713.500
  20
4671616.500
  0
VERTEX
  8
Unknown_Area_Type
  10
356709.339
  20
4671615.055
  0
VERTEX
  8
Unknown_Area_Type
  10
355751.152
  20
4671282.290
  0
VERTEX
  8
Unknown_Area_Type
  10
355304.552
  20
4671127.192
  0
SEQEND
  8
Unknown_Area_Type
  0
POLYLINE
  8
Unknown_Area_Type
  70
1
  66
1
  0
VERTEX
  8
Unknown_Area_Type
  10
358094.684
  20
4671056.128
  0
VERTEX
  8
Unknown_Area_Type
  10
358094.000
  20
4671056.000
  0
VERTEX
  8
Unknown_Area_Type
  10
356713.908
  20
4671616.334
  0
VERTEX
  8
Unknown_Area_Type
  10
356713.500
  20
4671616.500
  0
VERTEX
  8
Unknown_Area_Type
  10
356767.500
  20
4673238.100
  0
VERTEX
  8
Unknown_Area_Type
  10
356798.866
  20
4674180.000
  0
VERTEX
  8
Unknown_Area_Type
  10
356810.521
  20
4674530.000
  0
VERTEX
  8
Unknown_Area_Type
  10
356814.562
  20
4674651.338
  0
VERTEX
  8
Unknown_Area_Type
  10
356848.337
  20
4675665.607
  0
VERTEX
  8
Unknown_Area_Type
  10
356848.500
  20
4675670.500
  0
VERTEX
  8
Unknown_Area_Type
  10
356878.664
  20
4675670.700
  0
VERTEX
  8
Unknown_Area_Type
  10
359415.000
  20
4675687.500
  0
VERTEX
  8
Unknown_Area_Type
  10
359457.000
  20
4675687.500
  0
VERTEX
  8
Unknown_Area_Type
  10
359457.500
  20
4675687.500
  0
VERTEX
  8
Unknown_Area_Type
  10
359661.952
  20
4675575.526
  0
VERTEX
  8
Unknown_Area_Type
  10
359662.000
  20
4675575.500
  0
VERTEX
  8
Unknown_Area_Type
  10
359638.946
  20
4674530.000
  0
VERTEX
  8
Unknown_Area_Type
  10
359631.228
  20
4674180.000
  0
VERTEX
  8
Unknown_Area_Type
  10
359572.000
  20
4671494.000
  0
VERTEX
  8
Unknown_Area_Type
  10
359571.432
  20
4671493.831
  0
VERTEX
  8
Unknown_Area_Type
  10
358535.000
  20
4671186.000
  0
VERTEX
  8
Unknown_Area_Type
  10
358533.137
  20
4671186.000
  0
VERTEX
  8
Unknown_Area_Type
  10
358533.000
  20
4671186.000
  0
VERTEX
  8
Unknown_Area_Type
  10
358504.615
  20
4671177.537
  0
VERTEX
  8
Unknown_Area_Type
  10
358102.000
  20
4671057.500
  0
VERTEX
  8
Unknown_Area_Type
  10
358096.717
  20
4671056.510
  0
VERTEX
  8
Unknown_Area_Type
  10
358094.684
  20
4671056.128
  0
SEQEND
  8
Unknown_Area_Type
  0
POLYLINE
  8
Unknown_Area_Type
  70
1
  66
1
  0
VERTEX
  8
Unknown_Area_Type
  10
364638.228
  20
4671163.207
  0
VERTEX
  8
Unknown_Area_Type
  10
363626.000
  20
4670902.500
  0
VERTEX
  8
Unknown_Area_Type
  10
363624.991
  20
4670902.626
  0
VERTEX
  8
Unknown_Area_Type
  10
363623.885
  20
4670902.764
  0
VERTEX
  8
Unknown_Area_Type
  10
363622.000
  20
4670903.000
  0
VERTEX
  8
Unknown_Area_Type
  10
362436.206
  20
4671413.411
  0
VERTEX
  8
Unknown_Area_Type
  10
362436.000
  20
4671413.500
  0
VERTEX
  8
Unknown_Area_Type
  10
362466.137
  20
4674050.000
  0
VERTEX
  8
Unknown_Area_Type
  10
362470.023
  20
4674390.000
  0
VERTEX
  8
Unknown_Area_Type
  10
362482.500
  20
4675481.500
  0
VERTEX
  8
Unknown_Area_Type
  10
362483.000
  20
4675490.000
  0
VERTEX
  8
Unknown_Area_Type
  10
362483.184
  20
4675490.046
  0
VERTEX
  8
Unknown_Area_Type
  10
362485.000
  20
4675490.500
  0
VERTEX
  8
Unknown_Area_Type
  10
363825.000
  20
4675580.500
  0
VERTEX
  8
Unknown_Area_Type
  10
363832.500
  20
4675581.000
  0
VERTEX
  8
Unknown_Area_Type
  10
364722.734
  20
4675640.612
  0
VERTEX
  8
Unknown_Area_Type
  10
364847.559
  20
4675648.970
  0
VERTEX
  8
Unknown_Area_Type
  10
364848.000
  20
4675649.000
  0
VERTEX
  8
Unknown_Area_Type
  10
365307.360
  20
4675417.071
  0
VERTEX
  8
Unknown_Area_Type
  10
365307.500
  20
4675417.000
  0
VERTEX
  8
Unknown_Area_Type
  10
365308.884
  20
4674390.000
  0
VERTEX
  8
Unknown_Area_Type
  10
365309.343
  20
4674050.000
  0
VERTEX
  8
Unknown_Area_Type
  10
365313.000
  20
4671337.000
  0
VERTEX
  8
Unknown_Area_Type
  10
364638.228
  20
4671163.207
  0
SEQEND
  8
Unknown_Area_Type
  0
POLYLINE
  8
Unknown_Area_Type
  70
1
  66
1
  0
VERTEX
  8
Unknown_Area_Type
  10
352431.779
  20
4671284.094
  0
VERTEX
  8
Unknown_Area_Type
  10
352431.500
  20
4671284.000
  0
VERTEX
  8
Unknown_Area_Type
  10
351719.500
  20
4671587.250
  0
VERTEX
  8
Unknown_Area_Type
  10
351007.500
  20
4671890.500
  0
VERTEX
  8
Unknown_Area_Type
  10
351043.933
  20
4674320.000
  0
VERTEX
  8
Unknown_Area_Type
  10
351049.332
  20
4674680.000
  0
VERTEX
  8
Unknown_Area_Type
  10
351066.000
  20
4675791.500
  0
VERTEX
  8
Unknown_Area_Type
  10
351297.000
  20
4675911.000
  0
VERTEX
  8
Unknown_Area_Type
  10
351298.000
  20
4675911.500
  0
VERTEX
  8
Unknown_Area_Type
  10
353720.000
  20
4675809.871
  0
VERTEX
  8
Unknown_Area_Type
  10
353990.917
  20
4675798.504
  0
VERTEX
  8
Unknown_Area_Type
  10
353991.000
  20
4675798.500
  0
VERTEX
  8
Unknown_Area_Type
  10
353941.572
  20
4674530.000
  0
VERTEX
  8
Unknown_Area_Type
  10
353933.389
  20
4674320.000
  0
VERTEX
  8
Unknown_Area_Type
  10
353930.000
  20
4674233.026
  0
VERTEX
  8
Unknown_Area_Type
  10
353927.934
  20
4674180.000
  0
VERTEX
  8
Unknown_Area_Type
  10
353833.500
  20
4671756.500
  0
VERTEX
  8
Unknown_Area_Type
  10
353833.103
  20
4671756.366
  0
VERTEX
  8
Unknown_Area_Type
  10
353620.000
  20
4671684.546
  0
VERTEX
  8
Unknown_Area_Type
  10
352898.742
  20
4671441.469
  0
VERTEX
  8
Unknown_Area_Type
  10
352431.779
  20
4671284.094
  0
SEQEND
  8
Unknown_Area_Type
  0
POLYLINE
  8
Unknown_Area_Type
  70
1
  66
1
  0
VERTEX
  8
Unknown_Area_Type
  10
370976.151
  20
4671165.427
  0
VERTEX
  8
Unknown_Area_Type
  10
369108.000
  20
4670776.500
  0
VERTEX
  8
Unknown_Area_Type
  10
369107.697
  20
4670776.645
  0
VERTEX
  8
Unknown_Area_Type
  10
369106.999
  20
4670776.980
  0
VERTEX
  8
Unknown_Area_Type
  10
368094.309
  20
4671262.352
  0
VERTEX
  8
Unknown_Area_Type
  10
368094.000
  20
4671262.500
  0
VERTEX
  8
Unknown_Area_Type
  10
368161.496
  20
4673920.000
  0
VERTEX
  8
Unknown_Area_Type
  10
368170.132
  20
4674260.000
  0
VERTEX
  8
Unknown_Area_Type
  10
368196.000
  20
4675278.500
  0
VERTEX
  8
Unknown_Area_Type
  10
368783.369
  20
4675342.384
  0
VERTEX
  8
Unknown_Area_Type
  10
369970.500
  20
4675471.500
  0
VERTEX
  8
Unknown_Area_Type
  10
369975.000
  20
4675472.000
  0
VERTEX
  8
Unknown_Area_Type
  10
370256.755
  20
4675502.361
  0
VERTEX
  8
Unknown_Area_Type
  10
370322.590
  20
4675509.456
  0
VERTEX
  8
Unknown_Area_Type
  10
370323.000
  20
4675509.500
  0
VERTEX
  8
Unknown_Area_Type
  10
371009.000
  20
4675174.500
  0
VERTEX
  8
Unknown_Area_Type
  10
371001.586
  20
4674260.000
  0
VERTEX
  8
Unknown_Area_Type
  10
370998.830
  20
4673920.000
  0
VERTEX
  8
Unknown_Area_Type
  10
370976.500
  20
4671165.500
  0
VERTEX
  8
Unknown_Area_Type
  10
370976.151
  20
4671165.427
  0
SEQEND
  8
Unknown_Area_Type
  0
POLYLINE
  8
Unknown_Area_Type
  70
1
  66
1
  0
VERTEX
  8
Unknown_Area_Type
  10
371870.000
  20
4670735.000
  0
VERTEX
  8
Unknown_Area_Type
  10
371869.000
  20
4670735.000
  0
VERTEX
  8
Unknown_Area_Type
  10
371864.500
  20
4670737.000
  0
VERTEX
  8
Unknown_Area_Type
  10
371216.930
  20
4671049.482
  0
VERTEX
  8
Unknown_Area_Type
  10
370976.500
  20
4671165.500
  0
VERTEX
  8
Unknown_Area_Type
  10
370998.830
  20
4673920.000
  0
VERTEX
  8
Unknown_Area_Type
  10
371001.586
  20
4674260.000
  0
VERTEX
  8
Unknown_Area_Type
  10
371009.000
  20
4675174.500
  0
VERTEX
  8
Unknown_Area_Type
  10
372022.000
  20
4675313.000
  0
VERTEX
  8
Unknown_Area_Type
  10
372026.000
  20
4675313.500
  0
VERTEX
  8
Unknown_Area_Type
  10
373902.306
  20
4675569.474
  0
VERTEX
  8
Unknown_Area_Type
  10
373902.486
  20
4675569.498
  0
VERTEX
  8
Unknown_Area_Type
  10
373902.500
  20
4675569.500
  0
VERTEX
  8
Unknown_Area_Type
  10
373865.625
  20
4674260.000
  0
VERTEX
  8
Unknown_Area_Type
  10
373856.051
  20
4673920.000
  0
VERTEX
  8
Unknown_Area_Type
  10
373775.500
  20
4671059.500
  0
VERTEX
  8
Unknown_Area_Type
  10
373775.000
  20
4671056.000
  0
VERTEX
  8
Unknown_Area_Type
  10
373770.500
  20
4671055.000
  0
VERTEX
  8
Unknown_Area_Type
  10
371873.000
  20
4670735.000
  0
VERTEX
  8
Unknown_Area_Type
  10
371870.000
  20
4670735.000
  0
SEQEND
  8
Unknown_Area_Type
  0
POLYLINE
  8
Unknown_Area_Type
  70
1
  66
1
  0
VERTEX
  8
Unknown_Area_Type
  10
367390.000
  20
4671108.688
  0
VERTEX
  8
Unknown_Area_Type
  10
366341.000
  20
4670879.500
  0
VERTEX
  8
Unknown_Area_Type
  10
366340.835
  20
4670879.573
  0
VERTEX
  8
Unknown_Area_Type
  10
366340.490
  20
4670879.727
  0
VERTEX
  8
Unknown_Area_Type
  10
365313.366
  20
4671336.837
  0
VERTEX
  8
Unknown_Area_Type
  10
365313.000
  20
4671337.000
  0
VERTEX
  8
Unknown_Area_Type
  10
365309.343
  20
4674050.000
  0
VERTEX
  8
Unknown_Area_Type
  10
365308.884
  20
4674390.000
  0
VERTEX
  8
Unknown_Area_Type
  10
365307.500
  20
4675417.000
  0
VERTEX
  8
Unknown_Area_Type
  10
365760.393
  20
4675454.412
  0
VERTEX
  8
Unknown_Area_Type
  10
367470.000
  20
4675595.635
  0
VERTEX
  8
Unknown_Area_Type
  10
367541.000
  20
4675601.500
  0
VERTEX
  8
Unknown_Area_Type
  10
367547.000
  20
4675602.000
  0
VERTEX
  8
Unknown_Area_Type
  10
367551.000
  20
4675602.000
  0
VERTEX
  8
Unknown_Area_Type
  10
367551.500
  20
4675602.000
  0
VERTEX
  8
Unknown_Area_Type
  10
367770.000
  20
4675492.326
  0
VERTEX
  8
Unknown_Area_Type
  10
368195.822
  20
4675278.589
  0
VERTEX
  8
Unknown_Area_Type
  10
368196.000
  20
4675278.500
  0
VERTEX
  8
Unknown_Area_Type
  10
368170.132
  20
4674260.000
  0
VERTEX
  8
Unknown_Area_Type
  10
368161.496
  20
4673920.000
  0
VERTEX
  8
Unknown_Area_Type
  10
368094.000
  20
4671262.500
  0
VERTEX
  8
Unknown_Area_Type
  10
368045.517
  20
4671251.907
  0
VERTEX
  8
Unknown_Area_Type
  10
367680.000
  20
4671172.048
  0
VERTEX
  8
Unknown_Area_Type
  10
367390.000
  20
4671108.688
  0
SEQEND
  8
Unknown_Area_Type
  0
POLYLINE
  8
Unknown_Area_Type
  70
1
  66
1
  0
VERTEX
  8
Unknown_Area_Type
  10
362255.428
  20
4671358.955
  0
VERTEX
  8
Unknown_Area_Type
  10
360863.500
  20
4670938.500
  0
VERTEX
  8
Unknown_Area_Type
  10
360863.294
  20
4670938.589
  0
VERTEX
  8
Unknown_Area_Type
  10
360810.000
  20
4670961.511
  0
VERTEX
  8
Unknown_Area_Type
  10
360500.000
  20
4671094.849
  0
VERTEX
  8
Unknown_Area_Type
  10
359582.080
  20
4671489.664
  0
VERTEX
  8
Unknown_Area_Type
  10
359572.000
  20
4671494.000
  0
VERTEX
  8
Unknown_Area_Type
  10
359630.928
  20
4674180.000
  0
VERTEX
  8
Unknown_Area_Type
  10
359638.607
  20
4674530.000
  0
VERTEX
  8
Unknown_Area_Type
  10
359661.500
  20
4675573.500
  0
VERTEX
  8
Unknown_Area_Type
  10
359662.000
  20
4675575.500
  0
VERTEX
  8
Unknown_Area_Type
  10
359717.000
  20
4675577.000
  0
VERTEX
  8
Unknown_Area_Type
  10
359735.000
  20
4675577.500
  0
VERTEX
  8
Unknown_Area_Type
  10
360600.000
  20
4675601.126
  0
VERTEX
  8
Unknown_Area_Type
  10
360900.000
  20
4675609.320
  0
VERTEX
  8
Unknown_Area_Type
  10
362187.525
  20
4675644.487
  0
VERTEX
  8
Unknown_Area_Type
  10
362188.000
  20
4675644.500
  0
VERTEX
  8
Unknown_Area_Type
  10
362482.943
  20
4675490.030
  0
VERTEX
  8
Unknown_Area_Type
  10
362483.000
  20
4675490.000
  0
VERTEX
  8
Unknown_Area_Type
  10
362470.317
  20
4674390.000
  0
VERTEX
  8
Unknown_Area_Type
  10
362466.397
  20
4674050.000
  0
VERTEX
  8
Unknown_Area_Type
  10
362436.000
  20
4671413.500
  0
VERTEX
  8
Unknown_Area_Type
  10
362255.428
  20
4671358.955
  0
SEQEND
  8
Unknown_Area_Type
  0
POLYLINE
  8
Unknown_Area_Type
  70
1
  66
1
  0
VERTEX
  8
Unknown_Area_Type
  10
348217.608
  20
4671910.362
  0
VERTEX
  8
Unknown_Area_Type
  10
346873.391
  20
4671435.788
  0
VERTEX
  8
Unknown_Area_Type
  10
346873.397
  20
4671436.084
  0
VERTEX
  8
Unknown_Area_Type
  10
346891.273
  20
4672258.503
  0
VERTEX
  8
Unknown_Area_Type
  10
346941.575
  20
4674571.805
  0
VERTEX
  8
Unknown_Area_Type
  10
346971.336
  20
4675939.928
  0
VERTEX
  8
Unknown_Area_Type
  10
346971.337
  20
4675939.958
  0
VERTEX
  8
Unknown_Area_Type
  10
347532.503
  20
4675895.725
  0
VERTEX
  8
Unknown_Area_Type
  10
348258.500
  20
4675838.500
  0
VERTEX
  8
Unknown_Area_Type
  10
348246.555
  20
4674680.000
  0
VERTEX
  8
Unknown_Area_Type
  10
348242.843
  20
4674320.000
  0
VERTEX
  8
Unknown_Area_Type
  10
348218.000
  20
4671910.500
  0
VERTEX
  8
Unknown_Area_Type
  10
348217.608
  20
4671910.362
  0
SEQEND
  8
Unknown_Area_Type
  0
POLYLINE
  8
Unknown_Area_Type
  70
1
  66
1
  0
VERTEX
  8
Unknown_Area_Type
  10
352343.000
  20
4684548.500
  0
VERTEX
  8
Unknown_Area_Type
  10
352342.000
  20
4684548.500
  0
VERTEX
  8
Unknown_Area_Type
  10
351723.000
  20
4684839.000
  0
VERTEX
  8
Unknown_Area_Type
  10
351723.010
  20
4684839.261
  0
VERTEX
  8
Unknown_Area_Type
  10
351858.742
  20
4688200.000
  0
VERTEX
  8
Unknown_Area_Type
  10
351864.911
  20
4688352.743
  0
VERTEX
  8
Unknown_Area_Type
  10
354109.470
  20
4688305.460
  0
VERTEX
  8
Unknown_Area_Type
  10
354593.826
  20
4688295.494
  0
VERTEX
  8
Unknown_Area_Type
  10
354589.216
  20
4688060.000
  0
VERTEX
  8
Unknown_Area_Type
  10
354525.000
  20
4684780.000
  0
VERTEX
  8
Unknown_Area_Type
  10
354523.545
  20
4684779.845
  0
VERTEX
  8
Unknown_Area_Type
  10
354210.000
  20
4684746.542
  0
VERTEX
  8
Unknown_Area_Type
  10
353910.000
  20
4684714.677
  0
VERTEX
  8
Unknown_Area_Type
  10
352345.500
  20
4684548.500
  0
VERTEX
  8
Unknown_Area_Type
  10
352343.000
  20
4684548.500
  0
SEQEND
  8
Unknown_Area_Type
  0
POLYLINE
  8
Unknown_Area_Type
  70
1
  66
1
  0
VERTEX
  8
Unknown_Area_Type
  10
356901.167
  20
4684724.944
  0
VERTEX
  8
Unknown_Area_Type
  10
355099.000
  20
4684506.500
  0
VERTEX
  8
Unknown_Area_Type
  10
354525.797
  20
4684779.620
  0
VERTEX
  8
Unknown_Area_Type
  10
354525.000
  20
4684780.000
  0
VERTEX
  8
Unknown_Area_Type
  10
354589.216
  20
4688060.000
  0
VERTEX
  8
Unknown_Area_Type
  10
354593.826
  20
4688295.494
  0
VERTEX
  8
Unknown_Area_Type
  10
357367.719
  20
4688238.419
  0
VERTEX
  8
Unknown_Area_Type
  10
357362.206
  20
4688060.000
  0
VERTEX
  8
Unknown_Area_Type
  10
357260.500
  20
4684768.500
  0
VERTEX
  8
Unknown_Area_Type
  10
356901.167
  20
4684724.944
  0
SEQEND
  8
Unknown_Area_Type
  0
POLYLINE
  8
Unknown_Area_Type
  70
1
  66
1
  0
VERTEX
  8
Unknown_Area_Type
  10
360742.891
  20
4684345.055
  0
VERTEX
  8
Unknown_Area_Type
  10
360742.500
  20
4684345.000
  0
VERTEX
  8
Unknown_Area_Type
  10
360368.750
  20
4684532.000
  0
VERTEX
  8
Unknown_Area_Type
  10
359995.000
  20
4684719.000
  0
VERTEX
  8
Unknown_Area_Type
  10
359995.035
  20
4684719.571
  0
VERTEX
  8
Unknown_Area_Type
  10
360201.683
  20
4688060.000
  0
VERTEX
  8
Unknown_Area_Type
  10
360209.184
  20
4688181.262
  0
VERTEX
  8
Unknown_Area_Type
  10
360209.563
  20
4688181.254
  0
VERTEX
  8
Unknown_Area_Type
  10
360975.099
  20
4688165.878
  0
VERTEX
  8
Unknown_Area_Type
  10
362901.240
  20
4688128.135
  0
VERTEX
  8
Unknown_Area_Type
  10
362902.508
  20
4687930.000
  0
VERTEX
  8
Unknown_Area_Type
  10
362923.500
  20
4684650.000
  0
VERTEX
  8
Unknown_Area_Type
  10
362922.080
  20
4684649.802
  0
VERTEX
  8
Unknown_Area_Type
  10
361080.000
  20
4684392.197
  0
VERTEX
  8
Unknown_Area_Type
  10
360988.539
  20
4684379.407
  0
VERTEX
  8
Unknown_Area_Type
  10
360780.000
  20
4684350.244
  0
VERTEX
  8
Unknown_Area_Type
  10
360742.891
  20
4684345.055
  0
SEQEND
  8
Unknown_Area_Type
  0
POLYLINE
  8
Unknown_Area_Type
  70
1
  66
1
  0
VERTEX
  8
Unknown_Area_Type
  10
363559.271
  20
4684348.609
  0
VERTEX
  8
Unknown_Area_Type
  10
363558.500
  20
4684348.500
  0
VERTEX
  8
Unknown_Area_Type
  10
362924.273
  20
4684649.633
  0
VERTEX
  8
Unknown_Area_Type
  10
362923.500
  20
4684650.000
  0
VERTEX
  8
Unknown_Area_Type
  10
362902.508
  20
4687930.000
  0
VERTEX
  8
Unknown_Area_Type
  10
362901.240
  20
4688128.135
  0
VERTEX
  8
Unknown_Area_Type
  10
364407.903
  20
4688098.612
  0
VERTEX
  8
Unknown_Area_Type
  10
365740.871
  20
4688073.145
  0
VERTEX
  8
Unknown_Area_Type
  10
365736.040
  20
4687930.000
  0
VERTEX
  8
Unknown_Area_Type
  10
365625.015
  20
4684640.431
  0
VERTEX
  8
Unknown_Area_Type
  10
365625.000
  20
4684640.000
  0
VERTEX
  8
Unknown_Area_Type
  10
364097.317
  20
4684424.505
  0
VERTEX
  8
Unknown_Area_Type
  10
363559.271
  20
4684348.609
  0
SEQEND
  8
Unknown_Area_Type
  0
POLYLINE
  8
Unknown_Area_Type
  70
1
  66
1
  0
VERTEX
  8
Unknown_Area_Type
  10
349550.905
  20
4684598.045
  0
VERTEX
  8
Unknown_Area_Type
  10
349550.500
  20
4684598.000
  0
VERTEX
  8
Unknown_Area_Type
  10
349462.426
  20
4684639.442
  0
VERTEX
  8
Unknown_Area_Type
  10
348931.000
  20
4684889.500
  0
VERTEX
  8
Unknown_Area_Type
  10
349093.027
  20
4688200.000
  0
VERTEX
  8
Unknown_Area_Type
  10
349103.387
  20
4688411.688
  0
VERTEX
  8
Unknown_Area_Type
  10
349103.436
  20
4688411.687
  0
VERTEX
  8
Unknown_Area_Type
  10
350676.644
  20
4688377.775
  0
VERTEX
  8
Unknown_Area_Type
  10
351864.853
  20
4688352.744
  0
VERTEX
  8
Unknown_Area_Type
  10
351858.665
  20
4688200.000
  0
VERTEX
  8
Unknown_Area_Type
  10
351722.520
  20
4684839.491
  0
VERTEX
  8
Unknown_Area_Type
  10
351722.500
  20
4684839.000
  0
VERTEX
  8
Unknown_Area_Type
  10
349767.723
  20
4684622.103
  0
VERTEX
  8
Unknown_Area_Type
  10
349550.905
  20
4684598.045
  0
SEQEND
  8
Unknown_Area_Type
  0
POLYLINE
  8
Unknown_Area_Type
  70
1
  66
1
  0
VERTEX
  8
Unknown_Area_Type
  10
357921.788
  20
4684452.101
  0
VERTEX
  8
Unknown_Area_Type
  10
357921.000
  20
4684452.000
  0
VERTEX
  8
Unknown_Area_Type
  10
357260.701
  20
4684768.404
  0
VERTEX
  8
Unknown_Area_Type
  10
357260.500
  20
4684768.500
  0
VERTEX
  8
Unknown_Area_Type
  10
357362.206
  20
4688060.000
  0
VERTEX
  8
Unknown_Area_Type
  10
357367.719
  20
4688238.419
  0
VERTEX
  8
Unknown_Area_Type
  10
357542.288
  20
4688234.827
  0
VERTEX
  8
Unknown_Area_Type
  10
360209.184
  20
4688181.262
  0
VERTEX
  8
Unknown_Area_Type
  10
360209.563
  20
4688181.254
  0
VERTEX
  8
Unknown_Area_Type
  10
360202.064
  20
4688060.000
  0
VERTEX
  8
Unknown_Area_Type
  10
359996.500
  20
4684736.500
  0
VERTEX
  8
Unknown_Area_Type
  10
359995.500
  20
4684720.500
  0
VERTEX
  8
Unknown_Area_Type
  10
359995.035
  20
4684719.571
  0
VERTEX
  8
Unknown_Area_Type
  10
359994.700
  20
4684718.900
  0
VERTEX
  8
Unknown_Area_Type
  10
359994.500
  20
4684718.500
  0
VERTEX
  8
Unknown_Area_Type
  10
358335.589
  20
4684505.286
  0
VERTEX
  8
Unknown_Area_Type
  10
357921.788
  20
4684452.101
  0
SEQEND
  8
Unknown_Area_Type
  0
POLYLINE
  8
Unknown_Area_Type
  70
1
  66
1
  0
VERTEX
  8
Unknown_Area_Type
  10
369095.897
  20
4684187.053
  0
VERTEX
  8
Unknown_Area_Type
  10
369095.500
  20
4684187.000
  0
VERTEX
  8
Unknown_Area_Type
  10
368375.908
  20
4684558.723
  0
VERTEX
  8
Unknown_Area_Type
  10
368371.500
  20
4684561.000
  0
VERTEX
  8
Unknown_Area_Type
  10
368371.537
  20
4684561.537
  0
VERTEX
  8
Unknown_Area_Type
  10
368596.437
  20
4687800.000
  0
VERTEX
  8
Unknown_Area_Type
  10
368611.623
  20
4688018.677
  0
VERTEX
  8
Unknown_Area_Type
  10
368612.022
  20
4688018.670
  0
VERTEX
  8
Unknown_Area_Type
  10
371273.492
  20
4687969.127
  0
VERTEX
  8
Unknown_Area_Type
  10
371371.758
  20
4687967.345
  0
VERTEX
  8
Unknown_Area_Type
  10
371365.495
  20
4687800.000
  0
VERTEX
  8
Unknown_Area_Type
  10
371241.000
  20
4684473.500
  0
VERTEX
  8
Unknown_Area_Type
  10
371240.199
  20
4684473.393
  0
VERTEX
  8
Unknown_Area_Type
  10
369705.757
  20
4684268.491
  0
VERTEX
  8
Unknown_Area_Type
  10
369095.897
  20
4684187.053
  0
SEQEND
  8
Unknown_Area_Type
  0
POLYLINE
  8
Unknown_Area_Type
  70
1
  66
1
  0
VERTEX
  8
Unknown_Area_Type
  10
374004.500
  20
4684438.000
  0
VERTEX
  8
Unknown_Area_Type
  10
371852.500
  20
4684144.000
  0
VERTEX
  8
Unknown_Area_Type
  10
371852.247
  20
4684144.136
  0
VERTEX
  8
Unknown_Area_Type
  10
371499.782
  20
4684334.058
  0
VERTEX
  8
Unknown_Area_Type
  10
371241.000
  20
4684473.500
  0
VERTEX
  8
Unknown_Area_Type
  10
371365.495
  20
4687800.000
  0
VERTEX
  8
Unknown_Area_Type
  10
371371.758
  20
4687967.345
  0
VERTEX
  8
Unknown_Area_Type
  10
374182.950
  20
4687916.393
  0
VERTEX
  8
Unknown_Area_Type
  10
374182.989
  20
4687916.392
  0
VERTEX
  8
Unknown_Area_Type
  10
374177.016
  20
4687800.000
  0
VERTEX
  8
Unknown_Area_Type
  10
374075.500
  20
4685821.648
  0
VERTEX
  8
Unknown_Area_Type
  10
374004.500
  20
4684438.000
  0
SEQEND
  8
Unknown_Area_Type
  0
POLYLINE
  8
Unknown_Area_Type
  70
1
  66
1
  0
VERTEX
  8
Unknown_Area_Type
  10
367650.000
  20
4684460.555
  0
VERTEX
  8
Unknown_Area_Type
  10
366352.000
  20
4684280.500
  0
VERTEX
  8
Unknown_Area_Type
  10
366351.993
  20
4684280.504
  0
VERTEX
  8
Unknown_Area_Type
  10
365625.500
  20
4684640.000
  0
VERTEX
  8
Unknown_Area_Type
  10
365625.517
  20
4684640.492
  0
VERTEX
  8
Unknown_Area_Type
  10
365736.107
  20
4687930.000
  0
VERTEX
  8
Unknown_Area_Type
  10
365740.919
  20
4688073.144
  0
VERTEX
  8
Unknown_Area_Type
  10
367840.701
  20
4688033.028
  0
VERTEX
  8
Unknown_Area_Type
  10
368611.623
  20
4688018.677
  0
VERTEX
  8
Unknown_Area_Type
  10
368612.022
  20
4688018.670
  0
VERTEX
  8
Unknown_Area_Type
  10
368596.840
  20
4687800.000
  0
VERTEX
  8
Unknown_Area_Type
  10
368373.000
  20
4684576.000
  0
VERTEX
  8
Unknown_Area_Type
  10
368372.000
  20
4684562.000
  0
VERTEX
  8
Unknown_Area_Type
  10
368371.537
  20
4684561.537
  0
VERTEX
  8
Unknown_Area_Type
  10
368370.852
  20
4684560.852
  0
VERTEX
  8
Unknown_Area_Type
  10
368370.500
  20
4684560.500
  0
VERTEX
  8
Unknown_Area_Type
  10
367950.000
  20
4684502.170
  0
VERTEX
  8
Unknown_Area_Type
  10
367650.000
  20
4684460.555
  0
SEQEND
  8
Unknown_Area_Type
  0
POLYLINE
  8
Unknown_Area_Type
  70
1
  66
1
  0
VERTEX
  8
Unknown_Area_Type
  10
352079.739
  20
4680409.726
  0
VERTEX
  8
Unknown_Area_Type
  10
351305.000
  20
4680080.500
  0
VERTEX
  8
Unknown_Area_Type
  10
351304.689
  20
4680080.580
  0
VERTEX
  8
Unknown_Area_Type
  10
350965.759
  20
4680168.304
  0
VERTEX
  8
Unknown_Area_Type
  10
349567.575
  20
4680530.187
  0
VERTEX
  8
Unknown_Area_Type
  10
349562.500
  20
4680531.500
  0
VERTEX
  8
Unknown_Area_Type
  10
349553.907
  20
4683570.000
  0
VERTEX
  8
Unknown_Area_Type
  10
349552.889
  20
4683930.000
  0
VERTEX
  8
Unknown_Area_Type
  10
349551.000
  20
4684598.000
  0
VERTEX
  8
Unknown_Area_Type
  10
349767.723
  20
4684622.103
  0
VERTEX
  8
Unknown_Area_Type
  10
351718.000
  20
4684839.000
  0
VERTEX
  8
Unknown_Area_Type
  10
351722.500
  20
4684839.500
  0
VERTEX
  8
Unknown_Area_Type
  10
351722.520
  20
4684839.491
  0
VERTEX
  8
Unknown_Area_Type
  10
351723.010
  20
4684839.261
  0
VERTEX
  8
Unknown_Area_Type
  10
352343.000
  20
4684548.500
  0
VERTEX
  8
Unknown_Area_Type
  10
352341.159
  20
4683930.000
  0
VERTEX
  8
Unknown_Area_Type
  10
352340.088
  20
4683570.000
  0
VERTEX
  8
Unknown_Area_Type
  10
352331.000
  20
4680516.500
  0
VERTEX
  8
Unknown_Area_Type
  10
352079.739
  20
4680409.726
  0
SEQEND
  8
Unknown_Area_Type
  0
POLYLINE
  8
Unknown_Area_Type
  70
1
  66
1
  0
VERTEX
  8
Unknown_Area_Type
  10
354120.000
  20
4680083.140
  0
VERTEX
  8
Unknown_Area_Type
  10
354076.000
  20
4680064.000
  0
VERTEX
  8
Unknown_Area_Type
  10
354075.352
  20
4680064.153
  0
VERTEX
  8
Unknown_Area_Type
  10
354064.921
  20
4680066.616
  0
VERTEX
  8
Unknown_Area_Type
  10
354040.000
  20
4680072.500
  0
VERTEX
  8
Unknown_Area_Type
  10
353810.000
  20
4680132.254
  0
VERTEX
  8
Unknown_Area_Type
  10
352331.310
  20
4680516.419
  0
VERTEX
  8
Unknown_Area_Type
  10
352331.000
  20
4680516.500
  0
VERTEX
  8
Unknown_Area_Type
  10
352340.088
  20
4683570.000
  0
VERTEX
  8
Unknown_Area_Type
  10
352341.159
  20
4683930.000
  0
VERTEX
  8
Unknown_Area_Type
  10
352343.000
  20
4684548.500
  0
VERTEX
  8
Unknown_Area_Type
  10
353910.000
  20
4684715.003
  0
VERTEX
  8
Unknown_Area_Type
  10
354210.000
  20
4684746.880
  0
VERTEX
  8
Unknown_Area_Type
  10
354517.000
  20
4684779.500
  0
VERTEX
  8
Unknown_Area_Type
  10
354522.000
  20
4684780.000
  0
VERTEX
  8
Unknown_Area_Type
  10
354523.545
  20
4684779.845
  0
VERTEX
  8
Unknown_Area_Type
  10
354525.797
  20
4684779.620
  0
VERTEX
  8
Unknown_Area_Type
  10
354527.000
  20
4684779.500
  0
VERTEX
  8
Unknown_Area_Type
  10
355099.000
  20
4684507.000
  0
VERTEX
  8
Unknown_Area_Type
  10
355099.000
  20
4684506.500
  0
VERTEX
  8
Unknown_Area_Type
  10
355101.094
  20
4683780.000
  0
VERTEX
  8
Unknown_Area_Type
  10
355102.102
  20
4683430.000
  0
VERTEX
  8
Unknown_Area_Type
  10
355110.500
  20
4680514.000
  0
VERTEX
  8
Unknown_Area_Type
  10
355110.311
  20
4680513.918
  0
VERTEX
  8
Unknown_Area_Type
  10
354120.000
  20
4680083.140
  0
SEQEND
  8
Unknown_Area_Type
  0
POLYLINE
  8
Unknown_Area_Type
  70
1
  66
1
  0
VERTEX
  8
Unknown_Area_Type
  10
348925.000
  20
4684888.500
  0
VERTEX
  8
Unknown_Area_Type
  10
347162.435
  20
4684717.787
  0
VERTEX
  8
Unknown_Area_Type
  10
347162.441
  20
4684718.076
  0
VERTEX
  8
Unknown_Area_Type
  10
347193.388
  20
4686138.426
  0
VERTEX
  8
Unknown_Area_Type
  10
347243.811
  20
4688451.773
  0
VERTEX
  8
Unknown_Area_Type
  10
349103.387
  20
4688411.688
  0
VERTEX
  8
Unknown_Area_Type
  10
349103.436
  20
4688411.687
  0
VERTEX
  8
Unknown_Area_Type
  10
349093.095
  20
4688200.000
  0
VERTEX
  8
Unknown_Area_Type
  10
348931.500
  20
4684892.000
  0
VERTEX
  8
Unknown_Area_Type
  10
348931.000
  20
4684889.500
  0
VERTEX
  8
Unknown_Area_Type
  10
348930.262
  20
4684889.377
  0
VERTEX
  8
Unknown_Area_Type
  10
348925.000
  20
4684888.500
  0
SEQEND
  8
Unknown_Area_Type
  0
POLYLINE
  8
Unknown_Area_Type
  70
1
  66
1
  0
VERTEX
  8
Unknown_Area_Type
  10
363523.055
  20
4680371.852
  0
VERTEX
  8
Unknown_Area_Type
  10
362250.500
  20
4679948.000
  0
VERTEX
  8
Unknown_Area_Type
  10
362250.493
  20
4679948.002
  0
VERTEX
  8
Unknown_Area_Type
  10
360990.000
  20
4680333.268
  0
VERTEX
  8
Unknown_Area_Type
  10
360727.500
  20
4680413.500
  0
VERTEX
  8
Unknown_Area_Type
  10
360739.393
  20
4683430.000
  0
VERTEX
  8
Unknown_Area_Type
  10
360740.221
  20
4683640.000
  0
VERTEX
  8
Unknown_Area_Type
  10
360740.773
  20
4683780.000
  0
VERTEX
  8
Unknown_Area_Type
  10
360743.000
  20
4684345.000
  0
VERTEX
  8
Unknown_Area_Type
  10
360780.000
  20
4684350.185
  0
VERTEX
  8
Unknown_Area_Type
  10
360988.539
  20
4684379.407
  0
VERTEX
  8
Unknown_Area_Type
  10
361080.000
  20
4684392.223
  0
VERTEX
  8
Unknown_Area_Type
  10
362916.000
  20
4684649.500
  0
VERTEX
  8
Unknown_Area_Type
  10
362919.500
  20
4684650.000
  0
VERTEX
  8
Unknown_Area_Type
  10
362922.080
  20
4684649.802
  0
VERTEX
  8
Unknown_Area_Type
  10
362924.273
  20
4684649.633
  0
VERTEX
  8
Unknown_Area_Type
  10
362926.000
  20
4684649.500
  0
VERTEX
  8
Unknown_Area_Type
  10
363559.271
  20
4684348.609
  0
VERTEX
  8
Unknown_Area_Type
  10
363559.500
  20
4684348.500
  0
VERTEX
  8
Unknown_Area_Type
  10
363553.086
  20
4683640.000
  0
VERTEX
  8
Unknown_Area_Type
  10
363550.008
  20
4683300.000
  0
VERTEX
  8
Unknown_Area_Type
  10
363523.500
  20
4680372.000
  0
VERTEX
  8
Unknown_Area_Type
  10
363523.055
  20
4680371.852
  0
SEQEND
  8
Unknown_Area_Type
  0
POLYLINE
  8
Unknown_Area_Type
  70
1
  66
1
  0
VERTEX
  8
Unknown_Area_Type
  10
360690.000
  20
4680399.542
  0
VERTEX
  8
Unknown_Area_Type
  10
359579.000
  20
4679986.000
  0
VERTEX
  8
Unknown_Area_Type
  10
359578.036
  20
4679986.199
  0
VERTEX
  8
Unknown_Area_Type
  10
359572.934
  20
4679987.255
  0
VERTEX
  8
Unknown_Area_Type
  10
359564.500
  20
4679989.000
  0
VERTEX
  8
Unknown_Area_Type
  10
358439.112
  20
4680298.904
  0
VERTEX
  8
Unknown_Area_Type
  10
357899.500
  20
4680447.500
  0
VERTEX
  8
Unknown_Area_Type
  10
357916.258
  20
4683430.000
  0
VERTEX
  8
Unknown_Area_Type
  10
357918.224
  20
4683780.000
  0
VERTEX
  8
Unknown_Area_Type
  10
357922.000
  20
4684452.000
  0
VERTEX
  8
Unknown_Area_Type
  10
358335.589
  20
4684505.286
  0
VERTEX
  8
Unknown_Area_Type
  10
359990.500
  20
4684718.500
  0
VERTEX
  8
Unknown_Area_Type
  10
359994.500
  20
4684719.000
  0
VERTEX
  8
Unknown_Area_Type
  10
359994.700
  20
4684718.900
  0
VERTEX
  8
Unknown_Area_Type
  10
360368.750
  20
4684532.000
  0
VERTEX
  8
Unknown_Area_Type
  10
360742.891
  20
4684345.055
  0
VERTEX
  8
Unknown_Area_Type
  10
360743.000
  20
4684345.000
  0
VERTEX
  8
Unknown_Area_Type
  10
360740.773
  20
4683780.000
  0
VERTEX
  8
Unknown_Area_Type
  10
360740.221
  20
4683640.000
  0
VERTEX
  8
Unknown_Area_Type
  10
360739.393
  20
4683430.000
  0
VERTEX
  8
Unknown_Area_Type
  10
360727.500
  20
4680413.500
  0
VERTEX
  8
Unknown_Area_Type
  10
360690.000
  20
4680399.542
  0
SEQEND
  8
Unknown_Area_Type
  0
POLYLINE
  8
Unknown_Area_Type
  70
1
  66
1
  0
VERTEX
  8
Unknown_Area_Type
  10
357899.094
  20
4680447.337
  0
VERTEX
  8
Unknown_Area_Type
  10
356895.000
  20
4680044.000
  0
VERTEX
  8
Unknown_Area_Type
  10
356894.396
  20
4680044.159
  0
VERTEX
  8
Unknown_Area_Type
  10
355701.712
  20
4680358.287
  0
VERTEX
  8
Unknown_Area_Type
  10
355643.952
  20
4680373.500
  0
VERTEX
  8
Unknown_Area_Type
  10
355110.500
  20
4680514.000
  0
VERTEX
  8
Unknown_Area_Type
  10
355102.102
  20
4683430.000
  0
VERTEX
  8
Unknown_Area_Type
  10
355101.094
  20
4683780.000
  0
VERTEX
  8
Unknown_Area_Type
  10
355099.000
  20
4684506.500
  0
VERTEX
  8
Unknown_Area_Type
  10
355636.000
  20
4684572.000
  0
VERTEX
  8
Unknown_Area_Type
  10
355640.000
  20
4684572.500
  0
VERTEX
  8
Unknown_Area_Type
  10
356901.167
  20
4684724.944
  0
VERTEX
  8
Unknown_Area_Type
  10
357260.701
  20
4684768.404
  0
VERTEX
  8
Unknown_Area_Type
  10
357261.500
  20
4684768.500
  0
VERTEX
  8
Unknown_Area_Type
  10
357921.788
  20
4684452.101
  0
VERTEX
  8
Unknown_Area_Type
  10
357922.000
  20
4684452.000
  0
VERTEX
  8
Unknown_Area_Type
  10
357918.224
  20
4683780.000
  0
VERTEX
  8
Unknown_Area_Type
  10
357916.258
  20
4683430.000
  0
VERTEX
  8
Unknown_Area_Type
  10
357899.500
  20
4680447.500
  0
VERTEX
  8
Unknown_Area_Type
  10
357899.094
  20
4680447.337
  0
SEQEND
  8
Unknown_Area_Type
  0
POLYLINE
  8
Unknown_Area_Type
  70
1
  66
1
  0
VERTEX
  8
Unknown_Area_Type
  10
371902.448
  20
4680138.342
  0
VERTEX
  8
Unknown_Area_Type
  10
370515.500
  20
4679741.000
  0
VERTEX
  8
Unknown_Area_Type
  10
370515.029
  20
4679741.151
  0
VERTEX
  8
Unknown_Area_Type
  10
369812.000
  20
4679967.250
  0
VERTEX
  8
Unknown_Area_Type
  10
369108.980
  20
4680193.345
  0
VERTEX
  8
Unknown_Area_Type
  10
369108.500
  20
4680193.500
  0
VERTEX
  8
Unknown_Area_Type
  10
369099.152
  20
4683180.000
  0
VERTEX
  8
Unknown_Area_Type
  10
369098.119
  20
4683510.000
  0
VERTEX
  8
Unknown_Area_Type
  10
369096.000
  20
4684187.000
  0
VERTEX
  8
Unknown_Area_Type
  10
369705.757
  20
4684268.491
  0
VERTEX
  8
Unknown_Area_Type
  10
371236.000
  20
4684473.000
  0
VERTEX
  8
Unknown_Area_Type
  10
371240.000
  20
4684473.500
  0
VERTEX
  8
Unknown_Area_Type
  10
371240.199
  20
4684473.393
  0
VERTEX
  8
Unknown_Area_Type
  10
371499.782
  20
4684334.058
  0
VERTEX
  8
Unknown_Area_Type
  10
371852.000
  20
4684145.000
  0
VERTEX
  8
Unknown_Area_Type
  10
371852.247
  20
4684144.136
  0
VERTEX
  8
Unknown_Area_Type
  10
371852.510
  20
4684143.215
  0
VERTEX
  8
Unknown_Area_Type
  10
371853.000
  20
4684141.500
  0
VERTEX
  8
Unknown_Area_Type
  10
371860.888
  20
4683510.000
  0
VERTEX
  8
Unknown_Area_Type
  10
371865.010
  20
4683180.000
  0
VERTEX
  8
Unknown_Area_Type
  10
371903.000
  20
4680138.500
  0
VERTEX
  8
Unknown_Area_Type
  10
371902.448
  20
4680138.342
  0
SEQEND
  8
Unknown_Area_Type
  0
POLYLINE
  8
Unknown_Area_Type
  70
1
  66
1
  0
VERTEX
  8
Unknown_Area_Type
  10
367860.000
  20
4679821.586
  0
VERTEX
  8
Unknown_Area_Type
  10
367806.000
  20
4679805.500
  0
VERTEX
  8
Unknown_Area_Type
  10
367805.697
  20
4679805.599
  0
VERTEX
  8
Unknown_Area_Type
  10
367560.000
  20
4679885.603
  0
VERTEX
  8
Unknown_Area_Type
  10
367427.840
  20
4679928.636
  0
VERTEX
  8
Unknown_Area_Type
  10
366293.500
  20
4680298.000
  0
VERTEX
  8
Unknown_Area_Type
  10
366337.597
  20
4683300.000
  0
VERTEX
  8
Unknown_Area_Type
  10
366342.591
  20
4683640.000
  0
VERTEX
  8
Unknown_Area_Type
  10
366352.000
  20
4684280.500
  0
VERTEX
  8
Unknown_Area_Type
  10
367650.000
  20
4684460.867
  0
VERTEX
  8
Unknown_Area_Type
  10
367950.000
  20
4684502.555
  0
VERTEX
  8
Unknown_Area_Type
  10
368367.000
  20
4684560.500
  0
VERTEX
  8
Unknown_Area_Type
  10
368370.500
  20
4684561.000
  0
VERTEX
  8
Unknown_Area_Type
  10
368370.852
  20
4684560.852
  0
VERTEX
  8
Unknown_Area_Type
  10
368375.908
  20
4684558.723
  0
VERTEX
  8
Unknown_Area_Type
  10
368380.000
  20
4684557.000
  0
VERTEX
  8
Unknown_Area_Type
  10
369095.897
  20
4684187.053
  0
VERTEX
  8
Unknown_Area_Type
  10
369096.000
  20
4684187.000
  0
VERTEX
  8
Unknown_Area_Type
  10
369098.119
  20
4683510.000
  0
VERTEX
  8
Unknown_Area_Type
  10
369099.152
  20
4683180.000
  0
VERTEX
  8
Unknown_Area_Type
  10
369108.500
  20
4680193.500
  0
VERTEX
  8
Unknown_Area_Type
  10
368615.350
  20
4680046.596
  0
VERTEX
  8
Unknown_Area_Type
  10
367860.000
  20
4679821.586
  0
SEQEND
  8
Unknown_Area_Type
  0
POLYLINE
  8
Unknown_Area_Type
  70
1
  66
1
  0
VERTEX
  8
Unknown_Area_Type
  10
366293.500
  20
4680298.000
  0
VERTEX
  8
Unknown_Area_Type
  10
365030.500
  20
4679888.500
  0
VERTEX
  8
Unknown_Area_Type
  10
365029.550
  20
4679888.678
  0
VERTEX
  8
Unknown_Area_Type
  10
365026.894
  20
4679889.176
  0
VERTEX
  8
Unknown_Area_Type
  10
365022.500
  20
4679890.000
  0
VERTEX
  8
Unknown_Area_Type
  10
363868.157
  20
4680261.176
  0
VERTEX
  8
Unknown_Area_Type
  10
363834.500
  20
4680271.999
  0
VERTEX
  8
Unknown_Area_Type
  10
363528.359
  20
4680370.438
  0
VERTEX
  8
Unknown_Area_Type
  10
363523.500
  20
4680372.000
  0
VERTEX
  8
Unknown_Area_Type
  10
363550.008
  20
4683300.000
  0
VERTEX
  8
Unknown_Area_Type
  10
363553.086
  20
4683640.000
  0
VERTEX
  8
Unknown_Area_Type
  10
363559.500
  20
4684348.500
  0
VERTEX
  8
Unknown_Area_Type
  10
363832.000
  20
4684387.000
  0
VERTEX
  8
Unknown_Area_Type
  10
363835.500
  20
4684387.500
  0
VERTEX
  8
Unknown_Area_Type
  10
364097.317
  20
4684424.505
  0
VERTEX
  8
Unknown_Area_Type
  10
365625.015
  20
4684640.431
  0
VERTEX
  8
Unknown_Area_Type
  10
365625.500
  20
4684640.500
  0
VERTEX
  8
Unknown_Area_Type
  10
365625.517
  20
4684640.492
  0
VERTEX
  8
Unknown_Area_Type
  10
366352.000
  20
4684281.000
  0
VERTEX
  8
Unknown_Area_Type
  10
366351.993
  20
4684280.504
  0
VERTEX
  8
Unknown_Area_Type
  10
366342.585
  20
4683640.000
  0
VERTEX
  8
Unknown_Area_Type
  10
366337.592
  20
4683300.000
  0
VERTEX
  8
Unknown_Area_Type
  10
366293.500
  20
4680298.000
  0
SEQEND
  8
Unknown_Area_Type
  0
POLYLINE
  8
Unknown_Area_Type
  70
1
  66
1
  0
VERTEX
  8
Unknown_Area_Type
  10
374554.087
  20
4679388.748
  0
VERTEX
  8
Unknown_Area_Type
  10
374467.500
  20
4679320.000
  0
VERTEX
  8
Unknown_Area_Type
  10
374467.144
  20
4679320.114
  0
VERTEX
  8
Unknown_Area_Type
  10
374440.000
  20
4679328.777
  0
VERTEX
  8
Unknown_Area_Type
  10
373781.582
  20
4679538.921
  0
VERTEX
  8
Unknown_Area_Type
  10
371904.640
  20
4680137.977
  0
VERTEX
  8
Unknown_Area_Type
  10
371903.000
  20
4680138.500
  0
VERTEX
  8
Unknown_Area_Type
  10
371864.654
  20
4683180.000
  0
VERTEX
  8
Unknown_Area_Type
  10
371860.493
  20
4683510.000
  0
VERTEX
  8
Unknown_Area_Type
  10
371852.510
  20
4684143.215
  0
VERTEX
  8
Unknown_Area_Type
  10
371852.500
  20
4684144.000
  0
VERTEX
  8
Unknown_Area_Type
  10
373998.500
  20
4684437.500
  0
VERTEX
  8
Unknown_Area_Type
  10
374002.000
  20
4684438.000
  0
VERTEX
  8
Unknown_Area_Type
  10
374004.500
  20
4684438.000
  0
VERTEX
  8
Unknown_Area_Type
  10
374005.500
  20
4684438.000
  0
VERTEX
  8
Unknown_Area_Type
  10
374520.000
  20
4684149.810
  0
VERTEX
  8
Unknown_Area_Type
  10
374637.943
  20
4684083.746
  0
VERTEX
  8
Unknown_Area_Type
  10
374637.937
  20
4684083.378
  0
VERTEX
  8
Unknown_Area_Type
  10
374623.586
  20
4683280.297
  0
VERTEX
  8
Unknown_Area_Type
  10
374582.266
  20
4680967.003
  0
VERTEX
  8
Unknown_Area_Type
  10
374554.089
  20
4679388.870
  0
VERTEX
  8
Unknown_Area_Type
  10
374554.087
  20
4679388.748
  0
SEQEND
  8
Unknown_Area_Type
  0
POLYLINE
  8
Unknown_Area_Type
  70
1
  66
1
  0
VERTEX
  8
Unknown_Area_Type
  10
348644.168
  20
4680118.576
  0
VERTEX
  8
Unknown_Area_Type
  10
348644.000
  20
4680118.500
  0
VERTEX
  8
Unknown_Area_Type
  10
347070.069
  20
4680476.747
  0
VERTEX
  8
Unknown_Area_Type
  10
347070.070
  20
4680476.813
  0
VERTEX
  8
Unknown_Area_Type
  10
347092.602
  20
4681511.755
  0
VERTEX
  8
Unknown_Area_Type
  10
347142.985
  20
4683825.087
  0
VERTEX
  8
Unknown_Area_Type
  10
347162.435
  20
4684717.787
  0
VERTEX
  8
Unknown_Area_Type
  10
347162.441
  20
4684718.076
  0
VERTEX
  8
Unknown_Area_Type
  10
348930.000
  20
4684889.500
  0
VERTEX
  8
Unknown_Area_Type
  10
348930.262
  20
4684889.377
  0
VERTEX
  8
Unknown_Area_Type
  10
349462.426
  20
4684639.442
  0
VERTEX
  8
Unknown_Area_Type
  10
349498.500
  20
4684622.500
  0
VERTEX
  8
Unknown_Area_Type
  10
349500.000
  20
4684622.000
  0
VERTEX
  8
Unknown_Area_Type
  10
349550.905
  20
4684598.045
  0
VERTEX
  8
Unknown_Area_Type
  10
349551.000
  20
4684598.000
  0
VERTEX
  8
Unknown_Area_Type
  10
349552.889
  20
4683930.000
  0
VERTEX
  8
Unknown_Area_Type
  10
349553.907
  20
4683570.000
  0
VERTEX
  8
Unknown_Area_Type
  10
349562.500
  20
4680531.500
  0
VERTEX
  8
Unknown_Area_Type
  10
349562.175
  20
4680531.354
  0
VERTEX
  8
Unknown_Area_Type
  10
348644.492
  20
4680118.721
  0
VERTEX
  8
Unknown_Area_Type
  10
348644.168
  20
4680118.576
  0
SEQEND
  8
Unknown_Area_Type
  0
POLYLINE
  8
Unknown_Area_Type
  70
1
  66
1
  0
VERTEX
  8
Unknown_Area_Type
  10
374399.872
  20
4670744.479
  0
VERTEX
  8
Unknown_Area_Type
  10
374399.863
  20
4670743.984
  0
VERTEX
  8
Unknown_Area_Type
  10
374270.000
  20
4670808.829
  0
VERTEX
  8
Unknown_Area_Type
  10
373775.000
  20
4671056.000
  0
VERTEX
  8
Unknown_Area_Type
  10
373855.895
  20
4673920.000
  0
VERTEX
  8
Unknown_Area_Type
  10
373865.498
  20
4674260.000
  0
VERTEX
  8
Unknown_Area_Type
  10
373902.486
  20
4675569.498
  0
VERTEX
  8
Unknown_Area_Type
  10
373902.500
  20
4675570.000
  0
VERTEX
  8
Unknown_Area_Type
  10
374350.000
  20
4675897.820
  0
VERTEX
  8
Unknown_Area_Type
  10
374375.500
  20
4675916.500
  0
VERTEX
  8
Unknown_Area_Type
  10
374376.000
  20
4675917.500
  0
VERTEX
  8
Unknown_Area_Type
  10
374377.000
  20
4675917.500
  0
VERTEX
  8
Unknown_Area_Type
  10
374378.500
  20
4675917.500
  0
VERTEX
  8
Unknown_Area_Type
  10
374405.000
  20
4675907.000
  0
VERTEX
  8
Unknown_Area_Type
  10
374491.330
  20
4675872.601
  0
VERTEX
  8
Unknown_Area_Type
  10
374491.319
  20
4675871.962
  0
VERTEX
  8
Unknown_Area_Type
  10
374458.407
  20
4674027.169
  0
VERTEX
  8
Unknown_Area_Type
  10
374417.153
  20
4671713.907
  0
VERTEX
  8
Unknown_Area_Type
  10
374399.872
  20
4670744.479
  0
SEQEND
  8
Unknown_Area_Type
  0
POLYLINE
  8
Unknown_Area_Type
  70
1
  66
1
  0
VERTEX
  8
Unknown_Area_Type
  10
374637.943
  20
4684083.746
  0
VERTEX
  8
Unknown_Area_Type
  10
374637.937
  20
4684083.378
  0
VERTEX
  8
Unknown_Area_Type
  10
374520.000
  20
4684149.404
  0
VERTEX
  8
Unknown_Area_Type
  10
374004.500
  20
4684438.000
  0
VERTEX
  8
Unknown_Area_Type
  10
374075.500
  20
4685816.000
  0
VERTEX
  8
Unknown_Area_Type
  10
374075.500
  20
4685821.648
  0
VERTEX
  8
Unknown_Area_Type
  10
374075.500
  20
4685825.500
  0
VERTEX
  8
Unknown_Area_Type
  10
374176.969
  20
4687800.000
  0
VERTEX
  8
Unknown_Area_Type
  10
374182.950
  20
4687916.393
  0
VERTEX
  8
Unknown_Area_Type
  10
374182.989
  20
4687916.392
  0
VERTEX
  8
Unknown_Area_Type
  10
374706.276
  20
4687906.908
  0
VERTEX
  8
Unknown_Area_Type
  10
374664.923
  20
4685593.599
  0
VERTEX
  8
Unknown_Area_Type
  10
374637.943
  20
4684083.746
  0
SEQEND
  8
Unknown_Area_Type
  0
POLYLINE
  8
Unknown_Area_Type
  70
1
  66
1
  0
VERTEX
  8
Unknown_Area_Type
  10
365307.360
  20
4675417.071
  0
VERTEX
  8
Unknown_Area_Type
  10
365306.500
  20
4675417.000
  0
VERTEX
  8
Unknown_Area_Type
  10
364847.559
  20
4675648.970
  0
VERTEX
  8
Unknown_Area_Type
  10
364847.500
  20
4675649.000
  0
VERTEX
  8
Unknown_Area_Type
  10
364976.834
  20
4678670.000
  0
VERTEX
  8
Unknown_Area_Type
  10
364991.818
  20
4679020.000
  0
VERTEX
  8
Unknown_Area_Type
  10
365029.000
  20
4679888.500
  0
VERTEX
  8
Unknown_Area_Type
  10
365029.550
  20
4679888.678
  0
VERTEX
  8
Unknown_Area_Type
  10
366290.500
  20
4680297.500
  0
VERTEX
  8
Unknown_Area_Type
  10
366292.000
  20
4680298.000
  0
VERTEX
  8
Unknown_Area_Type
  10
366293.500
  20
4680298.000
  0
VERTEX
  8
Unknown_Area_Type
  10
366295.000
  20
4680298.000
  0
VERTEX
  8
Unknown_Area_Type
  10
367427.840
  20
4679928.636
  0
VERTEX
  8
Unknown_Area_Type
  10
367560.000
  20
4679885.546
  0
VERTEX
  8
Unknown_Area_Type
  10
367805.500
  20
4679805.500
  0
VERTEX
  8
Unknown_Area_Type
  10
367757.942
  20
4679020.000
  0
VERTEX
  8
Unknown_Area_Type
  10
367749.466
  20
4678880.000
  0
VERTEX
  8
Unknown_Area_Type
  10
367736.751
  20
4678670.000
  0
VERTEX
  8
Unknown_Area_Type
  10
367729.486
  20
4678550.000
  0
VERTEX
  8
Unknown_Area_Type
  10
367551.000
  20
4675602.000
  0
VERTEX
  8
Unknown_Area_Type
  10
367470.000
  20
4675595.324
  0
VERTEX
  8
Unknown_Area_Type
  10
365760.393
  20
4675454.412
  0
VERTEX
  8
Unknown_Area_Type
  10
365307.360
  20
4675417.071
  0
SEQEND
  8
Unknown_Area_Type
  0
POLYLINE
  8
Unknown_Area_Type
  70
1
  66
1
  0
VERTEX
  8
Unknown_Area_Type
  10
362482.943
  20
4675490.030
  0
VERTEX
  8
Unknown_Area_Type
  10
362482.500
  20
4675490.000
  0
VERTEX
  8
Unknown_Area_Type
  10
362187.525
  20
4675644.487
  0
VERTEX
  8
Unknown_Area_Type
  10
362187.500
  20
4675644.500
  0
VERTEX
  8
Unknown_Area_Type
  10
362231.786
  20
4678670.000
  0
VERTEX
  8
Unknown_Area_Type
  10
362236.909
  20
4679020.000
  0
VERTEX
  8
Unknown_Area_Type
  10
362250.493
  20
4679948.002
  0
VERTEX
  8
Unknown_Area_Type
  10
362250.500
  20
4679948.500
  0
VERTEX
  8
Unknown_Area_Type
  10
363522.500
  20
4680372.000
  0
VERTEX
  8
Unknown_Area_Type
  10
363523.055
  20
4680371.852
  0
VERTEX
  8
Unknown_Area_Type
  10
363528.359
  20
4680370.438
  0
VERTEX
  8
Unknown_Area_Type
  10
363537.500
  20
4680368.000
  0
VERTEX
  8
Unknown_Area_Type
  10
363834.500
  20
4680271.999
  0
VERTEX
  8
Unknown_Area_Type
  10
363836.000
  20
4680271.500
  0
VERTEX
  8
Unknown_Area_Type
  10
363868.157
  20
4680261.176
  0
VERTEX
  8
Unknown_Area_Type
  10
365026.894
  20
4679889.176
  0
VERTEX
  8
Unknown_Area_Type
  10
365029.000
  20
4679888.500
  0
VERTEX
  8
Unknown_Area_Type
  10
364991.818
  20
4679020.000
  0
VERTEX
  8
Unknown_Area_Type
  10
364976.834
  20
4678670.000
  0
VERTEX
  8
Unknown_Area_Type
  10
364847.500
  20
4675649.000
  0
VERTEX
  8
Unknown_Area_Type
  10
364722.734
  20
4675640.612
  0
VERTEX
  8
Unknown_Area_Type
  10
362483.184
  20
4675490.046
  0
VERTEX
  8
Unknown_Area_Type
  10
362482.943
  20
4675490.030
  0
SEQEND
  8
Unknown_Area_Type
  0
POLYLINE
  8
Unknown_Area_Type
  70
1
  66
1
  0
VERTEX
  8
Unknown_Area_Type
  10
371009.000
  20
4675174.500
  0
VERTEX
  8
Unknown_Area_Type
  10
371008.000
  20
4675174.500
  0
VERTEX
  8
Unknown_Area_Type
  10
370992.500
  20
4675182.000
  0
VERTEX
  8
Unknown_Area_Type
  10
370322.590
  20
4675509.456
  0
VERTEX
  8
Unknown_Area_Type
  10
370322.500
  20
4675509.500
  0
VERTEX
  8
Unknown_Area_Type
  10
370460.460
  20
4678550.000
  0
VERTEX
  8
Unknown_Area_Type
  10
370475.433
  20
4678880.000
  0
VERTEX
  8
Unknown_Area_Type
  10
370514.500
  20
4679741.000
  0
VERTEX
  8
Unknown_Area_Type
  10
370515.029
  20
4679741.151
  0
VERTEX
  8
Unknown_Area_Type
  10
371900.000
  20
4680138.000
  0
VERTEX
  8
Unknown_Area_Type
  10
371901.500
  20
4680138.500
  0
VERTEX
  8
Unknown_Area_Type
  10
371902.448
  20
4680138.342
  0
VERTEX
  8
Unknown_Area_Type
  10
371904.640
  20
4680137.977
  0
VERTEX
  8
Unknown_Area_Type
  10
371907.500
  20
4680137.500
  0
VERTEX
  8
Unknown_Area_Type
  10
373781.582
  20
4679538.921
  0
VERTEX
  8
Unknown_Area_Type
  10
374440.000
  20
4679328.624
  0
VERTEX
  8
Unknown_Area_Type
  10
374467.000
  20
4679320.000
  0
VERTEX
  8
Unknown_Area_Type
  10
374455.361
  20
4678880.000
  0
VERTEX
  8
Unknown_Area_Type
  10
374452.187
  20
4678760.000
  0
VERTEX
  8
Unknown_Area_Type
  10
374446.633
  20
4678550.000
  0
VERTEX
  8
Unknown_Area_Type
  10
374443.458
  20
4678430.000
  0
VERTEX
  8
Unknown_Area_Type
  10
374377.000
  20
4675917.500
  0
VERTEX
  8
Unknown_Area_Type
  10
374350.000
  20
4675897.698
  0
VERTEX
  8
Unknown_Area_Type
  10
373902.500
  20
4675569.500
  0
VERTEX
  8
Unknown_Area_Type
  10
373902.486
  20
4675569.498
  0
VERTEX
  8
Unknown_Area_Type
  10
373902.306
  20
4675569.474
  0
VERTEX
  8
Unknown_Area_Type
  10
371011.500
  20
4675174.500
  0
VERTEX
  8
Unknown_Area_Type
  10
371009.000
  20
4675174.500
  0
SEQEND
  8
Unknown_Area_Type
  0
POLYLINE
  8
Unknown_Area_Type
  70
1
  66
1
  0
VERTEX
  8
Unknown_Area_Type
  10
368195.822
  20
4675278.589
  0
VERTEX
  8
Unknown_Area_Type
  10
368195.000
  20
4675278.500
  0
VERTEX
  8
Unknown_Area_Type
  10
367770.000
  20
4675491.990
  0
VERTEX
  8
Unknown_Area_Type
  10
367551.000
  20
4675602.000
  0
VERTEX
  8
Unknown_Area_Type
  10
367729.305
  20
4678550.000
  0
VERTEX
  8
Unknown_Area_Type
  10
367736.563
  20
4678670.000
  0
VERTEX
  8
Unknown_Area_Type
  10
367749.264
  20
4678880.000
  0
VERTEX
  8
Unknown_Area_Type
  10
367757.732
  20
4679020.000
  0
VERTEX
  8
Unknown_Area_Type
  10
367805.000
  20
4679801.500
  0
VERTEX
  8
Unknown_Area_Type
  10
367805.500
  20
4679805.500
  0
VERTEX
  8
Unknown_Area_Type
  10
367805.697
  20
4679805.599
  0
VERTEX
  8
Unknown_Area_Type
  10
367807.500
  20
4679806.500
  0
VERTEX
  8
Unknown_Area_Type
  10
367860.000
  20
4679822.120
  0
VERTEX
  8
Unknown_Area_Type
  10
367928.500
  20
4679842.500
  0
VERTEX
  8
Unknown_Area_Type
  10
367930.500
  20
4679843.000
  0
VERTEX
  8
Unknown_Area_Type
  10
368615.350
  20
4680046.596
  0
VERTEX
  8
Unknown_Area_Type
  10
369108.980
  20
4680193.345
  0
VERTEX
  8
Unknown_Area_Type
  10
369109.500
  20
4680193.500
  0
VERTEX
  8
Unknown_Area_Type
  10
369812.000
  20
4679967.250
  0
VERTEX
  8
Unknown_Area_Type
  10
370514.500
  20
4679741.000
  0
VERTEX
  8
Unknown_Area_Type
  10
370475.433
  20
4678880.000
  0
VERTEX
  8
Unknown_Area_Type
  10
370460.460
  20
4678550.000
  0
VERTEX
  8
Unknown_Area_Type
  10
370322.500
  20
4675509.500
  0
VERTEX
  8
Unknown_Area_Type
  10
370256.755
  20
4675502.361
  0
VERTEX
  8
Unknown_Area_Type
  10
368783.369
  20
4675342.384
  0
VERTEX
  8
Unknown_Area_Type
  10
368195.822
  20
4675278.589
  0
SEQEND
  8
Unknown_Area_Type
  0
POLYLINE
  8
Unknown_Area_Type
  70
1
  66
1
  0
VERTEX
  8
Unknown_Area_Type
  10
356848.031
  20
4675670.500
  0
VERTEX
  8
Unknown_Area_Type
  10
356848.000
  20
4675670.500
  0
VERTEX
  8
Unknown_Area_Type
  10
356700.000
  20
4675757.500
  0
VERTEX
  8
Unknown_Area_Type
  10
356700.000
  20
4675757.512
  0
VERTEX
  8
Unknown_Area_Type
  10
356838.151
  20
4678810.000
  0
VERTEX
  8
Unknown_Area_Type
  10
356853.992
  20
4679160.000
  0
VERTEX
  8
Unknown_Area_Type
  10
356894.000
  20
4680044.000
  0
VERTEX
  8
Unknown_Area_Type
  10
356894.396
  20
4680044.159
  0
VERTEX
  8
Unknown_Area_Type
  10
357897.500
  20
4680447.000
  0
VERTEX
  8
Unknown_Area_Type
  10
357898.500
  20
4680447.500
  0
VERTEX
  8
Unknown_Area_Type
  10
357899.094
  20
4680447.337
  0
VERTEX
  8
Unknown_Area_Type
  10
358439.112
  20
4680298.904
  0
VERTEX
  8
Unknown_Area_Type
  10
359572.934
  20
4679987.255
  0
VERTEX
  8
Unknown_Area_Type
  10
359577.500
  20
4679986.000
  0
VERTEX
  8
Unknown_Area_Type
  10
359554.345
  20
4679160.000
  0
VERTEX
  8
Unknown_Area_Type
  10
359544.533
  20
4678810.000
  0
VERTEX
  8
Unknown_Area_Type
  10
359457.000
  20
4675687.500
  0
VERTEX
  8
Unknown_Area_Type
  10
356878.664
  20
4675670.700
  0
VERTEX
  8
Unknown_Area_Type
  10
356848.031
  20
4675670.500
  0
SEQEND
  8
Unknown_Area_Type
  0
POLYLINE
  8
Unknown_Area_Type
  70
1
  66
1
  0
VERTEX
  8
Unknown_Area_Type
  10
355110.311
  20
4680513.918
  0
VERTEX
  8
Unknown_Area_Type
  10
355643.000
  20
4680373.500
  0
VERTEX
  8
Unknown_Area_Type
  10
355643.952
  20
4680373.500
  0
VERTEX
  8
Unknown_Area_Type
  10
355644.000
  20
4680373.500
  0
VERTEX
  8
Unknown_Area_Type
  10
355701.712
  20
4680358.287
  0
VERTEX
  8
Unknown_Area_Type
  10
356894.000
  20
4680044.000
  0
VERTEX
  8
Unknown_Area_Type
  10
356853.992
  20
4679160.000
  0
VERTEX
  8
Unknown_Area_Type
  10
356838.151
  20
4678810.000
  0
VERTEX
  8
Unknown_Area_Type
  10
356700.000
  20
4675757.512
  0
VERTEX
  8
Unknown_Area_Type
  10
356700.000
  20
4675757.500
  0
VERTEX
  8
Unknown_Area_Type
  10
354033.500
  20
4675821.000
  0
VERTEX
  8
Unknown_Area_Type
  10
354062.735
  20
4678810.000
  0
VERTEX
  8
Unknown_Area_Type
  10
354064.104
  20
4678950.000
  0
VERTEX
  8
Unknown_Area_Type
  10
354066.158
  20
4679160.000
  0
VERTEX
  8
Unknown_Area_Type
  10
354075.000
  20
4680064.000
  0
VERTEX
  8
Unknown_Area_Type
  10
354075.352
  20
4680064.153
  0
VERTEX
  8
Unknown_Area_Type
  10
354120.000
  20
4680083.565
  0
VERTEX
  8
Unknown_Area_Type
  10
355110.000
  20
4680514.000
  0
VERTEX
  8
Unknown_Area_Type
  10
355110.311
  20
4680513.918
  0
SEQEND
  8
Unknown_Area_Type
  0
POLYLINE
  8
Unknown_Area_Type
  70
1
  66
1
  0
VERTEX
  8
Unknown_Area_Type
  10
351066.000
  20
4675791.500
  0
VERTEX
  8
Unknown_Area_Type
  10
351062.500
  20
4675791.500
  0
VERTEX
  8
Unknown_Area_Type
  10
349498.829
  20
4675900.500
  0
VERTEX
  8
Unknown_Area_Type
  10
348530.500
  20
4675968.000
  0
VERTEX
  8
Unknown_Area_Type
  10
348612.395
  20
4678950.000
  0
VERTEX
  8
Unknown_Area_Type
  10
348622.008
  20
4679300.000
  0
VERTEX
  8
Unknown_Area_Type
  10
348644.486
  20
4680118.503
  0
VERTEX
  8
Unknown_Area_Type
  10
348644.492
  20
4680118.721
  0
VERTEX
  8
Unknown_Area_Type
  10
348644.500
  20
4680119.000
  0
VERTEX
  8
Unknown_Area_Type
  10
349560.500
  20
4680531.000
  0
VERTEX
  8
Unknown_Area_Type
  10
349561.500
  20
4680531.500
  0
VERTEX
  8
Unknown_Area_Type
  10
349562.175
  20
4680531.354
  0
VERTEX
  8
Unknown_Area_Type
  10
349567.575
  20
4680530.187
  0
VERTEX
  8
Unknown_Area_Type
  10
349580.000
  20
4680527.500
  0
VERTEX
  8
Unknown_Area_Type
  10
350965.759
  20
4680168.304
  0
VERTEX
  8
Unknown_Area_Type
  10
351304.500
  20
4680080.500
  0
VERTEX
  8
Unknown_Area_Type
  10
351303.283
  20
4679300.000
  0
VERTEX
  8
Unknown_Area_Type
  10
351302.738
  20
4678950.000
  0
VERTEX
  8
Unknown_Area_Type
  10
351298.000
  20
4675911.500
  0
VERTEX
  8
Unknown_Area_Type
  10
351298.000
  20
4675911.000
  0
VERTEX
  8
Unknown_Area_Type
  10
351075.500
  20
4675796.000
  0
VERTEX
  8
Unknown_Area_Type
  10
351066.500
  20
4675791.500
  0
VERTEX
  8
Unknown_Area_Type
  10
351066.000
  20
4675791.500
  0
SEQEND
  8
Unknown_Area_Type
  0
POLYLINE
  8
Unknown_Area_Type
  70
1
  66
1
  0
VERTEX
  8
Unknown_Area_Type
  10
359661.952
  20
4675575.526
  0
VERTEX
  8
Unknown_Area_Type
  10
359661.000
  20
4675575.500
  0
VERTEX
  8
Unknown_Area_Type
  10
359457.000
  20
4675687.500
  0
VERTEX
  8
Unknown_Area_Type
  10
359544.312
  20
4678810.000
  0
VERTEX
  8
Unknown_Area_Type
  10
359554.099
  20
4679160.000
  0
VERTEX
  8
Unknown_Area_Type
  10
359577.000
  20
4679979.000
  0
VERTEX
  8
Unknown_Area_Type
  10
359577.500
  20
4679986.000
  0
VERTEX
  8
Unknown_Area_Type
  10
359578.036
  20
4679986.199
  0
VERTEX
  8
Unknown_Area_Type
  10
359737.500
  20
4680045.500
  0
VERTEX
  8
Unknown_Area_Type
  10
359738.500
  20
4680046.000
  0
VERTEX
  8
Unknown_Area_Type
  10
360690.000
  20
4680400.080
  0
VERTEX
  8
Unknown_Area_Type
  10
360718.000
  20
4680410.500
  0
VERTEX
  8
Unknown_Area_Type
  10
360726.500
  20
4680413.500
  0
VERTEX
  8
Unknown_Area_Type
  10
360727.500
  20
4680413.500
  0
VERTEX
  8
Unknown_Area_Type
  10
360729.500
  20
4680413.500
  0
VERTEX
  8
Unknown_Area_Type
  10
360990.000
  20
4680333.774
  0
VERTEX
  8
Unknown_Area_Type
  10
362250.493
  20
4679948.002
  0
VERTEX
  8
Unknown_Area_Type
  10
362250.500
  20
4679948.000
  0
VERTEX
  8
Unknown_Area_Type
  10
362236.915
  20
4679020.000
  0
VERTEX
  8
Unknown_Area_Type
  10
362231.791
  20
4678670.000
  0
VERTEX
  8
Unknown_Area_Type
  10
362187.500
  20
4675644.500
  0
VERTEX
  8
Unknown_Area_Type
  10
360900.000
  20
4675609.338
  0
VERTEX
  8
Unknown_Area_Type
  10
360600.000
  20
4675601.145
  0
VERTEX
  8
Unknown_Area_Type
  10
359661.952
  20
4675575.526
  0
SEQEND
  8
Unknown_Area_Type
  0
POLYLINE
  8
Unknown_Area_Type
  70
1
  66
1
  0
VERTEX
  8
Unknown_Area_Type
  10
353990.917
  20
4675798.500
  0
VERTEX
  8
Unknown_Area_Type
  10
353986.000
  20
4675798.500
  0
VERTEX
  8
Unknown_Area_Type
  10
353720.000
  20
4675809.682
  0
VERTEX
  8
Unknown_Area_Type
  10
351298.000
  20
4675911.500
  0
VERTEX
  8
Unknown_Area_Type
  10
351302.738
  20
4678950.000
  0
VERTEX
  8
Unknown_Area_Type
  10
351303.283
  20
4679300.000
  0
VERTEX
  8
Unknown_Area_Type
  10
351304.500
  20
4680080.500
  0
VERTEX
  8
Unknown_Area_Type
  10
351304.689
  20
4680080.580
  0
VERTEX
  8
Unknown_Area_Type
  10
351546.500
  20
4680183.500
  0
VERTEX
  8
Unknown_Area_Type
  10
351547.500
  20
4680184.000
  0
VERTEX
  8
Unknown_Area_Type
  10
352079.739
  20
4680409.726
  0
VERTEX
  8
Unknown_Area_Type
  10
352331.310
  20
4680516.419
  0
VERTEX
  8
Unknown_Area_Type
  10
352331.500
  20
4680516.500
  0
VERTEX
  8
Unknown_Area_Type
  10
353810.000
  20
4680132.777
  0
VERTEX
  8
Unknown_Area_Type
  10
354064.921
  20
4680066.616
  0
VERTEX
  8
Unknown_Area_Type
  10
354075.000
  20
4680064.000
  0
VERTEX
  8
Unknown_Area_Type
  10
354066.158
  20
4679160.000
  0
VERTEX
  8
Unknown_Area_Type
  10
354064.104
  20
4678950.000
  0
VERTEX
  8
Unknown_Area_Type
  10
354062.735
  20
4678810.000
  0
VERTEX
  8
Unknown_Area_Type
  10
354033.500
  20
4675821.000
  0
VERTEX
  8
Unknown_Area_Type
  10
354020.000
  20
4675813.775
  0
VERTEX
  8
Unknown_Area_Type
  10
353998.000
  20
4675802.000
  0
VERTEX
  8
Unknown_Area_Type
  10
353991.000
  20
4675798.500
  0
VERTEX
  8
Unknown_Area_Type
  10
353990.917
  20
4675798.500
  0
SEQEND
  8
Unknown_Area_Type
  0
POLYLINE
  8
Unknown_Area_Type
  70
1
  66
1
  0
VERTEX
  8
Unknown_Area_Type
  10
348530.436
  20
4675967.970
  0
VERTEX
  8
Unknown_Area_Type
  10
348259.000
  20
4675838.500
  0
VERTEX
  8
Unknown_Area_Type
  10
348258.571
  20
4675838.534
  0
VERTEX
  8
Unknown_Area_Type
  10
347532.503
  20
4675895.725
  0
VERTEX
  8
Unknown_Area_Type
  10
346971.336
  20
4675939.928
  0
VERTEX
  8
Unknown_Area_Type
  10
346971.337
  20
4675939.958
  0
VERTEX
  8
Unknown_Area_Type
  10
346991.897
  20
4676885.114
  0
VERTEX
  8
Unknown_Area_Type
  10
347042.239
  20
4679198.430
  0
VERTEX
  8
Unknown_Area_Type
  10
347070.069
  20
4680476.747
  0
VERTEX
  8
Unknown_Area_Type
  10
347070.070
  20
4680476.813
  0
VERTEX
  8
Unknown_Area_Type
  10
348644.168
  20
4680118.576
  0
VERTEX
  8
Unknown_Area_Type
  10
348644.486
  20
4680118.503
  0
VERTEX
  8
Unknown_Area_Type
  10
348644.500
  20
4680118.500
  0
VERTEX
  8
Unknown_Area_Type
  10
348622.019
  20
4679300.000
  0
VERTEX
  8
Unknown_Area_Type
  10
348612.405
  20
4678950.000
  0
VERTEX
  8
Unknown_Area_Type
  10
348530.500
  20
4675968.000
  0
VERTEX
  8
Unknown_Area_Type
  10
348530.436
  20
4675967.970
  0
SEQEND
  8
Unknown_Area_Type
  0
POLYLINE
  8
Unknown_Area_Type
  70
1
  66
1
  0
VERTEX
  8
Unknown_Area_Type
  10
374491.330
  20
4675872.601
  0
VERTEX
  8
Unknown_Area_Type
  10
374491.319
  20
4675871.962
  0
VERTEX
  8
Unknown_Area_Type
  10
374377.000
  20
4675917.500
  0
VERTEX
  8
Unknown_Area_Type
  10
374443.458
  20
4678430.000
  0
VERTEX
  8
Unknown_Area_Type
  10
374446.633
  20
4678550.000
  0
VERTEX
  8
Unknown_Area_Type
  10
374452.187
  20
4678760.000
  0
VERTEX
  8
Unknown_Area_Type
  10
374455.361
  20
4678880.000
  0
VERTEX
  8
Unknown_Area_Type
  10
374467.000
  20
4679320.000
  0
VERTEX
  8
Unknown_Area_Type
  10
374467.144
  20
4679320.114
  0
VERTEX
  8
Unknown_Area_Type
  10
374554.089
  20
4679388.870
  0
VERTEX
  8
Unknown_Area_Type
  10
374554.087
  20
4679388.748
  0
VERTEX
  8
Unknown_Area_Type
  10
374540.963
  20
4678653.718
  0
VERTEX
  8
Unknown_Area_Type
  10
374499.676
  20
4676340.440
  0
VERTEX
  8
Unknown_Area_Type
  10
374491.330
  20
4675872.601
  0
SEQEND
  8
Unknown_Area_Type
  0
POLYLINE
  8
Unknown_Area_Type
  70
1
  66
1
  0
VERTEX
  8
Unknown_Area_Type
  10
352432.000
  20
4671284.000
  0
VERTEX
  8
Unknown_Area_Type
  10
352340.137
  20
4669828.053
  0
VERTEX
  8
Unknown_Area_Type
  10
350282.884
  20
4669871.253
  0
VERTEX
  8
Unknown_Area_Type
  10
349538.943
  20
4669887.238
  0
VERTEX
  8
Unknown_Area_Type
  10
349538.772
  20
4669887.241
  0
VERTEX
  8
Unknown_Area_Type
  10
349567.000
  20
4671374.000
  0
VERTEX
  8
Unknown_Area_Type
  10
349567.285
  20
4671374.102
  0
VERTEX
  8
Unknown_Area_Type
  10
351005.500
  20
4671890.000
  0
VERTEX
  8
Unknown_Area_Type
  10
351007.000
  20
4671890.500
  0
VERTEX
  8
Unknown_Area_Type
  10
351007.229
  20
4671890.403
  0
VERTEX
  8
Unknown_Area_Type
  10
351719.500
  20
4671587.250
  0
VERTEX
  8
Unknown_Area_Type
  10
352431.779
  20
4671284.094
  0
VERTEX
  8
Unknown_Area_Type
  10
352432.000
  20
4671284.000
  0
SEQEND
  8
Unknown_Area_Type
  0
POLYLINE
  8
Unknown_Area_Type
  70
1
  66
1
  0
VERTEX
  8
Unknown_Area_Type
  10
360810.000
  20
4669775.253
  0
VERTEX
  8
Unknown_Area_Type
  10
360804.499
  20
4669655.648
  0
VERTEX
  8
Unknown_Area_Type
  10
360804.267
  20
4669655.652
  0
VERTEX
  8
Unknown_Area_Type
  10
360608.514
  20
4669659.476
  0
VERTEX
  8
Unknown_Area_Type
  10
358033.926
  20
4669711.022
  0
VERTEX
  8
Unknown_Area_Type
  10
358095.000
  20
4671056.000
  0
VERTEX
  8
Unknown_Area_Type
  10
358096.717
  20
4671056.510
  0
VERTEX
  8
Unknown_Area_Type
  10
358504.615
  20
4671177.537
  0
VERTEX
  8
Unknown_Area_Type
  10
358533.137
  20
4671186.000
  0
VERTEX
  8
Unknown_Area_Type
  10
359569.500
  20
4671493.500
  0
VERTEX
  8
Unknown_Area_Type
  10
359571.000
  20
4671494.000
  0
VERTEX
  8
Unknown_Area_Type
  10
359571.432
  20
4671493.831
  0
VERTEX
  8
Unknown_Area_Type
  10
359582.080
  20
4671489.664
  0
VERTEX
  8
Unknown_Area_Type
  10
359594.000
  20
4671485.000
  0
VERTEX
  8
Unknown_Area_Type
  10
360500.000
  20
4671094.981
  0
VERTEX
  8
Unknown_Area_Type
  10
360810.000
  20
4670961.531
  0
VERTEX
  8
Unknown_Area_Type
  10
360863.294
  20
4670938.589
  0
VERTEX
  8
Unknown_Area_Type
  10
360863.500
  20
4670938.500
  0
VERTEX
  8
Unknown_Area_Type
  10
360810.000
  20
4669775.253
  0
SEQEND
  8
Unknown_Area_Type
  0
POLYLINE
  8
Unknown_Area_Type
  70
1
  66
1
  0
VERTEX
  8
Unknown_Area_Type
  10
355305.000
  20
4671127.000
  0
VERTEX
  8
Unknown_Area_Type
  10
355225.309
  20
4669768.203
  0
VERTEX
  8
Unknown_Area_Type
  10
355225.163
  20
4669768.206
  0
VERTEX
  8
Unknown_Area_Type
  10
353724.768
  20
4669798.978
  0
VERTEX
  8
Unknown_Area_Type
  10
352340.137
  20
4669828.053
  0
VERTEX
  8
Unknown_Area_Type
  10
352432.000
  20
4671284.000
  0
VERTEX
  8
Unknown_Area_Type
  10
352898.742
  20
4671441.469
  0
VERTEX
  8
Unknown_Area_Type
  10
353620.000
  20
4671684.807
  0
VERTEX
  8
Unknown_Area_Type
  10
353832.500
  20
4671756.500
  0
VERTEX
  8
Unknown_Area_Type
  10
353833.103
  20
4671756.366
  0
VERTEX
  8
Unknown_Area_Type
  10
353834.580
  20
4671756.038
  0
VERTEX
  8
Unknown_Area_Type
  10
353837.000
  20
4671755.500
  0
VERTEX
  8
Unknown_Area_Type
  10
353874.500
  20
4671739.500
  0
VERTEX
  8
Unknown_Area_Type
  10
353930.000
  20
4671715.737
  0
VERTEX
  8
Unknown_Area_Type
  10
355304.552
  20
4671127.192
  0
VERTEX
  8
Unknown_Area_Type
  10
355305.000
  20
4671127.000
  0
SEQEND
  8
Unknown_Area_Type
  0
POLYLINE
  8
Unknown_Area_Type
  70
1
  66
1
  0
VERTEX
  8
Unknown_Area_Type
  10
371870.000
  20
4670735.000
  0
VERTEX
  8
Unknown_Area_Type
  10
371813.010
  20
4669446.956
  0
VERTEX
  8
Unknown_Area_Type
  10
370934.076
  20
4669462.836
  0
VERTEX
  8
Unknown_Area_Type
  10
369048.342
  20
4669497.827
  0
VERTEX
  8
Unknown_Area_Type
  10
369107.000
  20
4670776.500
  0
VERTEX
  8
Unknown_Area_Type
  10
369107.697
  20
4670776.645
  0
VERTEX
  8
Unknown_Area_Type
  10
370973.500
  20
4671165.000
  0
VERTEX
  8
Unknown_Area_Type
  10
370976.000
  20
4671165.500
  0
VERTEX
  8
Unknown_Area_Type
  10
370976.151
  20
4671165.427
  0
VERTEX
  8
Unknown_Area_Type
  10
371216.930
  20
4671049.482
  0
VERTEX
  8
Unknown_Area_Type
  10
371870.000
  20
4670735.000
  0
SEQEND
  8
Unknown_Area_Type
  0
POLYLINE
  8
Unknown_Area_Type
  70
1
  66
1
  0
VERTEX
  8
Unknown_Area_Type
  10
363624.500
  20
4670902.500
  0
VERTEX
  8
Unknown_Area_Type
  10
363584.992
  20
4669601.338
  0
VERTEX
  8
Unknown_Area_Type
  10
360804.499
  20
4669655.648
  0
VERTEX
  8
Unknown_Area_Type
  10
360804.267
  20
4669655.652
  0
VERTEX
  8
Unknown_Area_Type
  10
360810.000
  20
4669780.815
  0
VERTEX
  8
Unknown_Area_Type
  10
360863.000
  20
4670938.000
  0
VERTEX
  8
Unknown_Area_Type
  10
360863.294
  20
4670938.589
  0
VERTEX
  8
Unknown_Area_Type
  10
360863.500
  20
4670939.000
  0
VERTEX
  8
Unknown_Area_Type
  10
360875.000
  20
4670942.500
  0
VERTEX
  8
Unknown_Area_Type
  10
361786.000
  20
4671217.500
  0
VERTEX
  8
Unknown_Area_Type
  10
361787.500
  20
4671218.000
  0
VERTEX
  8
Unknown_Area_Type
  10
362255.428
  20
4671358.955
  0
VERTEX
  8
Unknown_Area_Type
  10
362436.206
  20
4671413.411
  0
VERTEX
  8
Unknown_Area_Type
  10
362436.500
  20
4671413.500
  0
VERTEX
  8
Unknown_Area_Type
  10
363623.885
  20
4670902.764
  0
VERTEX
  8
Unknown_Area_Type
  10
363624.500
  20
4670902.500
  0
SEQEND
  8
Unknown_Area_Type
  0
POLYLINE
  8
Unknown_Area_Type
  70
1
  66
1
  0
VERTEX
  8
Unknown_Area_Type
  10
369106.999
  20
4670776.980
  0
VERTEX
  8
Unknown_Area_Type
  10
369048.325
  20
4669497.827
  0
VERTEX
  8
Unknown_Area_Type
  10
367492.229
  20
4669526.701
  0
VERTEX
  8
Unknown_Area_Type
  10
366293.866
  20
4669549.523
  0
VERTEX
  8
Unknown_Area_Type
  10
366340.500
  20
4670879.500
  0
VERTEX
  8
Unknown_Area_Type
  10
366340.835
  20
4670879.573
  0
VERTEX
  8
Unknown_Area_Type
  10
367390.000
  20
4671109.088
  0
VERTEX
  8
Unknown_Area_Type
  10
367680.000
  20
4671172.529
  0
VERTEX
  8
Unknown_Area_Type
  10
367929.000
  20
4671227.000
  0
VERTEX
  8
Unknown_Area_Type
  10
367931.500
  20
4671227.500
  0
VERTEX
  8
Unknown_Area_Type
  10
368045.517
  20
4671251.907
  0
VERTEX
  8
Unknown_Area_Type
  10
368094.309
  20
4671262.352
  0
VERTEX
  8
Unknown_Area_Type
  10
368095.000
  20
4671262.500
  0
VERTEX
  8
Unknown_Area_Type
  10
369107.000
  20
4670777.000
  0
VERTEX
  8
Unknown_Area_Type
  10
369106.999
  20
4670776.980
  0
SEQEND
  8
Unknown_Area_Type
  0
POLYLINE
  8
Unknown_Area_Type
  70
1
  66
1
  0
VERTEX
  8
Unknown_Area_Type
  10
366340.490
  20
4670879.727
  0
VERTEX
  8
Unknown_Area_Type
  10
366293.780
  20
4669549.524
  0
VERTEX
  8
Unknown_Area_Type
  10
364050.375
  20
4669592.248
  0
VERTEX
  8
Unknown_Area_Type
  10
363584.992
  20
4669601.338
  0
VERTEX
  8
Unknown_Area_Type
  10
363624.500
  20
4670902.500
  0
VERTEX
  8
Unknown_Area_Type
  10
363624.991
  20
4670902.626
  0
VERTEX
  8
Unknown_Area_Type
  10
364638.228
  20
4671163.207
  0
VERTEX
  8
Unknown_Area_Type
  10
365313.366
  20
4671336.837
  0
VERTEX
  8
Unknown_Area_Type
  10
365314.000
  20
4671337.000
  0
VERTEX
  8
Unknown_Area_Type
  10
366340.500
  20
4670880.000
  0
VERTEX
  8
Unknown_Area_Type
  10
366340.490
  20
4670879.727
  0
SEQEND
  8
Unknown_Area_Type
  0
POLYLINE
  8
Unknown_Area_Type
  70
1
  66
1
  0
VERTEX
  8
Unknown_Area_Type
  10
374399.863
  20
4670743.984
  0
VERTEX
  8
Unknown_Area_Type
  10
374375.917
  20
4669400.653
  0
VERTEX
  8
Unknown_Area_Type
  10
371813.010
  20
4669446.956
  0
VERTEX
  8
Unknown_Area_Type
  10
371870.000
  20
4670735.000
  0
VERTEX
  8
Unknown_Area_Type
  10
373770.500
  20
4671055.500
  0
VERTEX
  8
Unknown_Area_Type
  10
373773.000
  20
4671056.000
  0
VERTEX
  8
Unknown_Area_Type
  10
373775.000
  20
4671056.000
  0
VERTEX
  8
Unknown_Area_Type
  10
373776.000
  20
4671056.000
  0
VERTEX
  8
Unknown_Area_Type
  10
374270.000
  20
4670809.328
  0
VERTEX
  8
Unknown_Area_Type
  10
374399.872
  20
4670744.479
  0
VERTEX
  8
Unknown_Area_Type
  10
374399.863
  20
4670743.984
  0
SEQEND
  8
Unknown_Area_Type
  0
POLYLINE
  8
Unknown_Area_Type
  70
1
  66
1
  0
VERTEX
  8
Unknown_Area_Type
  10
349567.000
  20
4671361.000
  0
VERTEX
  8
Unknown_Area_Type
  10
349538.943
  20
4669887.238
  0
VERTEX
  8
Unknown_Area_Type
  10
349538.772
  20
4669887.241
  0
VERTEX
  8
Unknown_Area_Type
  10
346840.992
  20
4669945.209
  0
VERTEX
  8
Unknown_Area_Type
  10
346873.391
  20
4671435.788
  0
VERTEX
  8
Unknown_Area_Type
  10
346873.397
  20
4671436.084
  0
VERTEX
  8
Unknown_Area_Type
  10
348216.500
  20
4671910.500
  0
VERTEX
  8
Unknown_Area_Type
  10
348217.608
  20
4671910.362
  0
VERTEX
  8
Unknown_Area_Type
  10
348218.687
  20
4671910.227
  0
VERTEX
  8
Unknown_Area_Type
  10
348220.500
  20
4671910.000
  0
VERTEX
  8
Unknown_Area_Type
  10
349498.000
  20
4671401.000
  0
VERTEX
  8
Unknown_Area_Type
  10
349500.000
  20
4671400.500
  0
VERTEX
  8
Unknown_Area_Type
  10
349566.434
  20
4671374.224
  0
VERTEX
  8
Unknown_Area_Type
  10
349567.000
  20
4671374.000
  0
VERTEX
  8
Unknown_Area_Type
  10
349567.000
  20
4671361.000
  0
SEQEND
  8
Unknown_Area_Type
  0
POLYLINE
  8
Unknown_Area_Type
  70
1
  66
1
  0
VERTEX
  8
Unknown_Area_Type
  10
358095.000
  20
4671056.000
  0
VERTEX
  8
Unknown_Area_Type
  10
358033.926
  20
4669711.022
  0
VERTEX
  8
Unknown_Area_Type
  10
357166.645
  20
4669728.386
  0
VERTEX
  8
Unknown_Area_Type
  10
355225.309
  20
4669768.203
  0
VERTEX
  8
Unknown_Area_Type
  10
355225.163
  20
4669768.206
  0
VERTEX
  8
Unknown_Area_Type
  10
355304.500
  20
4671125.000
  0
VERTEX
  8
Unknown_Area_Type
  10
355305.000
  20
4671127.000
  0
VERTEX
  8
Unknown_Area_Type
  10
355311.500
  20
4671129.500
  0
VERTEX
  8
Unknown_Area_Type
  10
355641.000
  20
4671244.000
  0
VERTEX
  8
Unknown_Area_Type
  10
355642.500
  20
4671244.500
  0
VERTEX
  8
Unknown_Area_Type
  10
355751.152
  20
4671282.290
  0
VERTEX
  8
Unknown_Area_Type
  10
356702.000
  20
4671613.000
  0
VERTEX
  8
Unknown_Area_Type
  10
356709.339
  20
4671615.055
  0
VERTEX
  8
Unknown_Area_Type
  10
356713.908
  20
4671616.334
  0
VERTEX
  8
Unknown_Area_Type
  10
356714.500
  20
4671616.500
  0
VERTEX
  8
Unknown_Area_Type
  10
358094.684
  20
4671056.128
  0
VERTEX
  8
Unknown_Area_Type
  10
358095.000
  20
4671056.000
  0
SEQEND
  8
Unknown_Area_Type
  0
ENDSEC
  0
EOF
