  0
SECTION
  2
HEADER
  9
$ACADVER
  1
AC1009
  9
$LUNITS
  70
2
  9
$LIMMIN
  10
374706.276
  20
4687469.722
  9
$LIMMAX
  10
402427.096
  20
4706413.665
  9
$EXTMIN
  10
374706.276
  20
4687469.722
  9
$EXTMAX
  10
402427.096
  20
4706413.665
  999
Created by Global Mapper
  999
Projection: UTM
  999
Datum: ETRS89
  999
Ground Units: meters
  999
ZONE: 30
  0
ENDSEC
  0
SECTION
  2
TABLES
  0
ENDSEC
  0
SECTION
  2
BLOCKS
  0
BLOCK
  8
FeatureAttribs
  70
0
  2
FEATURE
  3
FEATURE
  10
0.00000000
  20
0.00000000
  0
ATTDEF
  8
FeatureAttribs
  70
0
  1
 
  2
NAME
  3
NAME
  10
0.00000000
  20
0.00000000
  40
1.00000000
  0
ENDBLK
  0
ENDSEC
  0
SECTION
  2
ENTITIES
  0
POLYLINE
  8
Unknown_Area_Type
  70
1
  66
1
  0
VERTEX
  8
Unknown_Area_Type
  10
379943.413
  20
4701830.137
  0
VERTEX
  8
Unknown_Area_Type
  10
379943.000
  20
4701830.000
  0
VERTEX
  8
Unknown_Area_Type
  10
379685.768
  20
4701890.000
  0
VERTEX
  8
Unknown_Area_Type
  10
379114.500
  20
4702023.250
  0
VERTEX
  8
Unknown_Area_Type
  10
378286.000
  20
4702216.500
  0
VERTEX
  8
Unknown_Area_Type
  10
378406.696
  20
4706190.000
  0
VERTEX
  8
Unknown_Area_Type
  10
378411.677
  20
4706353.976
  0
VERTEX
  8
Unknown_Area_Type
  10
378411.946
  20
4706353.971
  0
VERTEX
  8
Unknown_Area_Type
  10
378461.394
  20
4706353.097
  0
VERTEX
  8
Unknown_Area_Type
  10
380998.629
  20
4706309.458
  0
VERTEX
  8
Unknown_Area_Type
  10
380996.119
  20
4706190.000
  0
VERTEX
  8
Unknown_Area_Type
  10
380949.500
  20
4703971.500
  0
VERTEX
  8
Unknown_Area_Type
  10
380949.500
  20
4703964.200
  0
VERTEX
  8
Unknown_Area_Type
  10
380949.500
  20
4703954.000
  0
VERTEX
  8
Unknown_Area_Type
  10
380911.510
  20
4702150.998
  0
VERTEX
  8
Unknown_Area_Type
  10
380911.507
  20
4702150.837
  0
VERTEX
  8
Unknown_Area_Type
  10
380911.500
  20
4702150.500
  0
VERTEX
  8
Unknown_Area_Type
  10
380124.310
  20
4701890.000
  0
VERTEX
  8
Unknown_Area_Type
  10
379944.499
  20
4701830.496
  0
VERTEX
  8
Unknown_Area_Type
  10
379943.413
  20
4701830.137
  0
SEQEND
  8
Unknown_Area_Type
  0
POLYLINE
  8
Unknown_Area_Type
  70
1
  66
1
  0
VERTEX
  8
Unknown_Area_Type
  10
375140.000
  20
4702092.151
  0
VERTEX
  8
Unknown_Area_Type
  10
374959.130
  20
4702031.553
  0
VERTEX
  8
Unknown_Area_Type
  10
374959.134
  20
4702031.770
  0
VERTEX
  8
Unknown_Area_Type
  10
374996.214
  20
4704100.293
  0
VERTEX
  8
Unknown_Area_Type
  10
375037.701
  20
4706413.665
  0
VERTEX
  8
Unknown_Area_Type
  10
375768.858
  20
4706400.730
  0
VERTEX
  8
Unknown_Area_Type
  10
375762.276
  20
4706190.000
  0
VERTEX
  8
Unknown_Area_Type
  10
375639.500
  20
4702259.500
  0
VERTEX
  8
Unknown_Area_Type
  10
375575.562
  20
4702238.079
  0
VERTEX
  8
Unknown_Area_Type
  10
375140.000
  20
4702092.151
  0
SEQEND
  8
Unknown_Area_Type
  0
POLYLINE
  8
Unknown_Area_Type
  70
1
  66
1
  0
VERTEX
  8
Unknown_Area_Type
  10
382522.204
  20
4701819.561
  0
VERTEX
  8
Unknown_Area_Type
  10
382522.000
  20
4701819.500
  0
VERTEX
  8
Unknown_Area_Type
  10
381990.000
  20
4701929.005
  0
VERTEX
  8
Unknown_Area_Type
  10
381700.000
  20
4701988.698
  0
VERTEX
  8
Unknown_Area_Type
  10
380911.808
  20
4702150.937
  0
VERTEX
  8
Unknown_Area_Type
  10
380911.510
  20
4702150.998
  0
VERTEX
  8
Unknown_Area_Type
  10
380911.500
  20
4702151.000
  0
VERTEX
  8
Unknown_Area_Type
  10
380949.500
  20
4703964.200
  0
VERTEX
  8
Unknown_Area_Type
  10
380996.147
  20
4706190.000
  0
VERTEX
  8
Unknown_Area_Type
  10
380998.651
  20
4706309.457
  0
VERTEX
  8
Unknown_Area_Type
  10
381885.081
  20
4706294.211
  0
VERTEX
  8
Unknown_Area_Type
  10
383700.209
  20
4706263.885
  0
VERTEX
  8
Unknown_Area_Type
  10
383700.654
  20
4706263.877
  0
VERTEX
  8
Unknown_Area_Type
  10
383690.029
  20
4706080.000
  0
VERTEX
  8
Unknown_Area_Type
  10
383460.000
  20
4702099.000
  0
VERTEX
  8
Unknown_Area_Type
  10
383459.529
  20
4702098.860
  0
VERTEX
  8
Unknown_Area_Type
  10
382834.700
  20
4701912.677
  0
VERTEX
  8
Unknown_Area_Type
  10
382522.204
  20
4701819.561
  0
SEQEND
  8
Unknown_Area_Type
  0
POLYLINE
  8
Unknown_Area_Type
  70
1
  66
1
  0
VERTEX
  8
Unknown_Area_Type
  10
384951.492
  20
4701702.635
  0
VERTEX
  8
Unknown_Area_Type
  10
384951.000
  20
4701702.500
  0
VERTEX
  8
Unknown_Area_Type
  10
384697.173
  20
4701770.000
  0
VERTEX
  8
Unknown_Area_Type
  10
384313.950
  20
4701871.910
  0
VERTEX
  8
Unknown_Area_Type
  10
383460.000
  20
4702099.000
  0
VERTEX
  8
Unknown_Area_Type
  10
383689.604
  20
4706080.000
  0
VERTEX
  8
Unknown_Area_Type
  10
383700.209
  20
4706263.885
  0
VERTEX
  8
Unknown_Area_Type
  10
383700.654
  20
4706263.877
  0
VERTEX
  8
Unknown_Area_Type
  10
385308.763
  20
4706237.009
  0
VERTEX
  8
Unknown_Area_Type
  10
386269.668
  20
4706221.427
  0
VERTEX
  8
Unknown_Area_Type
  10
386266.030
  20
4706080.000
  0
VERTEX
  8
Unknown_Area_Type
  10
386162.000
  20
4702035.000
  0
VERTEX
  8
Unknown_Area_Type
  10
385402.331
  20
4701826.420
  0
VERTEX
  8
Unknown_Area_Type
  10
385196.842
  20
4701770.000
  0
VERTEX
  8
Unknown_Area_Type
  10
384951.492
  20
4701702.635
  0
SEQEND
  8
Unknown_Area_Type
  0
POLYLINE
  8
Unknown_Area_Type
  70
1
  66
1
  0
VERTEX
  8
Unknown_Area_Type
  10
377308.700
  20
4701912.062
  0
VERTEX
  8
Unknown_Area_Type
  10
377308.500
  20
4701912.000
  0
VERTEX
  8
Unknown_Area_Type
  10
375640.417
  20
4702259.309
  0
VERTEX
  8
Unknown_Area_Type
  10
375639.500
  20
4702259.500
  0
VERTEX
  8
Unknown_Area_Type
  10
375762.538
  20
4706190.000
  0
VERTEX
  8
Unknown_Area_Type
  10
375769.135
  20
4706400.725
  0
VERTEX
  8
Unknown_Area_Type
  10
378411.677
  20
4706353.976
  0
VERTEX
  8
Unknown_Area_Type
  10
378411.946
  20
4706353.971
  0
VERTEX
  8
Unknown_Area_Type
  10
378406.955
  20
4706190.000
  0
VERTEX
  8
Unknown_Area_Type
  10
378286.000
  20
4702216.500
  0
VERTEX
  8
Unknown_Area_Type
  10
378285.572
  20
4702216.367
  0
VERTEX
  8
Unknown_Area_Type
  10
377308.998
  20
4701912.155
  0
VERTEX
  8
Unknown_Area_Type
  10
377308.700
  20
4701912.062
  0
SEQEND
  8
Unknown_Area_Type
  0
POLYLINE
  8
Unknown_Area_Type
  70
1
  66
1
  0
VERTEX
  8
Unknown_Area_Type
  10
390218.257
  20
4701631.073
  0
VERTEX
  8
Unknown_Area_Type
  10
390218.000
  20
4701631.000
  0
VERTEX
  8
Unknown_Area_Type
  10
390121.007
  20
4701660.000
  0
VERTEX
  8
Unknown_Area_Type
  10
388840.000
  20
4702043.010
  0
VERTEX
  8
Unknown_Area_Type
  10
388830.247
  20
4702045.926
  0
VERTEX
  8
Unknown_Area_Type
  10
388830.000
  20
4702046.000
  0
VERTEX
  8
Unknown_Area_Type
  10
388830.117
  20
4702054.752
  0
VERTEX
  8
Unknown_Area_Type
  10
388840.000
  20
4702795.279
  0
VERTEX
  8
Unknown_Area_Type
  10
388882.370
  20
4705970.000
  0
VERTEX
  8
Unknown_Area_Type
  10
388883.838
  20
4706080.000
  0
VERTEX
  8
Unknown_Area_Type
  10
388885.162
  20
4706179.089
  0
VERTEX
  8
Unknown_Area_Type
  10
391182.383
  20
4706142.966
  0
VERTEX
  8
Unknown_Area_Type
  10
391609.979
  20
4706055.004
  0
VERTEX
  8
Unknown_Area_Type
  10
391610.000
  20
4706055.000
  0
VERTEX
  8
Unknown_Area_Type
  10
391606.345
  20
4705970.000
  0
VERTEX
  8
Unknown_Area_Type
  10
391434.500
  20
4701973.500
  0
VERTEX
  8
Unknown_Area_Type
  10
391432.693
  20
4701972.991
  0
VERTEX
  8
Unknown_Area_Type
  10
390321.003
  20
4701660.000
  0
VERTEX
  8
Unknown_Area_Type
  10
390314.041
  20
4701658.040
  0
VERTEX
  8
Unknown_Area_Type
  10
390218.257
  20
4701631.073
  0
SEQEND
  8
Unknown_Area_Type
  0
POLYLINE
  8
Unknown_Area_Type
  70
1
  66
1
  0
VERTEX
  8
Unknown_Area_Type
  10
392812.513
  20
4701560.146
  0
VERTEX
  8
Unknown_Area_Type
  10
392812.000
  20
4701560.000
  0
VERTEX
  8
Unknown_Area_Type
  10
392478.868
  20
4701660.000
  0
VERTEX
  8
Unknown_Area_Type
  10
391435.008
  20
4701973.347
  0
VERTEX
  8
Unknown_Area_Type
  10
391434.500
  20
4701973.500
  0
VERTEX
  8
Unknown_Area_Type
  10
391606.324
  20
4705970.000
  0
VERTEX
  8
Unknown_Area_Type
  10
391609.979
  20
4706055.004
  0
VERTEX
  8
Unknown_Area_Type
  10
391610.000
  20
4706055.500
  0
VERTEX
  8
Unknown_Area_Type
  10
391805.609
  20
4706133.166
  0
VERTEX
  8
Unknown_Area_Type
  10
391806.816
  20
4706133.147
  0
VERTEX
  8
Unknown_Area_Type
  10
392156.111
  20
4706127.655
  0
VERTEX
  8
Unknown_Area_Type
  10
393259.517
  20
4706110.847
  0
VERTEX
  8
Unknown_Area_Type
  10
393261.379
  20
4706110.818
  0
VERTEX
  8
Unknown_Area_Type
  10
393839.590
  20
4705970.000
  0
VERTEX
  8
Unknown_Area_Type
  10
394183.910
  20
4705886.144
  0
VERTEX
  8
Unknown_Area_Type
  10
394184.500
  20
4705886.000
  0
VERTEX
  8
Unknown_Area_Type
  10
394130.000
  20
4701935.500
  0
VERTEX
  8
Unknown_Area_Type
  10
394129.484
  20
4701935.353
  0
VERTEX
  8
Unknown_Area_Type
  10
393471.020
  20
4701747.756
  0
VERTEX
  8
Unknown_Area_Type
  10
393162.999
  20
4701660.000
  0
VERTEX
  8
Unknown_Area_Type
  10
392812.513
  20
4701560.146
  0
SEQEND
  8
Unknown_Area_Type
  0
POLYLINE
  8
Unknown_Area_Type
  70
1
  66
1
  0
VERTEX
  8
Unknown_Area_Type
  10
398092.000
  20
4701503.500
  0
VERTEX
  8
Unknown_Area_Type
  10
398090.500
  20
4701503.500
  0
VERTEX
  8
Unknown_Area_Type
  10
397946.768
  20
4701550.000
  0
VERTEX
  8
Unknown_Area_Type
  10
397295.800
  20
4701760.600
  0
VERTEX
  8
Unknown_Area_Type
  10
396766.000
  20
4701932.000
  0
VERTEX
  8
Unknown_Area_Type
  10
396766.053
  20
4701933.606
  0
VERTEX
  8
Unknown_Area_Type
  10
396893.500
  20
4705783.500
  0
VERTEX
  8
Unknown_Area_Type
  10
396893.711
  20
4705783.579
  0
VERTEX
  8
Unknown_Area_Type
  10
397123.425
  20
4705870.000
  0
VERTEX
  8
Unknown_Area_Type
  10
397590.865
  20
4706045.856
  0
VERTEX
  8
Unknown_Area_Type
  10
397592.064
  20
4706045.838
  0
VERTEX
  8
Unknown_Area_Type
  10
398484.465
  20
4706032.683
  0
VERTEX
  8
Unknown_Area_Type
  10
399003.258
  20
4705870.000
  0
VERTEX
  8
Unknown_Area_Type
  10
399657.000
  20
4705665.000
  0
VERTEX
  8
Unknown_Area_Type
  10
399531.500
  20
4701913.000
  0
VERTEX
  8
Unknown_Area_Type
  10
399531.148
  20
4701911.944
  0
VERTEX
  8
Unknown_Area_Type
  10
399531.132
  20
4701911.896
  0
VERTEX
  8
Unknown_Area_Type
  10
399531.000
  20
4701911.500
  0
VERTEX
  8
Unknown_Area_Type
  10
399511.500
  20
4701906.000
  0
VERTEX
  8
Unknown_Area_Type
  10
399510.356
  20
4701906.000
  0
VERTEX
  8
Unknown_Area_Type
  10
399509.500
  20
4701906.000
  0
VERTEX
  8
Unknown_Area_Type
  10
399114.875
  20
4701793.775
  0
VERTEX
  8
Unknown_Area_Type
  10
398257.671
  20
4701550.000
  0
VERTEX
  8
Unknown_Area_Type
  10
398113.500
  20
4701509.000
  0
VERTEX
  8
Unknown_Area_Type
  10
398094.000
  20
4701503.500
  0
VERTEX
  8
Unknown_Area_Type
  10
398092.000
  20
4701503.500
  0
SEQEND
  8
Unknown_Area_Type
  0
POLYLINE
  8
Unknown_Area_Type
  70
1
  66
1
  0
VERTEX
  8
Unknown_Area_Type
  10
395435.861
  20
4701537.694
  0
VERTEX
  8
Unknown_Area_Type
  10
395434.500
  20
4701537.500
  0
VERTEX
  8
Unknown_Area_Type
  10
395410.000
  20
4701544.975
  0
VERTEX
  8
Unknown_Area_Type
  10
395393.530
  20
4701550.000
  0
VERTEX
  8
Unknown_Area_Type
  10
395032.989
  20
4701660.000
  0
VERTEX
  8
Unknown_Area_Type
  10
394564.812
  20
4701802.840
  0
VERTEX
  8
Unknown_Area_Type
  10
394130.000
  20
4701935.500
  0
VERTEX
  8
Unknown_Area_Type
  10
394184.500
  20
4705886.000
  0
VERTEX
  8
Unknown_Area_Type
  10
394196.139
  20
4705890.435
  0
VERTEX
  8
Unknown_Area_Type
  10
394404.958
  20
4705970.000
  0
VERTEX
  8
Unknown_Area_Type
  10
394716.366
  20
4706088.655
  0
VERTEX
  8
Unknown_Area_Type
  10
394717.698
  20
4706088.634
  0
VERTEX
  8
Unknown_Area_Type
  10
395579.778
  20
4706075.502
  0
VERTEX
  8
Unknown_Area_Type
  10
395841.421
  20
4706071.645
  0
VERTEX
  8
Unknown_Area_Type
  10
396577.670
  20
4705870.000
  0
VERTEX
  8
Unknown_Area_Type
  10
396893.500
  20
4705783.500
  0
VERTEX
  8
Unknown_Area_Type
  10
396766.500
  20
4701934.500
  0
VERTEX
  8
Unknown_Area_Type
  10
396766.053
  20
4701933.606
  0
VERTEX
  8
Unknown_Area_Type
  10
396765.215
  20
4701931.931
  0
VERTEX
  8
Unknown_Area_Type
  10
396765.000
  20
4701931.500
  0
VERTEX
  8
Unknown_Area_Type
  10
395680.000
  20
4701609.320
  0
VERTEX
  8
Unknown_Area_Type
  10
395620.000
  20
4701591.504
  0
VERTEX
  8
Unknown_Area_Type
  10
395480.228
  20
4701550.000
  0
VERTEX
  8
Unknown_Area_Type
  10
395441.500
  20
4701538.500
  0
VERTEX
  8
Unknown_Area_Type
  10
395438.355
  20
4701538.051
  0
VERTEX
  8
Unknown_Area_Type
  10
395435.861
  20
4701537.694
  0
SEQEND
  8
Unknown_Area_Type
  0
POLYLINE
  8
Unknown_Area_Type
  70
1
  66
1
  0
VERTEX
  8
Unknown_Area_Type
  10
387890.746
  20
4701770.000
  0
VERTEX
  8
Unknown_Area_Type
  10
387504.000
  20
4701656.500
  0
VERTEX
  8
Unknown_Area_Type
  10
387502.846
  20
4701656.615
  0
VERTEX
  8
Unknown_Area_Type
  10
387501.679
  20
4701656.732
  0
VERTEX
  8
Unknown_Area_Type
  10
387499.000
  20
4701657.000
  0
VERTEX
  8
Unknown_Area_Type
  10
387099.315
  20
4701770.000
  0
VERTEX
  8
Unknown_Area_Type
  10
386162.000
  20
4702035.000
  0
VERTEX
  8
Unknown_Area_Type
  10
386266.030
  20
4706080.000
  0
VERTEX
  8
Unknown_Area_Type
  10
386269.668
  20
4706221.427
  0
VERTEX
  8
Unknown_Area_Type
  10
388732.440
  20
4706181.491
  0
VERTEX
  8
Unknown_Area_Type
  10
388885.162
  20
4706179.089
  0
VERTEX
  8
Unknown_Area_Type
  10
388883.848
  20
4706080.000
  0
VERTEX
  8
Unknown_Area_Type
  10
388882.388
  20
4705970.000
  0
VERTEX
  8
Unknown_Area_Type
  10
388840.000
  20
4702776.282
  0
VERTEX
  8
Unknown_Area_Type
  10
388830.500
  20
4702060.500
  0
VERTEX
  8
Unknown_Area_Type
  10
388830.117
  20
4702054.752
  0
VERTEX
  8
Unknown_Area_Type
  10
388829.514
  20
4702045.711
  0
VERTEX
  8
Unknown_Area_Type
  10
388829.500
  20
4702045.500
  0
VERTEX
  8
Unknown_Area_Type
  10
388550.000
  20
4701963.474
  0
VERTEX
  8
Unknown_Area_Type
  10
387890.746
  20
4701770.000
  0
SEQEND
  8
Unknown_Area_Type
  0
POLYLINE
  8
Unknown_Area_Type
  70
1
  66
1
  0
VERTEX
  8
Unknown_Area_Type
  10
402355.360
  20
4700851.433
  0
VERTEX
  8
Unknown_Area_Type
  10
402355.359
  20
4700851.398
  0
VERTEX
  8
Unknown_Area_Type
  10
401320.521
  20
4701240.000
  0
VERTEX
  8
Unknown_Area_Type
  10
400494.998
  20
4701550.000
  0
VERTEX
  8
Unknown_Area_Type
  10
399531.215
  20
4701911.919
  0
VERTEX
  8
Unknown_Area_Type
  10
399531.148
  20
4701911.944
  0
VERTEX
  8
Unknown_Area_Type
  10
399531.000
  20
4701912.000
  0
VERTEX
  8
Unknown_Area_Type
  10
399657.000
  20
4705665.000
  0
VERTEX
  8
Unknown_Area_Type
  10
399657.465
  20
4705665.168
  0
VERTEX
  8
Unknown_Area_Type
  10
400224.558
  20
4705870.000
  0
VERTEX
  8
Unknown_Area_Type
  10
400591.140
  20
4706002.408
  0
VERTEX
  8
Unknown_Area_Type
  10
400591.826
  20
4706002.398
  0
VERTEX
  8
Unknown_Area_Type
  10
402427.096
  20
4705976.246
  0
VERTEX
  8
Unknown_Area_Type
  10
402394.706
  20
4703662.902
  0
VERTEX
  8
Unknown_Area_Type
  10
402362.329
  20
4701349.566
  0
VERTEX
  8
Unknown_Area_Type
  10
402355.360
  20
4700851.433
  0
SEQEND
  8
Unknown_Area_Type
  0
POLYLINE
  8
Unknown_Area_Type
  70
1
  66
1
  0
VERTEX
  8
Unknown_Area_Type
  10
379836.195
  20
4688010.000
  0
VERTEX
  8
Unknown_Area_Type
  10
379821.407
  20
4687817.528
  0
VERTEX
  8
Unknown_Area_Type
  10
379821.004
  20
4687817.535
  0
VERTEX
  8
Unknown_Area_Type
  10
378139.054
  20
4687846.372
  0
VERTEX
  8
Unknown_Area_Type
  10
376927.258
  20
4687867.741
  0
VERTEX
  8
Unknown_Area_Type
  10
376926.795
  20
4687867.750
  0
VERTEX
  8
Unknown_Area_Type
  10
376929.827
  20
4688010.000
  0
VERTEX
  8
Unknown_Area_Type
  10
376931.000
  20
4688065.000
  0
VERTEX
  8
Unknown_Area_Type
  10
376931.493
  20
4688065.166
  0
VERTEX
  8
Unknown_Area_Type
  10
376932.494
  20
4688065.502
  0
VERTEX
  8
Unknown_Area_Type
  10
378289.500
  20
4688521.500
  0
VERTEX
  8
Unknown_Area_Type
  10
378291.000
  20
4688522.000
  0
VERTEX
  8
Unknown_Area_Type
  10
378291.259
  20
4688521.919
  0
VERTEX
  8
Unknown_Area_Type
  10
378291.493
  20
4688521.847
  0
VERTEX
  8
Unknown_Area_Type
  10
379357.000
  20
4688189.973
  0
VERTEX
  8
Unknown_Area_Type
  10
379838.500
  20
4688040.000
  0
VERTEX
  8
Unknown_Area_Type
  10
379838.473
  20
4688039.650
  0
VERTEX
  8
Unknown_Area_Type
  10
379836.195
  20
4688010.000
  0
SEQEND
  8
Unknown_Area_Type
  0
POLYLINE
  8
Unknown_Area_Type
  70
1
  66
1
  0
VERTEX
  8
Unknown_Area_Type
  10
376930.309
  20
4688010.000
  0
VERTEX
  8
Unknown_Area_Type
  10
376927.258
  20
4687867.741
  0
VERTEX
  8
Unknown_Area_Type
  10
376926.795
  20
4687867.750
  0
VERTEX
  8
Unknown_Area_Type
  10
374706.276
  20
4687906.908
  0
VERTEX
  8
Unknown_Area_Type
  10
374712.682
  20
4688265.099
  0
VERTEX
  8
Unknown_Area_Type
  10
374712.686
  20
4688265.338
  0
VERTEX
  8
Unknown_Area_Type
  10
374890.000
  20
4688324.196
  0
VERTEX
  8
Unknown_Area_Type
  10
375183.167
  20
4688421.510
  0
VERTEX
  8
Unknown_Area_Type
  10
375509.504
  20
4688529.835
  0
VERTEX
  8
Unknown_Area_Type
  10
375510.000
  20
4688530.000
  0
VERTEX
  8
Unknown_Area_Type
  10
376923.873
  20
4688067.992
  0
VERTEX
  8
Unknown_Area_Type
  10
376931.500
  20
4688065.500
  0
VERTEX
  8
Unknown_Area_Type
  10
376931.493
  20
4688065.166
  0
VERTEX
  8
Unknown_Area_Type
  10
376930.309
  20
4688010.000
  0
SEQEND
  8
Unknown_Area_Type
  0
POLYLINE
  8
Unknown_Area_Type
  70
1
  66
1
  0
VERTEX
  8
Unknown_Area_Type
  10
384141.911
  20
4688299.916
  0
VERTEX
  8
Unknown_Area_Type
  10
384315.000
  20
4688247.000
  0
VERTEX
  8
Unknown_Area_Type
  10
384315.919
  20
4688247.000
  0
VERTEX
  8
Unknown_Area_Type
  10
384316.000
  20
4688247.000
  0
VERTEX
  8
Unknown_Area_Type
  10
384396.799
  20
4688222.404
  0
VERTEX
  8
Unknown_Area_Type
  10
385393.500
  20
4687919.000
  0
VERTEX
  8
Unknown_Area_Type
  10
385393.483
  20
4687918.643
  0
VERTEX
  8
Unknown_Area_Type
  10
385392.128
  20
4687890.000
  0
VERTEX
  8
Unknown_Area_Type
  10
385384.285
  20
4687724.209
  0
VERTEX
  8
Unknown_Area_Type
  10
385383.833
  20
4687724.216
  0
VERTEX
  8
Unknown_Area_Type
  10
385004.592
  20
4687730.347
  0
VERTEX
  8
Unknown_Area_Type
  10
382542.740
  20
4687771.348
  0
VERTEX
  8
Unknown_Area_Type
  10
382546.991
  20
4687890.000
  0
VERTEX
  8
Unknown_Area_Type
  10
382550.000
  20
4687974.000
  0
VERTEX
  8
Unknown_Area_Type
  10
382550.573
  20
4687974.174
  0
VERTEX
  8
Unknown_Area_Type
  10
383882.000
  20
4688378.500
  0
VERTEX
  8
Unknown_Area_Type
  10
383883.098
  20
4688378.378
  0
VERTEX
  8
Unknown_Area_Type
  10
383884.364
  20
4688378.237
  0
VERTEX
  8
Unknown_Area_Type
  10
383886.500
  20
4688378.000
  0
VERTEX
  8
Unknown_Area_Type
  10
384141.911
  20
4688299.916
  0
SEQEND
  8
Unknown_Area_Type
  0
POLYLINE
  8
Unknown_Area_Type
  70
1
  66
1
  0
VERTEX
  8
Unknown_Area_Type
  10
388254.500
  20
4687868.000
  0
VERTEX
  8
Unknown_Area_Type
  10
388243.800
  20
4687677.986
  0
VERTEX
  8
Unknown_Area_Type
  10
388243.588
  20
4687677.989
  0
VERTEX
  8
Unknown_Area_Type
  10
385384.285
  20
4687724.209
  0
VERTEX
  8
Unknown_Area_Type
  10
385383.833
  20
4687724.216
  0
VERTEX
  8
Unknown_Area_Type
  10
385391.655
  20
4687890.000
  0
VERTEX
  8
Unknown_Area_Type
  10
385393.000
  20
4687918.500
  0
VERTEX
  8
Unknown_Area_Type
  10
385393.483
  20
4687918.643
  0
VERTEX
  8
Unknown_Area_Type
  10
385642.209
  20
4687992.284
  0
VERTEX
  8
Unknown_Area_Type
  10
386703.500
  20
4688306.500
  0
VERTEX
  8
Unknown_Area_Type
  10
386705.000
  20
4688307.000
  0
VERTEX
  8
Unknown_Area_Type
  10
386705.511
  20
4688306.855
  0
VERTEX
  8
Unknown_Area_Type
  10
388176.848
  20
4687890.000
  0
VERTEX
  8
Unknown_Area_Type
  10
388254.500
  20
4687868.000
  0
SEQEND
  8
Unknown_Area_Type
  0
POLYLINE
  8
Unknown_Area_Type
  70
1
  66
1
  0
VERTEX
  8
Unknown_Area_Type
  10
382546.991
  20
4687890.000
  0
VERTEX
  8
Unknown_Area_Type
  10
382542.740
  20
4687771.348
  0
VERTEX
  8
Unknown_Area_Type
  10
381571.826
  20
4687787.518
  0
VERTEX
  8
Unknown_Area_Type
  10
379821.407
  20
4687817.528
  0
VERTEX
  8
Unknown_Area_Type
  10
379821.004
  20
4687817.535
  0
VERTEX
  8
Unknown_Area_Type
  10
379835.741
  20
4688010.000
  0
VERTEX
  8
Unknown_Area_Type
  10
379838.000
  20
4688039.500
  0
VERTEX
  8
Unknown_Area_Type
  10
379838.473
  20
4688039.650
  0
VERTEX
  8
Unknown_Area_Type
  10
379984.888
  20
4688086.202
  0
VERTEX
  8
Unknown_Area_Type
  10
380217.000
  20
4688160.000
  0
VERTEX
  8
Unknown_Area_Type
  10
380218.500
  20
4688160.500
  0
VERTEX
  8
Unknown_Area_Type
  10
380638.891
  20
4688293.321
  0
VERTEX
  8
Unknown_Area_Type
  10
381061.509
  20
4688426.845
  0
VERTEX
  8
Unknown_Area_Type
  10
381062.000
  20
4688427.000
  0
VERTEX
  8
Unknown_Area_Type
  10
381470.000
  20
4688302.790
  0
VERTEX
  8
Unknown_Area_Type
  10
381760.000
  20
4688214.504
  0
VERTEX
  8
Unknown_Area_Type
  10
382547.595
  20
4687974.732
  0
VERTEX
  8
Unknown_Area_Type
  10
382550.000
  20
4687974.000
  0
VERTEX
  8
Unknown_Area_Type
  10
382546.991
  20
4687890.000
  0
SEQEND
  8
Unknown_Area_Type
  0
POLYLINE
  8
Unknown_Area_Type
  70
1
  66
1
  0
VERTEX
  8
Unknown_Area_Type
  10
396506.830
  20
4687670.000
  0
VERTEX
  8
Unknown_Area_Type
  10
396506.244
  20
4687551.242
  0
VERTEX
  8
Unknown_Area_Type
  10
396506.208
  20
4687551.243
  0
VERTEX
  8
Unknown_Area_Type
  10
395302.856
  20
4687568.926
  0
VERTEX
  8
Unknown_Area_Type
  10
393745.906
  20
4687592.567
  0
VERTEX
  8
Unknown_Area_Type
  10
393747.589
  20
4687780.000
  0
VERTEX
  8
Unknown_Area_Type
  10
393748.500
  20
4687881.500
  0
VERTEX
  8
Unknown_Area_Type
  10
393749.271
  20
4687881.709
  0
VERTEX
  8
Unknown_Area_Type
  10
395200.000
  20
4688274.615
  0
VERTEX
  8
Unknown_Area_Type
  10
395236.500
  20
4688284.500
  0
VERTEX
  8
Unknown_Area_Type
  10
395238.500
  20
4688285.000
  0
VERTEX
  8
Unknown_Area_Type
  10
395238.976
  20
4688284.858
  0
VERTEX
  8
Unknown_Area_Type
  10
395480.000
  20
4688213.092
  0
VERTEX
  8
Unknown_Area_Type
  10
396508.000
  20
4687907.000
  0
VERTEX
  8
Unknown_Area_Type
  10
396506.830
  20
4687670.000
  0
SEQEND
  8
Unknown_Area_Type
  0
POLYLINE
  8
Unknown_Area_Type
  70
1
  66
1
  0
VERTEX
  8
Unknown_Area_Type
  10
393747.579
  20
4687780.000
  0
VERTEX
  8
Unknown_Area_Type
  10
393745.878
  20
4687592.568
  0
VERTEX
  8
Unknown_Area_Type
  10
391870.107
  20
4687621.050
  0
VERTEX
  8
Unknown_Area_Type
  10
390902.599
  20
4687636.216
  0
VERTEX
  8
Unknown_Area_Type
  10
390902.416
  20
4687636.219
  0
VERTEX
  8
Unknown_Area_Type
  10
390899.633
  20
4687780.000
  0
VERTEX
  8
Unknown_Area_Type
  10
390898.500
  20
4687838.500
  0
VERTEX
  8
Unknown_Area_Type
  10
390898.500
  20
4687848.500
  0
VERTEX
  8
Unknown_Area_Type
  10
390898.912
  20
4687848.665
  0
VERTEX
  8
Unknown_Area_Type
  10
390901.000
  20
4687849.500
  0
VERTEX
  8
Unknown_Area_Type
  10
392389.500
  20
4688271.000
  0
VERTEX
  8
Unknown_Area_Type
  10
392389.749
  20
4688270.929
  0
VERTEX
  8
Unknown_Area_Type
  10
393748.500
  20
4687881.500
  0
VERTEX
  8
Unknown_Area_Type
  10
393747.579
  20
4687780.000
  0
SEQEND
  8
Unknown_Area_Type
  0
POLYLINE
  8
Unknown_Area_Type
  70
1
  66
1
  0
VERTEX
  8
Unknown_Area_Type
  10
390899.823
  20
4687780.000
  0
VERTEX
  8
Unknown_Area_Type
  10
390902.599
  20
4687636.216
  0
VERTEX
  8
Unknown_Area_Type
  10
390902.416
  20
4687636.219
  0
VERTEX
  8
Unknown_Area_Type
  10
388437.352
  20
4687674.857
  0
VERTEX
  8
Unknown_Area_Type
  10
388243.800
  20
4687677.986
  0
VERTEX
  8
Unknown_Area_Type
  10
388243.588
  20
4687677.989
  0
VERTEX
  8
Unknown_Area_Type
  10
388254.000
  20
4687863.000
  0
VERTEX
  8
Unknown_Area_Type
  10
388254.500
  20
4687868.000
  0
VERTEX
  8
Unknown_Area_Type
  10
388254.699
  20
4687868.085
  0
VERTEX
  8
Unknown_Area_Type
  10
388258.000
  20
4687869.500
  0
VERTEX
  8
Unknown_Area_Type
  10
388327.562
  20
4687890.000
  0
VERTEX
  8
Unknown_Area_Type
  10
388330.000
  20
4687890.719
  0
VERTEX
  8
Unknown_Area_Type
  10
388409.000
  20
4687914.000
  0
VERTEX
  8
Unknown_Area_Type
  10
388410.500
  20
4687914.500
  0
VERTEX
  8
Unknown_Area_Type
  10
388620.000
  20
4687976.235
  0
VERTEX
  8
Unknown_Area_Type
  10
389128.826
  20
4688126.176
  0
VERTEX
  8
Unknown_Area_Type
  10
389509.512
  20
4688238.356
  0
VERTEX
  8
Unknown_Area_Type
  10
389510.000
  20
4688238.500
  0
VERTEX
  8
Unknown_Area_Type
  10
390204.250
  20
4688043.500
  0
VERTEX
  8
Unknown_Area_Type
  10
390898.500
  20
4687848.500
  0
VERTEX
  8
Unknown_Area_Type
  10
390899.823
  20
4687780.000
  0
SEQEND
  8
Unknown_Area_Type
  0
POLYLINE
  8
Unknown_Area_Type
  70
1
  66
1
  0
VERTEX
  8
Unknown_Area_Type
  10
399319.216
  20
4687670.000
  0
VERTEX
  8
Unknown_Area_Type
  10
399313.986
  20
4687510.267
  0
VERTEX
  8
Unknown_Area_Type
  10
398735.600
  20
4687518.483
  0
VERTEX
  8
Unknown_Area_Type
  10
396506.244
  20
4687551.242
  0
VERTEX
  8
Unknown_Area_Type
  10
396506.208
  20
4687551.243
  0
VERTEX
  8
Unknown_Area_Type
  10
396506.806
  20
4687670.000
  0
VERTEX
  8
Unknown_Area_Type
  10
396508.000
  20
4687907.000
  0
VERTEX
  8
Unknown_Area_Type
  10
396508.544
  20
4687907.136
  0
VERTEX
  8
Unknown_Area_Type
  10
396600.000
  20
4687930.000
  0
VERTEX
  8
Unknown_Area_Type
  10
396602.000
  20
4687930.500
  0
VERTEX
  8
Unknown_Area_Type
  10
397737.431
  20
4688211.191
  0
VERTEX
  8
Unknown_Area_Type
  10
398035.724
  20
4688284.932
  0
VERTEX
  8
Unknown_Area_Type
  10
398036.000
  20
4688285.000
  0
VERTEX
  8
Unknown_Area_Type
  10
399326.500
  20
4687892.500
  0
VERTEX
  8
Unknown_Area_Type
  10
399319.216
  20
4687670.000
  0
SEQEND
  8
Unknown_Area_Type
  0
POLYLINE
  8
Unknown_Area_Type
  70
1
  66
1
  0
VERTEX
  8
Unknown_Area_Type
  10
402183.486
  20
4688554.521
  0
VERTEX
  8
Unknown_Area_Type
  10
402168.339
  20
4687469.722
  0
VERTEX
  8
Unknown_Area_Type
  10
399313.986
  20
4687510.267
  0
VERTEX
  8
Unknown_Area_Type
  10
399319.216
  20
4687670.000
  0
VERTEX
  8
Unknown_Area_Type
  10
399326.500
  20
4687892.500
  0
VERTEX
  8
Unknown_Area_Type
  10
402183.490
  20
4688554.827
  0
VERTEX
  8
Unknown_Area_Type
  10
402183.486
  20
4688554.521
  0
SEQEND
  8
Unknown_Area_Type
  0
POLYLINE
  8
Unknown_Area_Type
  70
1
  66
1
  0
VERTEX
  8
Unknown_Area_Type
  10
397124.171
  20
4705870.000
  0
VERTEX
  8
Unknown_Area_Type
  10
396894.000
  20
4705783.500
  0
VERTEX
  8
Unknown_Area_Type
  10
396893.711
  20
4705783.579
  0
VERTEX
  8
Unknown_Area_Type
  10
396578.079
  20
4705870.000
  0
VERTEX
  8
Unknown_Area_Type
  10
395841.628
  20
4706071.642
  0
VERTEX
  8
Unknown_Area_Type
  10
397590.865
  20
4706045.856
  0
VERTEX
  8
Unknown_Area_Type
  10
397592.064
  20
4706045.838
  0
VERTEX
  8
Unknown_Area_Type
  10
397124.171
  20
4705870.000
  0
SEQEND
  8
Unknown_Area_Type
  0
POLYLINE
  8
Unknown_Area_Type
  70
1
  66
1
  0
VERTEX
  8
Unknown_Area_Type
  10
391806.816
  20
4706133.147
  0
VERTEX
  8
Unknown_Area_Type
  10
391610.000
  20
4706055.000
  0
VERTEX
  8
Unknown_Area_Type
  10
391609.979
  20
4706055.004
  0
VERTEX
  8
Unknown_Area_Type
  10
391182.605
  20
4706142.963
  0
VERTEX
  8
Unknown_Area_Type
  10
391805.609
  20
4706133.166
  0
VERTEX
  8
Unknown_Area_Type
  10
391806.816
  20
4706133.147
  0
SEQEND
  8
Unknown_Area_Type
  0
POLYLINE
  8
Unknown_Area_Type
  70
1
  66
1
  0
VERTEX
  8
Unknown_Area_Type
  10
394183.910
  20
4705886.144
  0
VERTEX
  8
Unknown_Area_Type
  10
394183.500
  20
4705886.000
  0
VERTEX
  8
Unknown_Area_Type
  10
393838.311
  20
4705970.000
  0
VERTEX
  8
Unknown_Area_Type
  10
393259.517
  20
4706110.847
  0
VERTEX
  8
Unknown_Area_Type
  10
393261.379
  20
4706110.818
  0
VERTEX
  8
Unknown_Area_Type
  10
394716.366
  20
4706088.655
  0
VERTEX
  8
Unknown_Area_Type
  10
394717.698
  20
4706088.634
  0
VERTEX
  8
Unknown_Area_Type
  10
394406.263
  20
4705970.000
  0
VERTEX
  8
Unknown_Area_Type
  10
394212.000
  20
4705896.000
  0
VERTEX
  8
Unknown_Area_Type
  10
394196.139
  20
4705890.435
  0
VERTEX
  8
Unknown_Area_Type
  10
394183.910
  20
4705886.144
  0
SEQEND
  8
Unknown_Area_Type
  0
POLYLINE
  8
Unknown_Area_Type
  70
1
  66
1
  0
VERTEX
  8
Unknown_Area_Type
  10
400225.384
  20
4705870.000
  0
VERTEX
  8
Unknown_Area_Type
  10
399658.000
  20
4705665.000
  0
VERTEX
  8
Unknown_Area_Type
  10
399657.465
  20
4705665.168
  0
VERTEX
  8
Unknown_Area_Type
  10
399004.064
  20
4705870.000
  0
VERTEX
  8
Unknown_Area_Type
  10
398485.148
  20
4706032.673
  0
VERTEX
  8
Unknown_Area_Type
  10
399003.439
  20
4706025.032
  0
VERTEX
  8
Unknown_Area_Type
  10
400591.140
  20
4706002.408
  0
VERTEX
  8
Unknown_Area_Type
  10
400591.826
  20
4706002.398
  0
VERTEX
  8
Unknown_Area_Type
  10
400225.384
  20
4705870.000
  0
SEQEND
  8
Unknown_Area_Type
  0
POLYLINE
  8
Unknown_Area_Type
  70
1
  66
1
  0
VERTEX
  8
Unknown_Area_Type
  10
392311.526
  20
4693194.163
  0
VERTEX
  8
Unknown_Area_Type
  10
392310.500
  20
4693194.000
  0
VERTEX
  8
Unknown_Area_Type
  10
391587.875
  20
4693443.000
  0
VERTEX
  8
Unknown_Area_Type
  10
391347.000
  20
4693526.000
  0
VERTEX
  8
Unknown_Area_Type
  10
391347.136
  20
4693531.540
  0
VERTEX
  8
Unknown_Area_Type
  10
391425.282
  20
4696720.000
  0
VERTEX
  8
Unknown_Area_Type
  10
391432.880
  20
4697030.000
  0
VERTEX
  8
Unknown_Area_Type
  10
391445.000
  20
4697524.500
  0
VERTEX
  8
Unknown_Area_Type
  10
391445.290
  20
4697524.618
  0
VERTEX
  8
Unknown_Area_Type
  10
392506.000
  20
4697958.500
  0
VERTEX
  8
Unknown_Area_Type
  10
392507.500
  20
4697959.000
  0
VERTEX
  8
Unknown_Area_Type
  10
392585.288
  20
4697990.687
  0
VERTEX
  8
Unknown_Area_Type
  10
392806.525
  20
4698080.806
  0
VERTEX
  8
Unknown_Area_Type
  10
392807.000
  20
4698081.000
  0
VERTEX
  8
Unknown_Area_Type
  10
394380.500
  20
4697501.000
  0
VERTEX
  8
Unknown_Area_Type
  10
394380.488
  20
4697500.505
  0
VERTEX
  8
Unknown_Area_Type
  10
394368.709
  20
4697030.000
  0
VERTEX
  8
Unknown_Area_Type
  10
394360.948
  20
4696720.000
  0
VERTEX
  8
Unknown_Area_Type
  10
394330.496
  20
4695503.586
  0
VERTEX
  8
Unknown_Area_Type
  10
394280.512
  20
4693506.995
  0
VERTEX
  8
Unknown_Area_Type
  10
394280.511
  20
4693506.922
  0
VERTEX
  8
Unknown_Area_Type
  10
394280.500
  20
4693506.500
  0
VERTEX
  8
Unknown_Area_Type
  10
393018.960
  20
4693306.383
  0
VERTEX
  8
Unknown_Area_Type
  10
392311.526
  20
4693194.163
  0
SEQEND
  8
Unknown_Area_Type
  0
POLYLINE
  8
Unknown_Area_Type
  70
1
  66
1
  0
VERTEX
  8
Unknown_Area_Type
  10
389510.326
  20
4693204.057
  0
VERTEX
  8
Unknown_Area_Type
  10
389510.000
  20
4693204.000
  0
VERTEX
  8
Unknown_Area_Type
  10
388690.000
  20
4693473.600
  0
VERTEX
  8
Unknown_Area_Type
  10
388522.266
  20
4693528.748
  0
VERTEX
  8
Unknown_Area_Type
  10
388521.500
  20
4693529.000
  0
VERTEX
  8
Unknown_Area_Type
  10
388446.270
  20
4696820.000
  0
VERTEX
  8
Unknown_Area_Type
  10
388441.470
  20
4697030.000
  0
VERTEX
  8
Unknown_Area_Type
  10
388438.727
  20
4697150.000
  0
VERTEX
  8
Unknown_Area_Type
  10
388429.000
  20
4697575.500
  0
VERTEX
  8
Unknown_Area_Type
  10
388429.011
  20
4697575.504
  0
VERTEX
  8
Unknown_Area_Type
  10
388429.313
  20
4697575.602
  0
VERTEX
  8
Unknown_Area_Type
  10
388480.000
  20
4697592.153
  0
VERTEX
  8
Unknown_Area_Type
  10
388760.000
  20
4697683.580
  0
VERTEX
  8
Unknown_Area_Type
  10
390142.500
  20
4698135.000
  0
VERTEX
  8
Unknown_Area_Type
  10
390144.000
  20
4698135.500
  0
VERTEX
  8
Unknown_Area_Type
  10
390144.480
  20
4698135.330
  0
VERTEX
  8
Unknown_Area_Type
  10
390148.006
  20
4698134.086
  0
VERTEX
  8
Unknown_Area_Type
  10
390152.500
  20
4698132.500
  0
VERTEX
  8
Unknown_Area_Type
  10
391444.451
  20
4697524.758
  0
VERTEX
  8
Unknown_Area_Type
  10
391445.000
  20
4697524.500
  0
VERTEX
  8
Unknown_Area_Type
  10
391432.915
  20
4697030.000
  0
VERTEX
  8
Unknown_Area_Type
  10
391425.339
  20
4696720.000
  0
VERTEX
  8
Unknown_Area_Type
  10
391347.500
  20
4693535.000
  0
VERTEX
  8
Unknown_Area_Type
  10
391347.136
  20
4693531.540
  0
VERTEX
  8
Unknown_Area_Type
  10
391346.551
  20
4693525.982
  0
VERTEX
  8
Unknown_Area_Type
  10
391346.500
  20
4693525.500
  0
VERTEX
  8
Unknown_Area_Type
  10
389772.255
  20
4693249.911
  0
VERTEX
  8
Unknown_Area_Type
  10
389510.326
  20
4693204.057
  0
SEQEND
  8
Unknown_Area_Type
  0
POLYLINE
  8
Unknown_Area_Type
  70
1
  66
1
  0
VERTEX
  8
Unknown_Area_Type
  10
385175.133
  20
4693423.211
  0
VERTEX
  8
Unknown_Area_Type
  10
383871.000
  20
4693151.500
  0
VERTEX
  8
Unknown_Area_Type
  10
383870.032
  20
4693151.715
  0
VERTEX
  8
Unknown_Area_Type
  10
383862.612
  20
4693153.364
  0
VERTEX
  8
Unknown_Area_Type
  10
383857.500
  20
4693154.500
  0
VERTEX
  8
Unknown_Area_Type
  10
382635.500
  20
4693511.000
  0
VERTEX
  8
Unknown_Area_Type
  10
382638.668
  20
4696820.000
  0
VERTEX
  8
Unknown_Area_Type
  10
382638.984
  20
4697150.000
  0
VERTEX
  8
Unknown_Area_Type
  10
382639.500
  20
4697689.000
  0
VERTEX
  8
Unknown_Area_Type
  10
382927.022
  20
4697725.511
  0
VERTEX
  8
Unknown_Area_Type
  10
384309.000
  20
4697901.000
  0
VERTEX
  8
Unknown_Area_Type
  10
384313.000
  20
4697901.500
  0
VERTEX
  8
Unknown_Area_Type
  10
384832.413
  20
4697967.045
  0
VERTEX
  8
Unknown_Area_Type
  10
384942.585
  20
4697980.948
  0
VERTEX
  8
Unknown_Area_Type
  10
384943.000
  20
4697981.000
  0
VERTEX
  8
Unknown_Area_Type
  10
385549.500
  20
4697605.000
  0
VERTEX
  8
Unknown_Area_Type
  10
385548.060
  20
4697150.000
  0
VERTEX
  8
Unknown_Area_Type
  10
385547.015
  20
4696820.000
  0
VERTEX
  8
Unknown_Area_Type
  10
385536.500
  20
4693498.500
  0
VERTEX
  8
Unknown_Area_Type
  10
385175.133
  20
4693423.211
  0
SEQEND
  8
Unknown_Area_Type
  0
POLYLINE
  8
Unknown_Area_Type
  70
1
  66
1
  0
VERTEX
  8
Unknown_Area_Type
  10
379790.479
  20
4693478.278
  0
VERTEX
  8
Unknown_Area_Type
  10
378196.500
  20
4693132.000
  0
VERTEX
  8
Unknown_Area_Type
  10
378196.053
  20
4693132.120
  0
VERTEX
  8
Unknown_Area_Type
  10
377581.750
  20
4693297.500
  0
VERTEX
  8
Unknown_Area_Type
  10
376967.440
  20
4693462.881
  0
VERTEX
  8
Unknown_Area_Type
  10
376967.000
  20
4693463.000
  0
VERTEX
  8
Unknown_Area_Type
  10
377035.736
  20
4696940.000
  0
VERTEX
  8
Unknown_Area_Type
  10
377042.260
  20
4697270.000
  0
VERTEX
  8
Unknown_Area_Type
  10
377052.490
  20
4697787.501
  0
VERTEX
  8
Unknown_Area_Type
  10
377052.497
  20
4697787.839
  0
VERTEX
  8
Unknown_Area_Type
  10
377052.500
  20
4697788.000
  0
VERTEX
  8
Unknown_Area_Type
  10
377080.876
  20
4697807.188
  0
VERTEX
  8
Unknown_Area_Type
  10
377085.068
  20
4697810.023
  0
VERTEX
  8
Unknown_Area_Type
  10
377203.423
  20
4697890.056
  0
VERTEX
  8
Unknown_Area_Type
  10
377279.500
  20
4697941.500
  0
VERTEX
  8
Unknown_Area_Type
  10
377279.742
  20
4697941.984
  0
VERTEX
  8
Unknown_Area_Type
  10
377280.000
  20
4697942.500
  0
VERTEX
  8
Unknown_Area_Type
  10
377280.471
  20
4697942.480
  0
VERTEX
  8
Unknown_Area_Type
  10
379780.000
  20
4697837.000
  0
VERTEX
  8
Unknown_Area_Type
  10
379781.496
  20
4697270.000
  0
VERTEX
  8
Unknown_Area_Type
  10
379782.367
  20
4696940.000
  0
VERTEX
  8
Unknown_Area_Type
  10
379791.500
  20
4693478.500
  0
VERTEX
  8
Unknown_Area_Type
  10
379790.479
  20
4693478.278
  0
SEQEND
  8
Unknown_Area_Type
  0
POLYLINE
  8
Unknown_Area_Type
  70
1
  66
1
  0
VERTEX
  8
Unknown_Area_Type
  10
375442.268
  20
4693140.192
  0
VERTEX
  8
Unknown_Area_Type
  10
375441.000
  20
4693140.000
  0
VERTEX
  8
Unknown_Area_Type
  10
374980.000
  20
4693261.210
  0
VERTEX
  8
Unknown_Area_Type
  10
374802.889
  20
4693307.778
  0
VERTEX
  8
Unknown_Area_Type
  10
374802.890
  20
4693307.840
  0
VERTEX
  8
Unknown_Area_Type
  10
374830.435
  20
4694846.883
  0
VERTEX
  8
Unknown_Area_Type
  10
374871.855
  20
4697160.224
  0
VERTEX
  8
Unknown_Area_Type
  10
374887.560
  20
4698036.976
  0
VERTEX
  8
Unknown_Area_Type
  10
375060.000
  20
4698017.104
  0
VERTEX
  8
Unknown_Area_Type
  10
375900.311
  20
4697920.272
  0
VERTEX
  8
Unknown_Area_Type
  10
377052.072
  20
4697787.549
  0
VERTEX
  8
Unknown_Area_Type
  10
377052.490
  20
4697787.501
  0
VERTEX
  8
Unknown_Area_Type
  10
377052.500
  20
4697787.500
  0
VERTEX
  8
Unknown_Area_Type
  10
377042.269
  20
4697270.000
  0
VERTEX
  8
Unknown_Area_Type
  10
377035.744
  20
4696940.000
  0
VERTEX
  8
Unknown_Area_Type
  10
376967.000
  20
4693463.000
  0
VERTEX
  8
Unknown_Area_Type
  10
376680.315
  20
4693402.131
  0
VERTEX
  8
Unknown_Area_Type
  10
375457.500
  20
4693142.500
  0
VERTEX
  8
Unknown_Area_Type
  10
375448.001
  20
4693141.061
  0
VERTEX
  8
Unknown_Area_Type
  10
375442.268
  20
4693140.192
  0
SEQEND
  8
Unknown_Area_Type
  0
POLYLINE
  8
Unknown_Area_Type
  70
1
  66
1
  0
VERTEX
  8
Unknown_Area_Type
  10
381910.000
  20
4697853.574
  0
VERTEX
  8
Unknown_Area_Type
  10
382253.000
  20
4697843.000
  0
VERTEX
  8
Unknown_Area_Type
  10
382261.487
  20
4697843.000
  0
VERTEX
  8
Unknown_Area_Type
  10
382268.000
  20
4697843.000
  0
VERTEX
  8
Unknown_Area_Type
  10
382440.500
  20
4697837.500
  0
VERTEX
  8
Unknown_Area_Type
  10
382440.510
  20
4697837.492
  0
VERTEX
  8
Unknown_Area_Type
  10
382639.427
  20
4697689.054
  0
VERTEX
  8
Unknown_Area_Type
  10
382639.500
  20
4697689.000
  0
VERTEX
  8
Unknown_Area_Type
  10
382638.984
  20
4697150.000
  0
VERTEX
  8
Unknown_Area_Type
  10
382638.668
  20
4696820.000
  0
VERTEX
  8
Unknown_Area_Type
  10
382635.500
  20
4693511.000
  0
VERTEX
  8
Unknown_Area_Type
  10
381830.000
  20
4693326.396
  0
VERTEX
  8
Unknown_Area_Type
  10
381550.000
  20
4693262.225
  0
VERTEX
  8
Unknown_Area_Type
  10
381038.500
  20
4693145.000
  0
VERTEX
  8
Unknown_Area_Type
  10
381038.269
  20
4693145.062
  0
VERTEX
  8
Unknown_Area_Type
  10
380567.650
  20
4693270.925
  0
VERTEX
  8
Unknown_Area_Type
  10
380219.630
  20
4693364.000
  0
VERTEX
  8
Unknown_Area_Type
  10
380114.000
  20
4693392.250
  0
VERTEX
  8
Unknown_Area_Type
  10
379794.693
  20
4693477.646
  0
VERTEX
  8
Unknown_Area_Type
  10
379791.500
  20
4693478.500
  0
VERTEX
  8
Unknown_Area_Type
  10
379782.367
  20
4696940.000
  0
VERTEX
  8
Unknown_Area_Type
  10
379781.496
  20
4697270.000
  0
VERTEX
  8
Unknown_Area_Type
  10
379780.000
  20
4697837.000
  0
VERTEX
  8
Unknown_Area_Type
  10
379780.027
  20
4697837.020
  0
VERTEX
  8
Unknown_Area_Type
  10
379885.000
  20
4697916.000
  0
VERTEX
  8
Unknown_Area_Type
  10
379885.480
  20
4697915.985
  0
VERTEX
  8
Unknown_Area_Type
  10
381620.000
  20
4697862.514
  0
VERTEX
  8
Unknown_Area_Type
  10
381910.000
  20
4697853.574
  0
SEQEND
  8
Unknown_Area_Type
  0
POLYLINE
  8
Unknown_Area_Type
  70
1
  66
1
  0
VERTEX
  8
Unknown_Area_Type
  10
395270.000
  20
4693204.942
  0
VERTEX
  8
Unknown_Area_Type
  10
395142.500
  20
4693186.000
  0
VERTEX
  8
Unknown_Area_Type
  10
395142.215
  20
4693186.106
  0
VERTEX
  8
Unknown_Area_Type
  10
394567.833
  20
4693400.000
  0
VERTEX
  8
Unknown_Area_Type
  10
394280.650
  20
4693506.944
  0
VERTEX
  8
Unknown_Area_Type
  10
394280.512
  20
4693506.995
  0
VERTEX
  8
Unknown_Area_Type
  10
394280.500
  20
4693507.000
  0
VERTEX
  8
Unknown_Area_Type
  10
394330.496
  20
4695503.586
  0
VERTEX
  8
Unknown_Area_Type
  10
394360.956
  20
4696720.000
  0
VERTEX
  8
Unknown_Area_Type
  10
394368.718
  20
4697030.000
  0
VERTEX
  8
Unknown_Area_Type
  10
394380.500
  20
4697500.500
  0
VERTEX
  8
Unknown_Area_Type
  10
395009.063
  20
4697810.000
  0
VERTEX
  8
Unknown_Area_Type
  10
395340.000
  20
4697972.951
  0
VERTEX
  8
Unknown_Area_Type
  10
395465.000
  20
4698034.500
  0
VERTEX
  8
Unknown_Area_Type
  10
395465.683
  20
4698034.344
  0
VERTEX
  8
Unknown_Area_Type
  10
395470.387
  20
4698033.269
  0
VERTEX
  8
Unknown_Area_Type
  10
395482.500
  20
4698030.500
  0
VERTEX
  8
Unknown_Area_Type
  10
395620.000
  20
4697991.839
  0
VERTEX
  8
Unknown_Area_Type
  10
396734.235
  20
4697678.547
  0
VERTEX
  8
Unknown_Area_Type
  10
397291.000
  20
4697522.000
  0
VERTEX
  8
Unknown_Area_Type
  10
397284.493
  20
4696930.000
  0
VERTEX
  8
Unknown_Area_Type
  10
397281.085
  20
4696620.000
  0
VERTEX
  8
Unknown_Area_Type
  10
397249.500
  20
4693746.500
  0
VERTEX
  8
Unknown_Area_Type
  10
397249.500
  20
4693727.580
  0
VERTEX
  8
Unknown_Area_Type
  10
397249.500
  20
4693714.000
  0
VERTEX
  8
Unknown_Area_Type
  10
397247.500
  20
4693518.000
  0
VERTEX
  8
Unknown_Area_Type
  10
397247.000
  20
4693499.000
  0
VERTEX
  8
Unknown_Area_Type
  10
397246.562
  20
4693498.781
  0
VERTEX
  8
Unknown_Area_Type
  10
397246.000
  20
4693498.500
  0
VERTEX
  8
Unknown_Area_Type
  10
395550.000
  20
4693246.539
  0
VERTEX
  8
Unknown_Area_Type
  10
395270.000
  20
4693204.942
  0
SEQEND
  8
Unknown_Area_Type
  0
POLYLINE
  8
Unknown_Area_Type
  70
1
  66
1
  0
VERTEX
  8
Unknown_Area_Type
  10
388410.000
  20
4693506.979
  0
VERTEX
  8
Unknown_Area_Type
  10
386659.500
  20
4693164.500
  0
VERTEX
  8
Unknown_Area_Type
  10
386658.777
  20
4693164.652
  0
VERTEX
  8
Unknown_Area_Type
  10
386654.393
  20
4693165.575
  0
VERTEX
  8
Unknown_Area_Type
  10
386650.000
  20
4693166.500
  0
VERTEX
  8
Unknown_Area_Type
  10
385536.911
  20
4693498.378
  0
VERTEX
  8
Unknown_Area_Type
  10
385536.500
  20
4693498.500
  0
VERTEX
  8
Unknown_Area_Type
  10
385547.015
  20
4696820.000
  0
VERTEX
  8
Unknown_Area_Type
  10
385548.060
  20
4697150.000
  0
VERTEX
  8
Unknown_Area_Type
  10
385549.500
  20
4697605.000
  0
VERTEX
  8
Unknown_Area_Type
  10
387548.000
  20
4698057.500
  0
VERTEX
  8
Unknown_Area_Type
  10
387548.529
  20
4698057.265
  0
VERTEX
  8
Unknown_Area_Type
  10
387553.316
  20
4698055.137
  0
VERTEX
  8
Unknown_Area_Type
  10
387557.000
  20
4698053.500
  0
VERTEX
  8
Unknown_Area_Type
  10
388429.000
  20
4697576.000
  0
VERTEX
  8
Unknown_Area_Type
  10
388429.005
  20
4697575.771
  0
VERTEX
  8
Unknown_Area_Type
  10
388429.011
  20
4697575.504
  0
VERTEX
  8
Unknown_Area_Type
  10
388438.781
  20
4697150.000
  0
VERTEX
  8
Unknown_Area_Type
  10
388441.536
  20
4697030.000
  0
VERTEX
  8
Unknown_Area_Type
  10
388446.358
  20
4696820.000
  0
VERTEX
  8
Unknown_Area_Type
  10
388517.500
  20
4693721.500
  0
VERTEX
  8
Unknown_Area_Type
  10
388517.500
  20
4693714.000
  0
VERTEX
  8
Unknown_Area_Type
  10
388521.500
  20
4693547.000
  0
VERTEX
  8
Unknown_Area_Type
  10
388521.500
  20
4693529.000
  0
VERTEX
  8
Unknown_Area_Type
  10
388521.125
  20
4693528.875
  0
VERTEX
  8
Unknown_Area_Type
  10
388520.000
  20
4693528.500
  0
VERTEX
  8
Unknown_Area_Type
  10
388410.000
  20
4693506.979
  0
SEQEND
  8
Unknown_Area_Type
  0
POLYLINE
  8
Unknown_Area_Type
  70
1
  66
1
  0
VERTEX
  8
Unknown_Area_Type
  10
377052.072
  20
4697787.549
  0
VERTEX
  8
Unknown_Area_Type
  10
377052.000
  20
4697787.500
  0
VERTEX
  8
Unknown_Area_Type
  10
375900.311
  20
4697920.272
  0
VERTEX
  8
Unknown_Area_Type
  10
375060.000
  20
4698017.146
  0
VERTEX
  8
Unknown_Area_Type
  10
374887.560
  20
4698037.026
  0
VERTEX
  8
Unknown_Area_Type
  10
374913.292
  20
4699473.572
  0
VERTEX
  8
Unknown_Area_Type
  10
374954.745
  20
4701786.929
  0
VERTEX
  8
Unknown_Area_Type
  10
374959.130
  20
4702031.553
  0
VERTEX
  8
Unknown_Area_Type
  10
374959.134
  20
4702031.770
  0
VERTEX
  8
Unknown_Area_Type
  10
375140.000
  20
4702092.410
  0
VERTEX
  8
Unknown_Area_Type
  10
375529.500
  20
4702223.000
  0
VERTEX
  8
Unknown_Area_Type
  10
375575.562
  20
4702238.079
  0
VERTEX
  8
Unknown_Area_Type
  10
375640.417
  20
4702259.309
  0
VERTEX
  8
Unknown_Area_Type
  10
375641.000
  20
4702259.500
  0
VERTEX
  8
Unknown_Area_Type
  10
377308.700
  20
4701912.062
  0
VERTEX
  8
Unknown_Area_Type
  10
377308.996
  20
4701912.001
  0
VERTEX
  8
Unknown_Area_Type
  10
377309.000
  20
4701912.000
  0
VERTEX
  8
Unknown_Area_Type
  10
377308.842
  20
4701890.000
  0
VERTEX
  8
Unknown_Area_Type
  10
377306.473
  20
4701560.000
  0
VERTEX
  8
Unknown_Area_Type
  10
377280.500
  20
4697942.500
  0
VERTEX
  8
Unknown_Area_Type
  10
377280.471
  20
4697942.480
  0
VERTEX
  8
Unknown_Area_Type
  10
377279.742
  20
4697941.984
  0
VERTEX
  8
Unknown_Area_Type
  10
377203.423
  20
4697890.056
  0
VERTEX
  8
Unknown_Area_Type
  10
377086.500
  20
4697810.500
  0
VERTEX
  8
Unknown_Area_Type
  10
377085.068
  20
4697810.023
  0
VERTEX
  8
Unknown_Area_Type
  10
377085.000
  20
4697810.000
  0
VERTEX
  8
Unknown_Area_Type
  10
377080.876
  20
4697807.188
  0
VERTEX
  8
Unknown_Area_Type
  10
377052.497
  20
4697787.839
  0
VERTEX
  8
Unknown_Area_Type
  10
377052.072
  20
4697787.549
  0
SEQEND
  8
Unknown_Area_Type
  0
POLYLINE
  8
Unknown_Area_Type
  70
1
  66
1
  0
VERTEX
  8
Unknown_Area_Type
  10
379885.480
  20
4697915.985
  0
VERTEX
  8
Unknown_Area_Type
  10
379780.500
  20
4697837.000
  0
VERTEX
  8
Unknown_Area_Type
  10
379780.027
  20
4697837.020
  0
VERTEX
  8
Unknown_Area_Type
  10
377280.500
  20
4697942.500
  0
VERTEX
  8
Unknown_Area_Type
  10
377306.469
  20
4701560.000
  0
VERTEX
  8
Unknown_Area_Type
  10
377308.839
  20
4701890.000
  0
VERTEX
  8
Unknown_Area_Type
  10
377308.996
  20
4701912.001
  0
VERTEX
  8
Unknown_Area_Type
  10
377308.998
  20
4701912.155
  0
VERTEX
  8
Unknown_Area_Type
  10
377309.000
  20
4701912.500
  0
VERTEX
  8
Unknown_Area_Type
  10
378283.000
  20
4702216.000
  0
VERTEX
  8
Unknown_Area_Type
  10
378285.000
  20
4702216.500
  0
VERTEX
  8
Unknown_Area_Type
  10
378285.572
  20
4702216.367
  0
VERTEX
  8
Unknown_Area_Type
  10
379114.500
  20
4702023.250
  0
VERTEX
  8
Unknown_Area_Type
  10
379686.458
  20
4701890.000
  0
VERTEX
  8
Unknown_Area_Type
  10
379943.413
  20
4701830.137
  0
VERTEX
  8
Unknown_Area_Type
  10
379944.000
  20
4701830.000
  0
VERTEX
  8
Unknown_Area_Type
  10
379943.955
  20
4701826.954
  0
VERTEX
  8
Unknown_Area_Type
  10
379939.965
  20
4701560.000
  0
VERTEX
  8
Unknown_Area_Type
  10
379885.500
  20
4697916.000
  0
VERTEX
  8
Unknown_Area_Type
  10
379885.480
  20
4697915.985
  0
SEQEND
  8
Unknown_Area_Type
  0
POLYLINE
  8
Unknown_Area_Type
  70
1
  66
1
  0
VERTEX
  8
Unknown_Area_Type
  10
374890.000
  20
4688324.048
  0
VERTEX
  8
Unknown_Area_Type
  10
374712.682
  20
4688265.099
  0
VERTEX
  8
Unknown_Area_Type
  10
374712.686
  20
4688265.338
  0
VERTEX
  8
Unknown_Area_Type
  10
374747.646
  20
4690220.225
  0
VERTEX
  8
Unknown_Area_Type
  10
374789.032
  20
4692533.550
  0
VERTEX
  8
Unknown_Area_Type
  10
374802.889
  20
4693307.778
  0
VERTEX
  8
Unknown_Area_Type
  10
374802.890
  20
4693307.840
  0
VERTEX
  8
Unknown_Area_Type
  10
374980.000
  20
4693261.401
  0
VERTEX
  8
Unknown_Area_Type
  10
375442.268
  20
4693140.192
  0
VERTEX
  8
Unknown_Area_Type
  10
375443.000
  20
4693140.000
  0
VERTEX
  8
Unknown_Area_Type
  10
375450.186
  20
4692640.000
  0
VERTEX
  8
Unknown_Area_Type
  10
375454.929
  20
4692310.000
  0
VERTEX
  8
Unknown_Area_Type
  10
375509.000
  20
4688548.000
  0
VERTEX
  8
Unknown_Area_Type
  10
375509.000
  20
4688530.000
  0
VERTEX
  8
Unknown_Area_Type
  10
375508.000
  20
4688529.500
  0
VERTEX
  8
Unknown_Area_Type
  10
375183.167
  20
4688421.510
  0
VERTEX
  8
Unknown_Area_Type
  10
374890.000
  20
4688324.048
  0
SEQEND
  8
Unknown_Area_Type
  0
POLYLINE
  8
Unknown_Area_Type
  70
1
  66
1
  0
VERTEX
  8
Unknown_Area_Type
  10
382639.427
  20
4697689.054
  0
VERTEX
  8
Unknown_Area_Type
  10
382639.000
  20
4697689.000
  0
VERTEX
  8
Unknown_Area_Type
  10
382440.500
  20
4697837.000
  0
VERTEX
  8
Unknown_Area_Type
  10
382440.510
  20
4697837.492
  0
VERTEX
  8
Unknown_Area_Type
  10
382514.891
  20
4701450.000
  0
VERTEX
  8
Unknown_Area_Type
  10
382521.481
  20
4701770.000
  0
VERTEX
  8
Unknown_Area_Type
  10
382522.500
  20
4701819.500
  0
VERTEX
  8
Unknown_Area_Type
  10
382834.700
  20
4701912.677
  0
VERTEX
  8
Unknown_Area_Type
  10
383459.000
  20
4702099.000
  0
VERTEX
  8
Unknown_Area_Type
  10
383459.529
  20
4702098.860
  0
VERTEX
  8
Unknown_Area_Type
  10
384313.500
  20
4701872.000
  0
VERTEX
  8
Unknown_Area_Type
  10
384313.950
  20
4701871.910
  0
VERTEX
  8
Unknown_Area_Type
  10
384316.000
  20
4701871.500
  0
VERTEX
  8
Unknown_Area_Type
  10
384697.976
  20
4701770.000
  0
VERTEX
  8
Unknown_Area_Type
  10
384951.492
  20
4701702.635
  0
VERTEX
  8
Unknown_Area_Type
  10
384952.000
  20
4701702.500
  0
VERTEX
  8
Unknown_Area_Type
  10
384951.355
  20
4701450.000
  0
VERTEX
  8
Unknown_Area_Type
  10
384942.500
  20
4697981.000
  0
VERTEX
  8
Unknown_Area_Type
  10
384832.413
  20
4697967.045
  0
VERTEX
  8
Unknown_Area_Type
  10
382927.022
  20
4697725.511
  0
VERTEX
  8
Unknown_Area_Type
  10
382639.427
  20
4697689.054
  0
SEQEND
  8
Unknown_Area_Type
  0
POLYLINE
  8
Unknown_Area_Type
  70
1
  66
1
  0
VERTEX
  8
Unknown_Area_Type
  10
385549.500
  20
4697605.000
  0
VERTEX
  8
Unknown_Area_Type
  10
385549.000
  20
4697605.000
  0
VERTEX
  8
Unknown_Area_Type
  10
385542.500
  20
4697609.000
  0
VERTEX
  8
Unknown_Area_Type
  10
384942.585
  20
4697980.948
  0
VERTEX
  8
Unknown_Area_Type
  10
384942.500
  20
4697981.000
  0
VERTEX
  8
Unknown_Area_Type
  10
384951.355
  20
4701450.000
  0
VERTEX
  8
Unknown_Area_Type
  10
384952.000
  20
4701702.500
  0
VERTEX
  8
Unknown_Area_Type
  10
385197.297
  20
4701770.000
  0
VERTEX
  8
Unknown_Area_Type
  10
385402.331
  20
4701826.420
  0
VERTEX
  8
Unknown_Area_Type
  10
386158.500
  20
4702034.500
  0
VERTEX
  8
Unknown_Area_Type
  10
386160.000
  20
4702035.000
  0
VERTEX
  8
Unknown_Area_Type
  10
386162.000
  20
4702035.000
  0
VERTEX
  8
Unknown_Area_Type
  10
386164.000
  20
4702035.000
  0
VERTEX
  8
Unknown_Area_Type
  10
386173.000
  20
4702032.500
  0
VERTEX
  8
Unknown_Area_Type
  10
387101.175
  20
4701770.000
  0
VERTEX
  8
Unknown_Area_Type
  10
387501.679
  20
4701656.732
  0
VERTEX
  8
Unknown_Area_Type
  10
387502.500
  20
4701656.500
  0
VERTEX
  8
Unknown_Area_Type
  10
387505.180
  20
4701450.000
  0
VERTEX
  8
Unknown_Area_Type
  10
387549.000
  20
4698073.500
  0
VERTEX
  8
Unknown_Area_Type
  10
387549.000
  20
4698057.500
  0
VERTEX
  8
Unknown_Area_Type
  10
387548.529
  20
4698057.265
  0
VERTEX
  8
Unknown_Area_Type
  10
387548.000
  20
4698057.000
  0
VERTEX
  8
Unknown_Area_Type
  10
385551.000
  20
4697605.000
  0
VERTEX
  8
Unknown_Area_Type
  10
385549.500
  20
4697605.000
  0
SEQEND
  8
Unknown_Area_Type
  0
POLYLINE
  8
Unknown_Area_Type
  70
1
  66
1
  0
VERTEX
  8
Unknown_Area_Type
  10
388480.000
  20
4697591.985
  0
VERTEX
  8
Unknown_Area_Type
  10
388429.500
  20
4697575.500
  0
VERTEX
  8
Unknown_Area_Type
  10
388429.313
  20
4697575.602
  0
VERTEX
  8
Unknown_Area_Type
  10
388429.005
  20
4697575.771
  0
VERTEX
  8
Unknown_Area_Type
  10
387553.316
  20
4698055.137
  0
VERTEX
  8
Unknown_Area_Type
  10
387549.000
  20
4698057.500
  0
VERTEX
  8
Unknown_Area_Type
  10
387504.923
  20
4701450.000
  0
VERTEX
  8
Unknown_Area_Type
  10
387502.500
  20
4701636.500
  0
VERTEX
  8
Unknown_Area_Type
  10
387502.500
  20
4701656.500
  0
VERTEX
  8
Unknown_Area_Type
  10
387502.846
  20
4701656.615
  0
VERTEX
  8
Unknown_Area_Type
  10
387505.500
  20
4701657.500
  0
VERTEX
  8
Unknown_Area_Type
  10
387888.849
  20
4701770.000
  0
VERTEX
  8
Unknown_Area_Type
  10
388408.500
  20
4701922.500
  0
VERTEX
  8
Unknown_Area_Type
  10
388410.500
  20
4701923.000
  0
VERTEX
  8
Unknown_Area_Type
  10
388550.000
  20
4701963.854
  0
VERTEX
  8
Unknown_Area_Type
  10
388829.514
  20
4702045.711
  0
VERTEX
  8
Unknown_Area_Type
  10
388830.247
  20
4702045.926
  0
VERTEX
  8
Unknown_Area_Type
  10
388830.500
  20
4702046.000
  0
VERTEX
  8
Unknown_Area_Type
  10
388840.000
  20
4702043.160
  0
VERTEX
  8
Unknown_Area_Type
  10
390121.507
  20
4701660.000
  0
VERTEX
  8
Unknown_Area_Type
  10
390218.257
  20
4701631.073
  0
VERTEX
  8
Unknown_Area_Type
  10
390218.500
  20
4701631.000
  0
VERTEX
  8
Unknown_Area_Type
  10
390212.381
  20
4701340.000
  0
VERTEX
  8
Unknown_Area_Type
  10
390145.000
  20
4698135.500
  0
VERTEX
  8
Unknown_Area_Type
  10
390144.480
  20
4698135.330
  0
VERTEX
  8
Unknown_Area_Type
  10
388760.000
  20
4697683.387
  0
VERTEX
  8
Unknown_Area_Type
  10
388480.000
  20
4697591.985
  0
SEQEND
  8
Unknown_Area_Type
  0
POLYLINE
  8
Unknown_Area_Type
  70
1
  66
1
  0
VERTEX
  8
Unknown_Area_Type
  10
382514.891
  20
4701450.000
  0
VERTEX
  8
Unknown_Area_Type
  10
382440.500
  20
4697837.500
  0
VERTEX
  8
Unknown_Area_Type
  10
382261.487
  20
4697843.000
  0
VERTEX
  8
Unknown_Area_Type
  10
381910.000
  20
4697853.799
  0
VERTEX
  8
Unknown_Area_Type
  10
381620.000
  20
4697862.709
  0
VERTEX
  8
Unknown_Area_Type
  10
379885.500
  20
4697916.000
  0
VERTEX
  8
Unknown_Area_Type
  10
379939.582
  20
4701560.000
  0
VERTEX
  8
Unknown_Area_Type
  10
379943.500
  20
4701824.000
  0
VERTEX
  8
Unknown_Area_Type
  10
379943.955
  20
4701826.954
  0
VERTEX
  8
Unknown_Area_Type
  10
379944.499
  20
4701830.496
  0
VERTEX
  8
Unknown_Area_Type
  10
379944.500
  20
4701830.500
  0
VERTEX
  8
Unknown_Area_Type
  10
380123.986
  20
4701890.000
  0
VERTEX
  8
Unknown_Area_Type
  10
380217.500
  20
4701921.000
  0
VERTEX
  8
Unknown_Area_Type
  10
380219.000
  20
4701921.500
  0
VERTEX
  8
Unknown_Area_Type
  10
380911.507
  20
4702150.837
  0
VERTEX
  8
Unknown_Area_Type
  10
380911.808
  20
4702150.937
  0
VERTEX
  8
Unknown_Area_Type
  10
380912.000
  20
4702151.000
  0
VERTEX
  8
Unknown_Area_Type
  10
381700.000
  20
4701988.801
  0
VERTEX
  8
Unknown_Area_Type
  10
381990.000
  20
4701929.108
  0
VERTEX
  8
Unknown_Area_Type
  10
382522.204
  20
4701819.561
  0
VERTEX
  8
Unknown_Area_Type
  10
382522.500
  20
4701819.500
  0
VERTEX
  8
Unknown_Area_Type
  10
382521.481
  20
4701770.000
  0
VERTEX
  8
Unknown_Area_Type
  10
382514.891
  20
4701450.000
  0
SEQEND
  8
Unknown_Area_Type
  0
POLYLINE
  8
Unknown_Area_Type
  70
1
  66
1
  0
VERTEX
  8
Unknown_Area_Type
  10
392585.288
  20
4697990.687
  0
VERTEX
  8
Unknown_Area_Type
  10
391446.000
  20
4697524.500
  0
VERTEX
  8
Unknown_Area_Type
  10
391445.290
  20
4697524.618
  0
VERTEX
  8
Unknown_Area_Type
  10
391444.451
  20
4697524.758
  0
VERTEX
  8
Unknown_Area_Type
  10
391443.000
  20
4697525.000
  0
VERTEX
  8
Unknown_Area_Type
  10
390148.006
  20
4698134.086
  0
VERTEX
  8
Unknown_Area_Type
  10
390145.000
  20
4698135.500
  0
VERTEX
  8
Unknown_Area_Type
  10
390212.381
  20
4701340.000
  0
VERTEX
  8
Unknown_Area_Type
  10
390218.500
  20
4701631.000
  0
VERTEX
  8
Unknown_Area_Type
  10
390314.041
  20
4701658.040
  0
VERTEX
  8
Unknown_Area_Type
  10
390320.967
  20
4701660.000
  0
VERTEX
  8
Unknown_Area_Type
  10
390457.000
  20
4701698.500
  0
VERTEX
  8
Unknown_Area_Type
  10
390459.000
  20
4701699.000
  0
VERTEX
  8
Unknown_Area_Type
  10
391429.500
  20
4701972.500
  0
VERTEX
  8
Unknown_Area_Type
  10
391432.693
  20
4701972.991
  0
VERTEX
  8
Unknown_Area_Type
  10
391435.008
  20
4701973.347
  0
VERTEX
  8
Unknown_Area_Type
  10
391436.000
  20
4701973.500
  0
VERTEX
  8
Unknown_Area_Type
  10
392479.989
  20
4701660.000
  0
VERTEX
  8
Unknown_Area_Type
  10
392812.513
  20
4701560.146
  0
VERTEX
  8
Unknown_Area_Type
  10
392813.000
  20
4701560.000
  0
VERTEX
  8
Unknown_Area_Type
  10
392812.557
  20
4701340.000
  0
VERTEX
  8
Unknown_Area_Type
  10
392806.000
  20
4698081.000
  0
VERTEX
  8
Unknown_Area_Type
  10
392585.288
  20
4697990.687
  0
SEQEND
  8
Unknown_Area_Type
  0
POLYLINE
  8
Unknown_Area_Type
  70
1
  66
1
  0
VERTEX
  8
Unknown_Area_Type
  10
395009.000
  20
4697810.000
  0
VERTEX
  8
Unknown_Area_Type
  10
394380.500
  20
4697500.500
  0
VERTEX
  8
Unknown_Area_Type
  10
394380.488
  20
4697500.505
  0
VERTEX
  8
Unknown_Area_Type
  10
392806.525
  20
4698080.806
  0
VERTEX
  8
Unknown_Area_Type
  10
392806.000
  20
4698081.000
  0
VERTEX
  8
Unknown_Area_Type
  10
392812.557
  20
4701340.000
  0
VERTEX
  8
Unknown_Area_Type
  10
392813.000
  20
4701560.000
  0
VERTEX
  8
Unknown_Area_Type
  10
393163.466
  20
4701660.000
  0
VERTEX
  8
Unknown_Area_Type
  10
393471.020
  20
4701747.756
  0
VERTEX
  8
Unknown_Area_Type
  10
394129.000
  20
4701935.500
  0
VERTEX
  8
Unknown_Area_Type
  10
394129.484
  20
4701935.353
  0
VERTEX
  8
Unknown_Area_Type
  10
394564.812
  20
4701802.840
  0
VERTEX
  8
Unknown_Area_Type
  10
395034.066
  20
4701660.000
  0
VERTEX
  8
Unknown_Area_Type
  10
395395.435
  20
4701550.000
  0
VERTEX
  8
Unknown_Area_Type
  10
395410.000
  20
4701545.567
  0
VERTEX
  8
Unknown_Area_Type
  10
395435.861
  20
4701537.694
  0
VERTEX
  8
Unknown_Area_Type
  10
395436.500
  20
4701537.500
  0
VERTEX
  8
Unknown_Area_Type
  10
395438.163
  20
4701340.000
  0
VERTEX
  8
Unknown_Area_Type
  10
395439.005
  20
4701240.000
  0
VERTEX
  8
Unknown_Area_Type
  10
395466.000
  20
4698034.500
  0
VERTEX
  8
Unknown_Area_Type
  10
395465.683
  20
4698034.344
  0
VERTEX
  8
Unknown_Area_Type
  10
395340.000
  20
4697972.467
  0
VERTEX
  8
Unknown_Area_Type
  10
395010.000
  20
4697810.000
  0
VERTEX
  8
Unknown_Area_Type
  10
395009.063
  20
4697810.000
  0
VERTEX
  8
Unknown_Area_Type
  10
395009.000
  20
4697810.000
  0
SEQEND
  8
Unknown_Area_Type
  0
POLYLINE
  8
Unknown_Area_Type
  70
1
  66
1
  0
VERTEX
  8
Unknown_Area_Type
  10
398108.371
  20
4697977.428
  0
VERTEX
  8
Unknown_Area_Type
  10
397292.000
  20
4697522.000
  0
VERTEX
  8
Unknown_Area_Type
  10
397291.335
  20
4697522.187
  0
VERTEX
  8
Unknown_Area_Type
  10
396734.235
  20
4697678.547
  0
VERTEX
  8
Unknown_Area_Type
  10
395620.000
  20
4697991.277
  0
VERTEX
  8
Unknown_Area_Type
  10
395470.387
  20
4698033.269
  0
VERTEX
  8
Unknown_Area_Type
  10
395466.000
  20
4698034.500
  0
VERTEX
  8
Unknown_Area_Type
  10
395439.005
  20
4701240.000
  0
VERTEX
  8
Unknown_Area_Type
  10
395438.163
  20
4701340.000
  0
VERTEX
  8
Unknown_Area_Type
  10
395436.500
  20
4701537.500
  0
VERTEX
  8
Unknown_Area_Type
  10
395438.355
  20
4701538.051
  0
VERTEX
  8
Unknown_Area_Type
  10
395478.600
  20
4701550.000
  0
VERTEX
  8
Unknown_Area_Type
  10
395620.000
  20
4701591.983
  0
VERTEX
  8
Unknown_Area_Type
  10
395680.000
  20
4701609.798
  0
VERTEX
  8
Unknown_Area_Type
  10
396763.500
  20
4701931.500
  0
VERTEX
  8
Unknown_Area_Type
  10
396765.000
  20
4701932.000
  0
VERTEX
  8
Unknown_Area_Type
  10
396765.215
  20
4701931.931
  0
VERTEX
  8
Unknown_Area_Type
  10
397295.800
  20
4701760.600
  0
VERTEX
  8
Unknown_Area_Type
  10
397947.996
  20
4701550.000
  0
VERTEX
  8
Unknown_Area_Type
  10
398092.000
  20
4701503.500
  0
VERTEX
  8
Unknown_Area_Type
  10
398093.233
  20
4701240.000
  0
VERTEX
  8
Unknown_Area_Type
  10
398108.500
  20
4697977.500
  0
VERTEX
  8
Unknown_Area_Type
  10
398108.371
  20
4697977.428
  0
SEQEND
  8
Unknown_Area_Type
  0
POLYLINE
  8
Unknown_Area_Type
  70
1
  66
1
  0
VERTEX
  8
Unknown_Area_Type
  10
380114.000
  20
4693392.250
  0
VERTEX
  8
Unknown_Area_Type
  10
380219.000
  20
4693364.000
  0
VERTEX
  8
Unknown_Area_Type
  10
380219.630
  20
4693364.000
  0
VERTEX
  8
Unknown_Area_Type
  10
380220.000
  20
4693364.000
  0
VERTEX
  8
Unknown_Area_Type
  10
380567.650
  20
4693270.925
  0
VERTEX
  8
Unknown_Area_Type
  10
381038.000
  20
4693145.000
  0
VERTEX
  8
Unknown_Area_Type
  10
381040.462
  20
4692640.000
  0
VERTEX
  8
Unknown_Area_Type
  10
381042.071
  20
4692310.000
  0
VERTEX
  8
Unknown_Area_Type
  10
381061.000
  20
4688427.000
  0
VERTEX
  8
Unknown_Area_Type
  10
380638.891
  20
4688293.321
  0
VERTEX
  8
Unknown_Area_Type
  10
379984.888
  20
4688086.202
  0
VERTEX
  8
Unknown_Area_Type
  10
379839.000
  20
4688040.000
  0
VERTEX
  8
Unknown_Area_Type
  10
379357.000
  20
4688189.973
  0
VERTEX
  8
Unknown_Area_Type
  10
378291.500
  20
4688521.500
  0
VERTEX
  8
Unknown_Area_Type
  10
378291.493
  20
4688521.847
  0
VERTEX
  8
Unknown_Area_Type
  10
378291.490
  20
4688521.997
  0
VERTEX
  8
Unknown_Area_Type
  10
378212.617
  20
4692310.000
  0
VERTEX
  8
Unknown_Area_Type
  10
378205.745
  20
4692640.000
  0
VERTEX
  8
Unknown_Area_Type
  10
378195.500
  20
4693132.000
  0
VERTEX
  8
Unknown_Area_Type
  10
378196.053
  20
4693132.120
  0
VERTEX
  8
Unknown_Area_Type
  10
379789.000
  20
4693478.500
  0
VERTEX
  8
Unknown_Area_Type
  10
379790.479
  20
4693478.278
  0
VERTEX
  8
Unknown_Area_Type
  10
379794.693
  20
4693477.646
  0
VERTEX
  8
Unknown_Area_Type
  10
379799.000
  20
4693477.000
  0
VERTEX
  8
Unknown_Area_Type
  10
380114.000
  20
4693392.250
  0
SEQEND
  8
Unknown_Area_Type
  0
POLYLINE
  8
Unknown_Area_Type
  70
1
  66
1
  0
VERTEX
  8
Unknown_Area_Type
  10
383883.098
  20
4688378.378
  0
VERTEX
  8
Unknown_Area_Type
  10
382551.500
  20
4687974.000
  0
VERTEX
  8
Unknown_Area_Type
  10
382550.573
  20
4687974.174
  0
VERTEX
  8
Unknown_Area_Type
  10
382547.595
  20
4687974.732
  0
VERTEX
  8
Unknown_Area_Type
  10
382543.500
  20
4687975.500
  0
VERTEX
  8
Unknown_Area_Type
  10
381760.000
  20
4688214.117
  0
VERTEX
  8
Unknown_Area_Type
  10
381470.000
  20
4688302.438
  0
VERTEX
  8
Unknown_Area_Type
  10
381061.509
  20
4688426.845
  0
VERTEX
  8
Unknown_Area_Type
  10
381061.000
  20
4688427.000
  0
VERTEX
  8
Unknown_Area_Type
  10
381042.071
  20
4692310.000
  0
VERTEX
  8
Unknown_Area_Type
  10
381040.462
  20
4692640.000
  0
VERTEX
  8
Unknown_Area_Type
  10
381038.000
  20
4693145.000
  0
VERTEX
  8
Unknown_Area_Type
  10
381038.269
  20
4693145.062
  0
VERTEX
  8
Unknown_Area_Type
  10
381550.000
  20
4693262.474
  0
VERTEX
  8
Unknown_Area_Type
  10
381830.000
  20
4693326.717
  0
VERTEX
  8
Unknown_Area_Type
  10
382631.000
  20
4693510.500
  0
VERTEX
  8
Unknown_Area_Type
  10
382633.500
  20
4693511.000
  0
VERTEX
  8
Unknown_Area_Type
  10
382635.500
  20
4693511.000
  0
VERTEX
  8
Unknown_Area_Type
  10
382637.000
  20
4693511.000
  0
VERTEX
  8
Unknown_Area_Type
  10
383862.612
  20
4693153.364
  0
VERTEX
  8
Unknown_Area_Type
  10
383869.000
  20
4693151.500
  0
VERTEX
  8
Unknown_Area_Type
  10
383870.919
  20
4692520.000
  0
VERTEX
  8
Unknown_Area_Type
  10
383871.891
  20
4692200.000
  0
VERTEX
  8
Unknown_Area_Type
  10
383883.500
  20
4688378.500
  0
VERTEX
  8
Unknown_Area_Type
  10
383883.098
  20
4688378.378
  0
SEQEND
  8
Unknown_Area_Type
  0
POLYLINE
  8
Unknown_Area_Type
  70
1
  66
1
  0
VERTEX
  8
Unknown_Area_Type
  10
392389.749
  20
4688270.929
  0
VERTEX
  8
Unknown_Area_Type
  10
390899.500
  20
4687848.500
  0
VERTEX
  8
Unknown_Area_Type
  10
390898.912
  20
4687848.665
  0
VERTEX
  8
Unknown_Area_Type
  10
390204.250
  20
4688043.500
  0
VERTEX
  8
Unknown_Area_Type
  10
389509.512
  20
4688238.356
  0
VERTEX
  8
Unknown_Area_Type
  10
389509.000
  20
4688238.500
  0
VERTEX
  8
Unknown_Area_Type
  10
389510.163
  20
4692090.000
  0
VERTEX
  8
Unknown_Area_Type
  10
389510.260
  20
4692410.000
  0
VERTEX
  8
Unknown_Area_Type
  10
389510.500
  20
4693204.000
  0
VERTEX
  8
Unknown_Area_Type
  10
389772.255
  20
4693249.911
  0
VERTEX
  8
Unknown_Area_Type
  10
391343.500
  20
4693525.500
  0
VERTEX
  8
Unknown_Area_Type
  10
391346.500
  20
4693526.000
  0
VERTEX
  8
Unknown_Area_Type
  10
391346.551
  20
4693525.982
  0
VERTEX
  8
Unknown_Area_Type
  10
391587.875
  20
4693443.000
  0
VERTEX
  8
Unknown_Area_Type
  10
392311.526
  20
4693194.163
  0
VERTEX
  8
Unknown_Area_Type
  10
392312.000
  20
4693194.000
  0
VERTEX
  8
Unknown_Area_Type
  10
392324.422
  20
4692410.000
  0
VERTEX
  8
Unknown_Area_Type
  10
392329.492
  20
4692090.000
  0
VERTEX
  8
Unknown_Area_Type
  10
392390.000
  20
4688271.000
  0
VERTEX
  8
Unknown_Area_Type
  10
392389.749
  20
4688270.929
  0
SEQEND
  8
Unknown_Area_Type
  0
POLYLINE
  8
Unknown_Area_Type
  70
1
  66
1
  0
VERTEX
  8
Unknown_Area_Type
  10
388329.461
  20
4687890.000
  0
VERTEX
  8
Unknown_Area_Type
  10
388255.000
  20
4687868.000
  0
VERTEX
  8
Unknown_Area_Type
  10
388254.699
  20
4687868.085
  0
VERTEX
  8
Unknown_Area_Type
  10
388177.374
  20
4687890.000
  0
VERTEX
  8
Unknown_Area_Type
  10
386706.000
  20
4688307.000
  0
VERTEX
  8
Unknown_Area_Type
  10
386667.531
  20
4692200.000
  0
VERTEX
  8
Unknown_Area_Type
  10
386664.369
  20
4692520.000
  0
VERTEX
  8
Unknown_Area_Type
  10
386658.000
  20
4693164.500
  0
VERTEX
  8
Unknown_Area_Type
  10
386658.777
  20
4693164.652
  0
VERTEX
  8
Unknown_Area_Type
  10
388410.000
  20
4693507.457
  0
VERTEX
  8
Unknown_Area_Type
  10
388517.500
  20
4693528.500
  0
VERTEX
  8
Unknown_Area_Type
  10
388520.000
  20
4693529.000
  0
VERTEX
  8
Unknown_Area_Type
  10
388521.125
  20
4693528.875
  0
VERTEX
  8
Unknown_Area_Type
  10
388522.266
  20
4693528.748
  0
VERTEX
  8
Unknown_Area_Type
  10
388524.500
  20
4693528.500
  0
VERTEX
  8
Unknown_Area_Type
  10
388690.000
  20
4693474.033
  0
VERTEX
  8
Unknown_Area_Type
  10
389510.326
  20
4693204.057
  0
VERTEX
  8
Unknown_Area_Type
  10
389510.500
  20
4693204.000
  0
VERTEX
  8
Unknown_Area_Type
  10
389510.260
  20
4692410.000
  0
VERTEX
  8
Unknown_Area_Type
  10
389510.163
  20
4692090.000
  0
VERTEX
  8
Unknown_Area_Type
  10
389509.000
  20
4688238.500
  0
VERTEX
  8
Unknown_Area_Type
  10
389128.826
  20
4688126.176
  0
VERTEX
  8
Unknown_Area_Type
  10
388620.000
  20
4687975.841
  0
VERTEX
  8
Unknown_Area_Type
  10
388330.000
  20
4687890.159
  0
VERTEX
  8
Unknown_Area_Type
  10
388329.461
  20
4687890.000
  0
SEQEND
  8
Unknown_Area_Type
  0
POLYLINE
  8
Unknown_Area_Type
  70
1
  66
1
  0
VERTEX
  8
Unknown_Area_Type
  10
400618.616
  20
4697859.005
  0
VERTEX
  8
Unknown_Area_Type
  10
400168.500
  20
4697579.500
  0
VERTEX
  8
Unknown_Area_Type
  10
400167.738
  20
4697579.647
  0
VERTEX
  8
Unknown_Area_Type
  10
398108.500
  20
4697977.500
  0
VERTEX
  8
Unknown_Area_Type
  10
398093.233
  20
4701240.000
  0
VERTEX
  8
Unknown_Area_Type
  10
398092.000
  20
4701503.500
  0
VERTEX
  8
Unknown_Area_Type
  10
398255.780
  20
4701550.000
  0
VERTEX
  8
Unknown_Area_Type
  10
398648.500
  20
4701661.500
  0
VERTEX
  8
Unknown_Area_Type
  10
398650.500
  20
4701662.000
  0
VERTEX
  8
Unknown_Area_Type
  10
399114.875
  20
4701793.775
  0
VERTEX
  8
Unknown_Area_Type
  10
399510.356
  20
4701906.000
  0
VERTEX
  8
Unknown_Area_Type
  10
399531.132
  20
4701911.896
  0
VERTEX
  8
Unknown_Area_Type
  10
399531.215
  20
4701911.919
  0
VERTEX
  8
Unknown_Area_Type
  10
399531.500
  20
4701912.000
  0
VERTEX
  8
Unknown_Area_Type
  10
400495.360
  20
4701550.000
  0
VERTEX
  8
Unknown_Area_Type
  10
401320.764
  20
4701240.000
  0
VERTEX
  8
Unknown_Area_Type
  10
402355.360
  20
4700851.433
  0
VERTEX
  8
Unknown_Area_Type
  10
402355.359
  20
4700851.398
  0
VERTEX
  8
Unknown_Area_Type
  10
402329.965
  20
4699036.239
  0
VERTEX
  8
Unknown_Area_Type
  10
402328.349
  20
4698920.738
  0
VERTEX
  8
Unknown_Area_Type
  10
402328.349
  20
4698920.684
  0
VERTEX
  8
Unknown_Area_Type
  10
400698.580
  20
4697908.659
  0
VERTEX
  8
Unknown_Area_Type
  10
400618.616
  20
4697859.005
  0
SEQEND
  8
Unknown_Area_Type
  0
POLYLINE
  8
Unknown_Area_Type
  70
1
  66
1
  0
VERTEX
  8
Unknown_Area_Type
  10
378291.259
  20
4688521.919
  0
VERTEX
  8
Unknown_Area_Type
  10
376932.500
  20
4688065.500
  0
VERTEX
  8
Unknown_Area_Type
  10
376932.494
  20
4688065.502
  0
VERTEX
  8
Unknown_Area_Type
  10
376923.873
  20
4688067.992
  0
VERTEX
  8
Unknown_Area_Type
  10
376910.000
  20
4688072.000
  0
VERTEX
  8
Unknown_Area_Type
  10
375509.504
  20
4688529.835
  0
VERTEX
  8
Unknown_Area_Type
  10
375509.000
  20
4688530.000
  0
VERTEX
  8
Unknown_Area_Type
  10
375454.883
  20
4692310.000
  0
VERTEX
  8
Unknown_Area_Type
  10
375450.158
  20
4692640.000
  0
VERTEX
  8
Unknown_Area_Type
  10
375443.000
  20
4693140.000
  0
VERTEX
  8
Unknown_Area_Type
  10
375448.001
  20
4693141.061
  0
VERTEX
  8
Unknown_Area_Type
  10
376119.500
  20
4693283.500
  0
VERTEX
  8
Unknown_Area_Type
  10
376122.000
  20
4693284.000
  0
VERTEX
  8
Unknown_Area_Type
  10
376680.315
  20
4693402.131
  0
VERTEX
  8
Unknown_Area_Type
  10
376967.440
  20
4693462.881
  0
VERTEX
  8
Unknown_Area_Type
  10
376968.000
  20
4693463.000
  0
VERTEX
  8
Unknown_Area_Type
  10
377581.750
  20
4693297.500
  0
VERTEX
  8
Unknown_Area_Type
  10
378195.500
  20
4693132.000
  0
VERTEX
  8
Unknown_Area_Type
  10
378205.745
  20
4692640.000
  0
VERTEX
  8
Unknown_Area_Type
  10
378212.617
  20
4692310.000
  0
VERTEX
  8
Unknown_Area_Type
  10
378291.500
  20
4688522.000
  0
VERTEX
  8
Unknown_Area_Type
  10
378291.490
  20
4688521.997
  0
VERTEX
  8
Unknown_Area_Type
  10
378291.259
  20
4688521.919
  0
SEQEND
  8
Unknown_Area_Type
  0
POLYLINE
  8
Unknown_Area_Type
  70
1
  66
1
  0
VERTEX
  8
Unknown_Area_Type
  10
397737.431
  20
4688211.191
  0
VERTEX
  8
Unknown_Area_Type
  10
396509.000
  20
4687907.000
  0
VERTEX
  8
Unknown_Area_Type
  10
396508.544
  20
4687907.136
  0
VERTEX
  8
Unknown_Area_Type
  10
395480.000
  20
4688213.390
  0
VERTEX
  8
Unknown_Area_Type
  10
395239.500
  20
4688285.000
  0
VERTEX
  8
Unknown_Area_Type
  10
395200.000
  20
4690260.403
  0
VERTEX
  8
Unknown_Area_Type
  10
395163.416
  20
4692090.000
  0
VERTEX
  8
Unknown_Area_Type
  10
395157.017
  20
4692410.000
  0
VERTEX
  8
Unknown_Area_Type
  10
395141.500
  20
4693186.000
  0
VERTEX
  8
Unknown_Area_Type
  10
395142.215
  20
4693186.106
  0
VERTEX
  8
Unknown_Area_Type
  10
395270.000
  20
4693205.113
  0
VERTEX
  8
Unknown_Area_Type
  10
395550.000
  20
4693246.760
  0
VERTEX
  8
Unknown_Area_Type
  10
397242.500
  20
4693498.500
  0
VERTEX
  8
Unknown_Area_Type
  10
397246.000
  20
4693499.000
  0
VERTEX
  8
Unknown_Area_Type
  10
397246.562
  20
4693498.781
  0
VERTEX
  8
Unknown_Area_Type
  10
397626.750
  20
4693350.500
  0
VERTEX
  8
Unknown_Area_Type
  10
398007.255
  20
4693202.096
  0
VERTEX
  8
Unknown_Area_Type
  10
398007.500
  20
4693202.000
  0
VERTEX
  8
Unknown_Area_Type
  10
398012.637
  20
4692300.000
  0
VERTEX
  8
Unknown_Area_Type
  10
398014.402
  20
4691990.000
  0
VERTEX
  8
Unknown_Area_Type
  10
398035.500
  20
4688285.000
  0
VERTEX
  8
Unknown_Area_Type
  10
397737.431
  20
4688211.191
  0
SEQEND
  8
Unknown_Area_Type
  0
POLYLINE
  8
Unknown_Area_Type
  70
1
  66
1
  0
VERTEX
  8
Unknown_Area_Type
  10
385642.209
  20
4687992.284
  0
VERTEX
  8
Unknown_Area_Type
  10
385394.500
  20
4687919.000
  0
VERTEX
  8
Unknown_Area_Type
  10
384396.799
  20
4688222.404
  0
VERTEX
  8
Unknown_Area_Type
  10
384315.919
  20
4688247.000
  0
VERTEX
  8
Unknown_Area_Type
  10
384141.911
  20
4688299.916
  0
VERTEX
  8
Unknown_Area_Type
  10
383884.364
  20
4688378.237
  0
VERTEX
  8
Unknown_Area_Type
  10
383883.500
  20
4688378.500
  0
VERTEX
  8
Unknown_Area_Type
  10
383871.891
  20
4692200.000
  0
VERTEX
  8
Unknown_Area_Type
  10
383870.919
  20
4692520.000
  0
VERTEX
  8
Unknown_Area_Type
  10
383869.000
  20
4693151.500
  0
VERTEX
  8
Unknown_Area_Type
  10
383870.032
  20
4693151.715
  0
VERTEX
  8
Unknown_Area_Type
  10
384312.500
  20
4693244.000
  0
VERTEX
  8
Unknown_Area_Type
  10
384315.000
  20
4693244.500
  0
VERTEX
  8
Unknown_Area_Type
  10
385175.133
  20
4693423.211
  0
VERTEX
  8
Unknown_Area_Type
  10
385536.911
  20
4693498.378
  0
VERTEX
  8
Unknown_Area_Type
  10
385537.500
  20
4693498.500
  0
VERTEX
  8
Unknown_Area_Type
  10
386654.393
  20
4693165.575
  0
VERTEX
  8
Unknown_Area_Type
  10
386658.000
  20
4693164.500
  0
VERTEX
  8
Unknown_Area_Type
  10
386664.369
  20
4692520.000
  0
VERTEX
  8
Unknown_Area_Type
  10
386667.531
  20
4692200.000
  0
VERTEX
  8
Unknown_Area_Type
  10
386706.000
  20
4688307.000
  0
VERTEX
  8
Unknown_Area_Type
  10
386705.511
  20
4688306.855
  0
VERTEX
  8
Unknown_Area_Type
  10
385642.209
  20
4687992.284
  0
SEQEND
  8
Unknown_Area_Type
  0
POLYLINE
  8
Unknown_Area_Type
  70
1
  66
1
  0
VERTEX
  8
Unknown_Area_Type
  10
395200.000
  20
4688274.300
  0
VERTEX
  8
Unknown_Area_Type
  10
393750.000
  20
4687881.500
  0
VERTEX
  8
Unknown_Area_Type
  10
393749.271
  20
4687881.709
  0
VERTEX
  8
Unknown_Area_Type
  10
392390.000
  20
4688271.000
  0
VERTEX
  8
Unknown_Area_Type
  10
392329.492
  20
4692090.000
  0
VERTEX
  8
Unknown_Area_Type
  10
392324.422
  20
4692410.000
  0
VERTEX
  8
Unknown_Area_Type
  10
392312.000
  20
4693194.000
  0
VERTEX
  8
Unknown_Area_Type
  10
392503.500
  20
4693224.500
  0
VERTEX
  8
Unknown_Area_Type
  10
392507.000
  20
4693225.000
  0
VERTEX
  8
Unknown_Area_Type
  10
393018.960
  20
4693306.383
  0
VERTEX
  8
Unknown_Area_Type
  10
394280.511
  20
4693506.922
  0
VERTEX
  8
Unknown_Area_Type
  10
394280.650
  20
4693506.944
  0
VERTEX
  8
Unknown_Area_Type
  10
394281.000
  20
4693507.000
  0
VERTEX
  8
Unknown_Area_Type
  10
394567.833
  20
4693400.000
  0
VERTEX
  8
Unknown_Area_Type
  10
395141.500
  20
4693186.000
  0
VERTEX
  8
Unknown_Area_Type
  10
395157.017
  20
4692410.000
  0
VERTEX
  8
Unknown_Area_Type
  10
395163.416
  20
4692090.000
  0
VERTEX
  8
Unknown_Area_Type
  10
395200.000
  20
4690260.403
  0
VERTEX
  8
Unknown_Area_Type
  10
395239.500
  20
4688285.000
  0
VERTEX
  8
Unknown_Area_Type
  10
395238.976
  20
4688284.858
  0
VERTEX
  8
Unknown_Area_Type
  10
395200.000
  20
4688274.300
  0
SEQEND
  8
Unknown_Area_Type
  0
POLYLINE
  8
Unknown_Area_Type
  70
1
  66
1
  0
VERTEX
  8
Unknown_Area_Type
  10
399326.500
  20
4687892.500
  0
VERTEX
  8
Unknown_Area_Type
  10
399325.000
  20
4687892.500
  0
VERTEX
  8
Unknown_Area_Type
  10
399316.500
  20
4687895.000
  0
VERTEX
  8
Unknown_Area_Type
  10
398035.724
  20
4688284.932
  0
VERTEX
  8
Unknown_Area_Type
  10
398035.500
  20
4688285.000
  0
VERTEX
  8
Unknown_Area_Type
  10
398014.402
  20
4691990.000
  0
VERTEX
  8
Unknown_Area_Type
  10
398012.637
  20
4692300.000
  0
VERTEX
  8
Unknown_Area_Type
  10
398007.500
  20
4693202.000
  0
VERTEX
  8
Unknown_Area_Type
  10
400163.739
  20
4693475.404
  0
VERTEX
  8
Unknown_Area_Type
  10
400164.500
  20
4693475.500
  0
VERTEX
  8
Unknown_Area_Type
  10
402240.524
  20
4692638.268
  0
VERTEX
  8
Unknown_Area_Type
  10
402240.523
  20
4692638.196
  0
VERTEX
  8
Unknown_Area_Type
  10
402232.950
  20
4692096.305
  0
VERTEX
  8
Unknown_Area_Type
  10
402200.638
  20
4689783.009
  0
VERTEX
  8
Unknown_Area_Type
  10
402183.490
  20
4688554.827
  0
VERTEX
  8
Unknown_Area_Type
  10
402183.486
  20
4688554.521
  0
VERTEX
  8
Unknown_Area_Type
  10
399329.000
  20
4687892.500
  0
VERTEX
  8
Unknown_Area_Type
  10
399326.500
  20
4687892.500
  0
SEQEND
  8
Unknown_Area_Type
  0
POLYLINE
  8
Unknown_Area_Type
  70
1
  66
1
  0
VERTEX
  8
Unknown_Area_Type
  10
398007.255
  20
4693202.096
  0
VERTEX
  8
Unknown_Area_Type
  10
398006.500
  20
4693202.000
  0
VERTEX
  8
Unknown_Area_Type
  10
397626.750
  20
4693350.500
  0
VERTEX
  8
Unknown_Area_Type
  10
397247.000
  20
4693499.000
  0
VERTEX
  8
Unknown_Area_Type
  10
397249.500
  20
4693727.580
  0
VERTEX
  8
Unknown_Area_Type
  10
397281.135
  20
4696620.000
  0
VERTEX
  8
Unknown_Area_Type
  10
397284.525
  20
4696930.000
  0
VERTEX
  8
Unknown_Area_Type
  10
397291.000
  20
4697522.000
  0
VERTEX
  8
Unknown_Area_Type
  10
397291.335
  20
4697522.187
  0
VERTEX
  8
Unknown_Area_Type
  10
398107.000
  20
4697977.000
  0
VERTEX
  8
Unknown_Area_Type
  10
398108.000
  20
4697977.500
  0
VERTEX
  8
Unknown_Area_Type
  10
398108.371
  20
4697977.428
  0
VERTEX
  8
Unknown_Area_Type
  10
400167.500
  20
4697579.500
  0
VERTEX
  8
Unknown_Area_Type
  10
400166.867
  20
4696930.000
  0
VERTEX
  8
Unknown_Area_Type
  10
400166.565
  20
4696620.000
  0
VERTEX
  8
Unknown_Area_Type
  10
400163.500
  20
4693475.500
  0
VERTEX
  8
Unknown_Area_Type
  10
398007.255
  20
4693202.096
  0
SEQEND
  8
Unknown_Area_Type
  0
POLYLINE
  8
Unknown_Area_Type
  70
1
  66
1
  0
VERTEX
  8
Unknown_Area_Type
  10
402240.524
  20
4692638.268
  0
VERTEX
  8
Unknown_Area_Type
  10
402240.523
  20
4692638.196
  0
VERTEX
  8
Unknown_Area_Type
  10
400163.739
  20
4693475.404
  0
VERTEX
  8
Unknown_Area_Type
  10
400163.500
  20
4693475.500
  0
VERTEX
  8
Unknown_Area_Type
  10
400166.565
  20
4696620.000
  0
VERTEX
  8
Unknown_Area_Type
  10
400166.867
  20
4696930.000
  0
VERTEX
  8
Unknown_Area_Type
  10
400167.500
  20
4697579.500
  0
VERTEX
  8
Unknown_Area_Type
  10
400167.738
  20
4697579.647
  0
VERTEX
  8
Unknown_Area_Type
  10
400618.616
  20
4697859.005
  0
VERTEX
  8
Unknown_Area_Type
  10
400698.500
  20
4697908.500
  0
VERTEX
  8
Unknown_Area_Type
  10
400698.580
  20
4697908.659
  0
VERTEX
  8
Unknown_Area_Type
  10
400699.000
  20
4697909.500
  0
VERTEX
  8
Unknown_Area_Type
  10
402328.349
  20
4698920.738
  0
VERTEX
  8
Unknown_Area_Type
  10
402328.349
  20
4698920.684
  0
VERTEX
  8
Unknown_Area_Type
  10
402297.614
  20
4696722.919
  0
VERTEX
  8
Unknown_Area_Type
  10
402265.275
  20
4694409.608
  0
VERTEX
  8
Unknown_Area_Type
  10
402240.524
  20
4692638.268
  0
SEQEND
  8
Unknown_Area_Type
  0
ENDSEC
  0
EOF
