  0
SECTION
  2
HEADER
  9
$ACADVER
  1
AC1009
  9
$LUNITS
  70
2
  9
$LIMMIN
  10
347243.811
  20
4687906.908
  9
$LIMMAX
  10
375037.701
  20
4706958.821
  9
$EXTMIN
  10
347243.811
  20
4687906.908
  9
$EXTMAX
  10
375037.701
  20
4706958.821
  999
Created by Global Mapper
  999
Projection: UTM
  999
Datum: ETRS89
  999
Ground Units: meters
  999
ZONE: 30
  0
ENDSEC
  0
SECTION
  2
TABLES
  0
ENDSEC
  0
SECTION
  2
BLOCKS
  0
BLOCK
  8
FeatureAttribs
  70
0
  2
FEATURE
  3
FEATURE
  10
0.00000000
  20
0.00000000
  0
ATTDEF
  8
FeatureAttribs
  70
0
  1
 
  2
NAME
  3
NAME
  10
0.00000000
  20
0.00000000
  40
1.00000000
  0
ENDBLK
  0
ENDSEC
  0
SECTION
  2
ENTITIES
  0
POLYLINE
  8
Unknown_Area_Type
  70
1
  66
1
  0
VERTEX
  8
Unknown_Area_Type
  10
354290.000
  20
4702574.806
  0
VERTEX
  8
Unknown_Area_Type
  10
354143.500
  20
4702511.500
  0
VERTEX
  8
Unknown_Area_Type
  10
354142.643
  20
4702511.562
  0
VERTEX
  8
Unknown_Area_Type
  10
353808.000
  20
4702535.786
  0
VERTEX
  8
Unknown_Area_Type
  10
351798.555
  20
4702681.243
  0
VERTEX
  8
Unknown_Area_Type
  10
351795.000
  20
4702681.500
  0
VERTEX
  8
Unknown_Area_Type
  10
351775.797
  20
4706710.000
  0
VERTEX
  8
Unknown_Area_Type
  10
351775.035
  20
4706869.919
  0
VERTEX
  8
Unknown_Area_Type
  10
354495.412
  20
4706812.429
  0
VERTEX
  8
Unknown_Area_Type
  10
354499.909
  20
4706812.337
  0
VERTEX
  8
Unknown_Area_Type
  10
354500.382
  20
4706812.327
  0
VERTEX
  8
Unknown_Area_Type
  10
354498.110
  20
4706710.000
  0
VERTEX
  8
Unknown_Area_Type
  10
354495.000
  20
4706570.000
  0
VERTEX
  8
Unknown_Area_Type
  10
354407.500
  20
4702630.500
  0
VERTEX
  8
Unknown_Area_Type
  10
354407.000
  20
4702625.500
  0
VERTEX
  8
Unknown_Area_Type
  10
354406.859
  20
4702625.429
  0
VERTEX
  8
Unknown_Area_Type
  10
354405.000
  20
4702624.500
  0
VERTEX
  8
Unknown_Area_Type
  10
354290.000
  20
4702574.806
  0
SEQEND
  8
Unknown_Area_Type
  0
POLYLINE
  8
Unknown_Area_Type
  70
1
  66
1
  0
VERTEX
  8
Unknown_Area_Type
  10
357057.500
  20
4702592.500
  0
VERTEX
  8
Unknown_Area_Type
  10
356697.000
  20
4702437.500
  0
VERTEX
  8
Unknown_Area_Type
  10
356696.580
  20
4702437.535
  0
VERTEX
  8
Unknown_Area_Type
  10
356236.235
  20
4702475.327
  0
VERTEX
  8
Unknown_Area_Type
  10
355643.357
  20
4702524.000
  0
VERTEX
  8
Unknown_Area_Type
  10
354600.000
  20
4702609.656
  0
VERTEX
  8
Unknown_Area_Type
  10
354407.000
  20
4702625.500
  0
VERTEX
  8
Unknown_Area_Type
  10
354494.531
  20
4706570.000
  0
VERTEX
  8
Unknown_Area_Type
  10
354497.638
  20
4706710.000
  0
VERTEX
  8
Unknown_Area_Type
  10
354499.909
  20
4706812.337
  0
VERTEX
  8
Unknown_Area_Type
  10
354500.382
  20
4706812.327
  0
VERTEX
  8
Unknown_Area_Type
  10
357209.447
  20
4706756.408
  0
VERTEX
  8
Unknown_Area_Type
  10
357202.646
  20
4706570.000
  0
VERTEX
  8
Unknown_Area_Type
  10
357057.518
  20
4702592.998
  0
VERTEX
  8
Unknown_Area_Type
  10
357057.500
  20
4702592.500
  0
SEQEND
  8
Unknown_Area_Type
  0
POLYLINE
  8
Unknown_Area_Type
  70
1
  66
1
  0
VERTEX
  8
Unknown_Area_Type
  10
362384.500
  20
4702504.500
  0
VERTEX
  8
Unknown_Area_Type
  10
361900.500
  20
4702314.500
  0
VERTEX
  8
Unknown_Area_Type
  10
361899.738
  20
4702314.593
  0
VERTEX
  8
Unknown_Area_Type
  10
361450.000
  20
4702369.741
  0
VERTEX
  8
Unknown_Area_Type
  10
361292.230
  20
4702389.087
  0
VERTEX
  8
Unknown_Area_Type
  10
361150.000
  20
4702406.527
  0
VERTEX
  8
Unknown_Area_Type
  10
359772.000
  20
4702575.500
  0
VERTEX
  8
Unknown_Area_Type
  10
359858.370
  20
4706570.000
  0
VERTEX
  8
Unknown_Area_Type
  10
359861.238
  20
4706702.627
  0
VERTEX
  8
Unknown_Area_Type
  10
359861.627
  20
4706702.620
  0
VERTEX
  8
Unknown_Area_Type
  10
361342.867
  20
4706672.773
  0
VERTEX
  8
Unknown_Area_Type
  10
362578.926
  20
4706648.475
  0
VERTEX
  8
Unknown_Area_Type
  10
362579.430
  20
4706648.465
  0
VERTEX
  8
Unknown_Area_Type
  10
362569.280
  20
4706430.000
  0
VERTEX
  8
Unknown_Area_Type
  10
362387.000
  20
4702506.500
  0
VERTEX
  8
Unknown_Area_Type
  10
362386.529
  20
4702506.123
  0
VERTEX
  8
Unknown_Area_Type
  10
362385.750
  20
4702505.500
  0
VERTEX
  8
Unknown_Area_Type
  10
362384.500
  20
4702504.500
  0
SEQEND
  8
Unknown_Area_Type
  0
POLYLINE
  8
Unknown_Area_Type
  70
1
  66
1
  0
VERTEX
  8
Unknown_Area_Type
  10
365157.374
  20
4702479.952
  0
VERTEX
  8
Unknown_Area_Type
  10
364487.000
  20
4702222.500
  0
VERTEX
  8
Unknown_Area_Type
  10
364486.994
  20
4702222.501
  0
VERTEX
  8
Unknown_Area_Type
  10
364364.180
  20
4702239.048
  0
VERTEX
  8
Unknown_Area_Type
  10
363833.841
  20
4702310.500
  0
VERTEX
  8
Unknown_Area_Type
  10
363553.450
  20
4702348.277
  0
VERTEX
  8
Unknown_Area_Type
  10
362386.500
  20
4702505.500
  0
VERTEX
  8
Unknown_Area_Type
  10
362386.529
  20
4702506.123
  0
VERTEX
  8
Unknown_Area_Type
  10
362568.779
  20
4706430.000
  0
VERTEX
  8
Unknown_Area_Type
  10
362578.926
  20
4706648.475
  0
VERTEX
  8
Unknown_Area_Type
  10
362579.430
  20
4706648.465
  0
VERTEX
  8
Unknown_Area_Type
  10
364766.585
  20
4706605.471
  0
VERTEX
  8
Unknown_Area_Type
  10
365087.985
  20
4706599.311
  0
VERTEX
  8
Unknown_Area_Type
  10
365090.842
  20
4706430.000
  0
VERTEX
  8
Unknown_Area_Type
  10
365157.500
  20
4702480.000
  0
VERTEX
  8
Unknown_Area_Type
  10
365157.374
  20
4702479.952
  0
SEQEND
  8
Unknown_Area_Type
  0
POLYLINE
  8
Unknown_Area_Type
  70
1
  66
1
  0
VERTEX
  8
Unknown_Area_Type
  10
351793.140
  20
4702680.673
  0
VERTEX
  8
Unknown_Area_Type
  10
351509.500
  20
4702554.500
  0
VERTEX
  8
Unknown_Area_Type
  10
351509.497
  20
4702554.500
  0
VERTEX
  8
Unknown_Area_Type
  10
349492.364
  20
4702635.000
  0
VERTEX
  8
Unknown_Area_Type
  10
349116.500
  20
4702650.000
  0
VERTEX
  8
Unknown_Area_Type
  10
349157.189
  20
4706710.000
  0
VERTEX
  8
Unknown_Area_Type
  10
349159.356
  20
4706926.137
  0
VERTEX
  8
Unknown_Area_Type
  10
349159.758
  20
4706926.128
  0
VERTEX
  8
Unknown_Area_Type
  10
351071.675
  20
4706884.783
  0
VERTEX
  8
Unknown_Area_Type
  10
351775.035
  20
4706869.919
  0
VERTEX
  8
Unknown_Area_Type
  10
351775.797
  20
4706710.000
  0
VERTEX
  8
Unknown_Area_Type
  10
351795.000
  20
4702681.500
  0
VERTEX
  8
Unknown_Area_Type
  10
351793.140
  20
4702680.673
  0
SEQEND
  8
Unknown_Area_Type
  0
POLYLINE
  8
Unknown_Area_Type
  70
1
  66
1
  0
VERTEX
  8
Unknown_Area_Type
  10
367664.861
  20
4702459.948
  0
VERTEX
  8
Unknown_Area_Type
  10
367065.000
  20
4702234.500
  0
VERTEX
  8
Unknown_Area_Type
  10
367064.628
  20
4702234.548
  0
VERTEX
  8
Unknown_Area_Type
  10
365157.500
  20
4702480.000
  0
VERTEX
  8
Unknown_Area_Type
  10
365090.842
  20
4706430.000
  0
VERTEX
  8
Unknown_Area_Type
  10
365087.985
  20
4706599.311
  0
VERTEX
  8
Unknown_Area_Type
  10
367759.433
  20
4706548.110
  0
VERTEX
  8
Unknown_Area_Type
  10
367756.705
  20
4706430.000
  0
VERTEX
  8
Unknown_Area_Type
  10
367665.000
  20
4702460.000
  0
VERTEX
  8
Unknown_Area_Type
  10
367664.861
  20
4702459.948
  0
SEQEND
  8
Unknown_Area_Type
  0
POLYLINE
  8
Unknown_Area_Type
  70
1
  66
1
  0
VERTEX
  8
Unknown_Area_Type
  10
359772.000
  20
4702575.500
  0
VERTEX
  8
Unknown_Area_Type
  10
359317.500
  20
4702392.000
  0
VERTEX
  8
Unknown_Area_Type
  10
359317.090
  20
4702392.037
  0
VERTEX
  8
Unknown_Area_Type
  10
357057.518
  20
4702592.998
  0
VERTEX
  8
Unknown_Area_Type
  10
357057.500
  20
4702593.000
  0
VERTEX
  8
Unknown_Area_Type
  10
357202.643
  20
4706570.000
  0
VERTEX
  8
Unknown_Area_Type
  10
357209.447
  20
4706756.408
  0
VERTEX
  8
Unknown_Area_Type
  10
357919.143
  20
4706741.759
  0
VERTEX
  8
Unknown_Area_Type
  10
359861.238
  20
4706702.627
  0
VERTEX
  8
Unknown_Area_Type
  10
359861.627
  20
4706702.620
  0
VERTEX
  8
Unknown_Area_Type
  10
359858.747
  20
4706570.000
  0
VERTEX
  8
Unknown_Area_Type
  10
359772.000
  20
4702575.500
  0
SEQEND
  8
Unknown_Area_Type
  0
POLYLINE
  8
Unknown_Area_Type
  70
1
  66
1
  0
VERTEX
  8
Unknown_Area_Type
  10
372934.156
  20
4702300.379
  0
VERTEX
  8
Unknown_Area_Type
  10
372327.000
  20
4702086.500
  0
VERTEX
  8
Unknown_Area_Type
  10
372326.977
  20
4702086.504
  0
VERTEX
  8
Unknown_Area_Type
  10
370258.000
  20
4702397.000
  0
VERTEX
  8
Unknown_Area_Type
  10
370441.171
  20
4706310.000
  0
VERTEX
  8
Unknown_Area_Type
  10
370449.955
  20
4706497.655
  0
VERTEX
  8
Unknown_Area_Type
  10
371614.001
  20
4706475.917
  0
VERTEX
  8
Unknown_Area_Type
  10
373121.316
  20
4706448.510
  0
VERTEX
  8
Unknown_Area_Type
  10
373115.078
  20
4706310.000
  0
VERTEX
  8
Unknown_Area_Type
  10
372934.500
  20
4702300.500
  0
VERTEX
  8
Unknown_Area_Type
  10
372934.156
  20
4702300.379
  0
SEQEND
  8
Unknown_Area_Type
  0
POLYLINE
  8
Unknown_Area_Type
  70
1
  66
1
  0
VERTEX
  8
Unknown_Area_Type
  10
349064.000
  20
4702625.500
  0
VERTEX
  8
Unknown_Area_Type
  10
349045.500
  20
4702625.500
  0
VERTEX
  8
Unknown_Area_Type
  10
347553.742
  20
4702650.584
  0
VERTEX
  8
Unknown_Area_Type
  10
347553.747
  20
4702650.796
  0
VERTEX
  8
Unknown_Area_Type
  10
347597.344
  20
4704645.413
  0
VERTEX
  8
Unknown_Area_Type
  10
347647.930
  20
4706958.821
  0
VERTEX
  8
Unknown_Area_Type
  10
349159.356
  20
4706926.137
  0
VERTEX
  8
Unknown_Area_Type
  10
349159.758
  20
4706926.128
  0
VERTEX
  8
Unknown_Area_Type
  10
349157.572
  20
4706710.000
  0
VERTEX
  8
Unknown_Area_Type
  10
349116.500
  20
4702650.000
  0
VERTEX
  8
Unknown_Area_Type
  10
349116.461
  20
4702649.981
  0
VERTEX
  8
Unknown_Area_Type
  10
349064.500
  20
4702625.500
  0
VERTEX
  8
Unknown_Area_Type
  10
349064.000
  20
4702625.500
  0
SEQEND
  8
Unknown_Area_Type
  0
POLYLINE
  8
Unknown_Area_Type
  70
1
  66
1
  0
VERTEX
  8
Unknown_Area_Type
  10
370258.000
  20
4702397.000
  0
VERTEX
  8
Unknown_Area_Type
  10
369660.500
  20
4702170.000
  0
VERTEX
  8
Unknown_Area_Type
  10
369659.415
  20
4702170.158
  0
VERTEX
  8
Unknown_Area_Type
  10
368300.000
  20
4702367.717
  0
VERTEX
  8
Unknown_Area_Type
  10
368000.000
  20
4702411.316
  0
VERTEX
  8
Unknown_Area_Type
  10
367665.000
  20
4702460.000
  0
VERTEX
  8
Unknown_Area_Type
  10
367756.715
  20
4706430.000
  0
VERTEX
  8
Unknown_Area_Type
  10
367759.443
  20
4706548.110
  0
VERTEX
  8
Unknown_Area_Type
  10
368190.296
  20
4706539.852
  0
VERTEX
  8
Unknown_Area_Type
  10
370449.935
  20
4706497.655
  0
VERTEX
  8
Unknown_Area_Type
  10
370441.151
  20
4706310.000
  0
VERTEX
  8
Unknown_Area_Type
  10
370258.000
  20
4702397.000
  0
SEQEND
  8
Unknown_Area_Type
  0
POLYLINE
  8
Unknown_Area_Type
  70
1
  66
1
  0
VERTEX
  8
Unknown_Area_Type
  10
374850.000
  20
4701994.991
  0
VERTEX
  8
Unknown_Area_Type
  10
374757.500
  20
4701964.000
  0
VERTEX
  8
Unknown_Area_Type
  10
374757.178
  20
4701964.060
  0
VERTEX
  8
Unknown_Area_Type
  10
374454.118
  20
4702020.000
  0
VERTEX
  8
Unknown_Area_Type
  10
372934.500
  20
4702300.500
  0
VERTEX
  8
Unknown_Area_Type
  10
373115.097
  20
4706310.000
  0
VERTEX
  8
Unknown_Area_Type
  10
373121.335
  20
4706448.510
  0
VERTEX
  8
Unknown_Area_Type
  10
375037.701
  20
4706413.665
  0
VERTEX
  8
Unknown_Area_Type
  10
374996.214
  20
4704100.293
  0
VERTEX
  8
Unknown_Area_Type
  10
374959.134
  20
4702031.770
  0
VERTEX
  8
Unknown_Area_Type
  10
374959.130
  20
4702031.553
  0
VERTEX
  8
Unknown_Area_Type
  10
374924.647
  20
4702020.000
  0
VERTEX
  8
Unknown_Area_Type
  10
374850.000
  20
4701994.991
  0
SEQEND
  8
Unknown_Area_Type
  0
POLYLINE
  8
Unknown_Area_Type
  70
1
  66
1
  0
VERTEX
  8
Unknown_Area_Type
  10
353439.394
  20
4689119.026
  0
VERTEX
  8
Unknown_Area_Type
  10
353595.000
  20
4689064.500
  0
VERTEX
  8
Unknown_Area_Type
  10
353595.656
  20
4689064.500
  0
VERTEX
  8
Unknown_Area_Type
  10
353596.000
  20
4689064.500
  0
VERTEX
  8
Unknown_Area_Type
  10
353853.278
  20
4688974.606
  0
VERTEX
  8
Unknown_Area_Type
  10
354000.000
  20
4688923.341
  0
VERTEX
  8
Unknown_Area_Type
  10
354310.000
  20
4688815.026
  0
VERTEX
  8
Unknown_Area_Type
  10
354602.000
  20
4688713.000
  0
VERTEX
  8
Unknown_Area_Type
  10
354596.068
  20
4688410.000
  0
VERTEX
  8
Unknown_Area_Type
  10
354593.826
  20
4688295.494
  0
VERTEX
  8
Unknown_Area_Type
  10
354109.470
  20
4688305.460
  0
VERTEX
  8
Unknown_Area_Type
  10
351864.911
  20
4688352.743
  0
VERTEX
  8
Unknown_Area_Type
  10
351873.282
  20
4688560.000
  0
VERTEX
  8
Unknown_Area_Type
  10
351883.500
  20
4688813.000
  0
VERTEX
  8
Unknown_Area_Type
  10
351883.983
  20
4688813.170
  0
VERTEX
  8
Unknown_Area_Type
  10
353096.000
  20
4689238.500
  0
VERTEX
  8
Unknown_Area_Type
  10
353096.563
  20
4689238.347
  0
VERTEX
  8
Unknown_Area_Type
  10
353100.579
  20
4689237.251
  0
VERTEX
  8
Unknown_Area_Type
  10
353107.000
  20
4689235.500
  0
VERTEX
  8
Unknown_Area_Type
  10
353439.394
  20
4689119.026
  0
SEQEND
  8
Unknown_Area_Type
  0
POLYLINE
  8
Unknown_Area_Type
  70
1
  66
1
  0
VERTEX
  8
Unknown_Area_Type
  10
357373.021
  20
4688410.000
  0
VERTEX
  8
Unknown_Area_Type
  10
357367.719
  20
4688238.419
  0
VERTEX
  8
Unknown_Area_Type
  10
354593.826
  20
4688295.494
  0
VERTEX
  8
Unknown_Area_Type
  10
354596.068
  20
4688410.000
  0
VERTEX
  8
Unknown_Area_Type
  10
354602.000
  20
4688713.000
  0
VERTEX
  8
Unknown_Area_Type
  10
354602.494
  20
4688713.177
  0
VERTEX
  8
Unknown_Area_Type
  10
355822.500
  20
4689150.000
  0
VERTEX
  8
Unknown_Area_Type
  10
355824.000
  20
4689150.500
  0
VERTEX
  8
Unknown_Area_Type
  10
355824.504
  20
4689150.323
  0
VERTEX
  8
Unknown_Area_Type
  10
356449.660
  20
4688930.412
  0
VERTEX
  8
Unknown_Area_Type
  10
357375.550
  20
4688604.714
  0
VERTEX
  8
Unknown_Area_Type
  10
357379.000
  20
4688603.500
  0
VERTEX
  8
Unknown_Area_Type
  10
357373.021
  20
4688410.000
  0
SEQEND
  8
Unknown_Area_Type
  0
POLYLINE
  8
Unknown_Area_Type
  70
1
  66
1
  0
VERTEX
  8
Unknown_Area_Type
  10
362900.332
  20
4688270.000
  0
VERTEX
  8
Unknown_Area_Type
  10
362901.240
  20
4688128.135
  0
VERTEX
  8
Unknown_Area_Type
  10
360975.099
  20
4688165.878
  0
VERTEX
  8
Unknown_Area_Type
  10
360209.563
  20
4688181.254
  0
VERTEX
  8
Unknown_Area_Type
  10
360209.184
  20
4688181.262
  0
VERTEX
  8
Unknown_Area_Type
  10
360223.335
  20
4688410.000
  0
VERTEX
  8
Unknown_Area_Type
  10
360228.500
  20
4688493.500
  0
VERTEX
  8
Unknown_Area_Type
  10
360229.000
  20
4688495.500
  0
VERTEX
  8
Unknown_Area_Type
  10
360232.273
  20
4688496.864
  0
VERTEX
  8
Unknown_Area_Type
  10
360235.000
  20
4688498.000
  0
VERTEX
  8
Unknown_Area_Type
  10
360870.000
  20
4688745.303
  0
VERTEX
  8
Unknown_Area_Type
  10
361170.000
  20
4688862.140
  0
VERTEX
  8
Unknown_Area_Type
  10
361316.000
  20
4688919.000
  0
VERTEX
  8
Unknown_Area_Type
  10
361316.564
  20
4688918.830
  0
VERTEX
  8
Unknown_Area_Type
  10
361328.480
  20
4688915.236
  0
VERTEX
  8
Unknown_Area_Type
  10
361347.500
  20
4688909.500
  0
VERTEX
  8
Unknown_Area_Type
  10
361645.998
  20
4688811.135
  0
VERTEX
  8
Unknown_Area_Type
  10
361786.000
  20
4688765.000
  0
VERTEX
  8
Unknown_Area_Type
  10
361788.000
  20
4688764.500
  0
VERTEX
  8
Unknown_Area_Type
  10
362899.500
  20
4688400.000
  0
VERTEX
  8
Unknown_Area_Type
  10
362900.332
  20
4688270.000
  0
SEQEND
  8
Unknown_Area_Type
  0
POLYLINE
  8
Unknown_Area_Type
  70
1
  66
1
  0
VERTEX
  8
Unknown_Area_Type
  10
365747.515
  20
4688270.000
  0
VERTEX
  8
Unknown_Area_Type
  10
365740.871
  20
4688073.145
  0
VERTEX
  8
Unknown_Area_Type
  10
364407.903
  20
4688098.612
  0
VERTEX
  8
Unknown_Area_Type
  10
362901.240
  20
4688128.135
  0
VERTEX
  8
Unknown_Area_Type
  10
362900.332
  20
4688270.000
  0
VERTEX
  8
Unknown_Area_Type
  10
362899.500
  20
4688400.000
  0
VERTEX
  8
Unknown_Area_Type
  10
362899.727
  20
4688400.089
  0
VERTEX
  8
Unknown_Area_Type
  10
364135.500
  20
4688886.000
  0
VERTEX
  8
Unknown_Area_Type
  10
364137.000
  20
4688886.500
  0
VERTEX
  8
Unknown_Area_Type
  10
364137.018
  20
4688886.494
  0
VERTEX
  8
Unknown_Area_Type
  10
364137.412
  20
4688886.354
  0
VERTEX
  8
Unknown_Area_Type
  10
365749.000
  20
4688314.000
  0
VERTEX
  8
Unknown_Area_Type
  10
365748.983
  20
4688313.506
  0
VERTEX
  8
Unknown_Area_Type
  10
365747.515
  20
4688270.000
  0
SEQEND
  8
Unknown_Area_Type
  0
POLYLINE
  8
Unknown_Area_Type
  70
1
  66
1
  0
VERTEX
  8
Unknown_Area_Type
  10
351873.250
  20
4688560.000
  0
VERTEX
  8
Unknown_Area_Type
  10
351864.853
  20
4688352.744
  0
VERTEX
  8
Unknown_Area_Type
  10
350676.644
  20
4688377.775
  0
VERTEX
  8
Unknown_Area_Type
  10
349103.436
  20
4688411.687
  0
VERTEX
  8
Unknown_Area_Type
  10
349103.387
  20
4688411.688
  0
VERTEX
  8
Unknown_Area_Type
  10
349110.646
  20
4688560.000
  0
VERTEX
  8
Unknown_Area_Type
  10
349129.000
  20
4688935.000
  0
VERTEX
  8
Unknown_Area_Type
  10
349497.500
  20
4689056.000
  0
VERTEX
  8
Unknown_Area_Type
  10
349499.500
  20
4689056.500
  0
VERTEX
  8
Unknown_Area_Type
  10
350382.701
  20
4689346.402
  0
VERTEX
  8
Unknown_Area_Type
  10
350382.740
  20
4689346.415
  0
VERTEX
  8
Unknown_Area_Type
  10
350383.000
  20
4689346.500
  0
VERTEX
  8
Unknown_Area_Type
  10
351882.176
  20
4688813.471
  0
VERTEX
  8
Unknown_Area_Type
  10
351883.500
  20
4688813.000
  0
VERTEX
  8
Unknown_Area_Type
  10
351873.250
  20
4688560.000
  0
SEQEND
  8
Unknown_Area_Type
  0
POLYLINE
  8
Unknown_Area_Type
  70
1
  66
1
  0
VERTEX
  8
Unknown_Area_Type
  10
360223.712
  20
4688410.000
  0
VERTEX
  8
Unknown_Area_Type
  10
360209.563
  20
4688181.254
  0
VERTEX
  8
Unknown_Area_Type
  10
360209.184
  20
4688181.262
  0
VERTEX
  8
Unknown_Area_Type
  10
357542.288
  20
4688234.827
  0
VERTEX
  8
Unknown_Area_Type
  10
357367.719
  20
4688238.419
  0
VERTEX
  8
Unknown_Area_Type
  10
357373.021
  20
4688410.000
  0
VERTEX
  8
Unknown_Area_Type
  10
357379.000
  20
4688603.500
  0
VERTEX
  8
Unknown_Area_Type
  10
357379.421
  20
4688603.658
  0
VERTEX
  8
Unknown_Area_Type
  10
357689.500
  20
4688720.000
  0
VERTEX
  8
Unknown_Area_Type
  10
357691.000
  20
4688720.500
  0
VERTEX
  8
Unknown_Area_Type
  10
358467.808
  20
4689011.258
  0
VERTEX
  8
Unknown_Area_Type
  10
358581.525
  20
4689053.822
  0
VERTEX
  8
Unknown_Area_Type
  10
358582.000
  20
4689054.000
  0
VERTEX
  8
Unknown_Area_Type
  10
360228.314
  20
4688495.733
  0
VERTEX
  8
Unknown_Area_Type
  10
360229.000
  20
4688495.500
  0
VERTEX
  8
Unknown_Area_Type
  10
360223.712
  20
4688410.000
  0
SEQEND
  8
Unknown_Area_Type
  0
POLYLINE
  8
Unknown_Area_Type
  70
1
  66
1
  0
VERTEX
  8
Unknown_Area_Type
  10
371378.219
  20
4688140.000
  0
VERTEX
  8
Unknown_Area_Type
  10
371371.758
  20
4687967.345
  0
VERTEX
  8
Unknown_Area_Type
  10
371273.492
  20
4687969.127
  0
VERTEX
  8
Unknown_Area_Type
  10
368612.022
  20
4688018.670
  0
VERTEX
  8
Unknown_Area_Type
  10
368611.623
  20
4688018.677
  0
VERTEX
  8
Unknown_Area_Type
  10
368620.048
  20
4688140.000
  0
VERTEX
  8
Unknown_Area_Type
  10
368628.000
  20
4688254.500
  0
VERTEX
  8
Unknown_Area_Type
  10
368628.500
  20
4688256.000
  0
VERTEX
  8
Unknown_Area_Type
  10
368634.500
  20
4688258.500
  0
VERTEX
  8
Unknown_Area_Type
  10
369777.500
  20
4688700.000
  0
VERTEX
  8
Unknown_Area_Type
  10
369777.764
  20
4688699.909
  0
VERTEX
  8
Unknown_Area_Type
  10
369978.500
  20
4688630.500
  0
VERTEX
  8
Unknown_Area_Type
  10
369980.000
  20
4688630.000
  0
VERTEX
  8
Unknown_Area_Type
  10
370361.016
  20
4688498.545
  0
VERTEX
  8
Unknown_Area_Type
  10
371377.787
  20
4688147.746
  0
VERTEX
  8
Unknown_Area_Type
  10
371378.500
  20
4688147.500
  0
VERTEX
  8
Unknown_Area_Type
  10
371378.219
  20
4688140.000
  0
SEQEND
  8
Unknown_Area_Type
  0
POLYLINE
  8
Unknown_Area_Type
  70
1
  66
1
  0
VERTEX
  8
Unknown_Area_Type
  10
374192.000
  20
4688092.000
  0
VERTEX
  8
Unknown_Area_Type
  10
374182.989
  20
4687916.392
  0
VERTEX
  8
Unknown_Area_Type
  10
374182.950
  20
4687916.393
  0
VERTEX
  8
Unknown_Area_Type
  10
371371.758
  20
4687967.345
  0
VERTEX
  8
Unknown_Area_Type
  10
371378.219
  20
4688140.000
  0
VERTEX
  8
Unknown_Area_Type
  10
371378.500
  20
4688147.500
  0
VERTEX
  8
Unknown_Area_Type
  10
371378.856
  20
4688147.627
  0
VERTEX
  8
Unknown_Area_Type
  10
372025.500
  20
4688378.500
  0
VERTEX
  8
Unknown_Area_Type
  10
372026.500
  20
4688379.000
  0
VERTEX
  8
Unknown_Area_Type
  10
372683.000
  20
4688613.500
  0
VERTEX
  8
Unknown_Area_Type
  10
372684.500
  20
4688613.500
  0
VERTEX
  8
Unknown_Area_Type
  10
372686.000
  20
4688613.500
  0
VERTEX
  8
Unknown_Area_Type
  10
374053.384
  20
4688140.000
  0
VERTEX
  8
Unknown_Area_Type
  10
374191.975
  20
4688092.009
  0
VERTEX
  8
Unknown_Area_Type
  10
374192.000
  20
4688092.000
  0
SEQEND
  8
Unknown_Area_Type
  0
POLYLINE
  8
Unknown_Area_Type
  70
1
  66
1
  0
VERTEX
  8
Unknown_Area_Type
  10
368620.446
  20
4688140.000
  0
VERTEX
  8
Unknown_Area_Type
  10
368612.022
  20
4688018.670
  0
VERTEX
  8
Unknown_Area_Type
  10
368611.623
  20
4688018.677
  0
VERTEX
  8
Unknown_Area_Type
  10
367840.701
  20
4688033.028
  0
VERTEX
  8
Unknown_Area_Type
  10
365740.919
  20
4688073.144
  0
VERTEX
  8
Unknown_Area_Type
  10
365747.538
  20
4688270.000
  0
VERTEX
  8
Unknown_Area_Type
  10
365749.000
  20
4688313.500
  0
VERTEX
  8
Unknown_Area_Type
  10
365882.000
  20
4688366.500
  0
VERTEX
  8
Unknown_Area_Type
  10
365883.500
  20
4688367.000
  0
VERTEX
  8
Unknown_Area_Type
  10
366976.500
  20
4688799.000
  0
VERTEX
  8
Unknown_Area_Type
  10
366981.120
  20
4688800.478
  0
VERTEX
  8
Unknown_Area_Type
  10
366988.234
  20
4688802.755
  0
VERTEX
  8
Unknown_Area_Type
  10
366989.000
  20
4688803.000
  0
VERTEX
  8
Unknown_Area_Type
  10
367740.000
  20
4688552.438
  0
VERTEX
  8
Unknown_Area_Type
  10
368030.000
  20
4688455.682
  0
VERTEX
  8
Unknown_Area_Type
  10
368628.500
  20
4688256.000
  0
VERTEX
  8
Unknown_Area_Type
  10
368620.446
  20
4688140.000
  0
SEQEND
  8
Unknown_Area_Type
  0
POLYLINE
  8
Unknown_Area_Type
  70
1
  66
1
  0
VERTEX
  8
Unknown_Area_Type
  10
349110.681
  20
4688560.000
  0
VERTEX
  8
Unknown_Area_Type
  10
349103.436
  20
4688411.687
  0
VERTEX
  8
Unknown_Area_Type
  10
349103.387
  20
4688411.688
  0
VERTEX
  8
Unknown_Area_Type
  10
347243.811
  20
4688451.773
  0
VERTEX
  8
Unknown_Area_Type
  10
347269.749
  20
4689641.285
  0
VERTEX
  8
Unknown_Area_Type
  10
347425.848
  20
4689581.987
  0
VERTEX
  8
Unknown_Area_Type
  10
349129.000
  20
4688935.000
  0
VERTEX
  8
Unknown_Area_Type
  10
349110.681
  20
4688560.000
  0
SEQEND
  8
Unknown_Area_Type
  0
POLYLINE
  8
Unknown_Area_Type
  70
1
  66
1
  0
VERTEX
  8
Unknown_Area_Type
  10
374712.682
  20
4688265.099
  0
VERTEX
  8
Unknown_Area_Type
  10
374706.276
  20
4687906.908
  0
VERTEX
  8
Unknown_Area_Type
  10
374182.989
  20
4687916.392
  0
VERTEX
  8
Unknown_Area_Type
  10
374182.950
  20
4687916.393
  0
VERTEX
  8
Unknown_Area_Type
  10
374191.975
  20
4688092.009
  0
VERTEX
  8
Unknown_Area_Type
  10
374192.000
  20
4688092.500
  0
VERTEX
  8
Unknown_Area_Type
  10
374335.097
  20
4688140.000
  0
VERTEX
  8
Unknown_Area_Type
  10
374600.000
  20
4688227.933
  0
VERTEX
  8
Unknown_Area_Type
  10
374712.686
  20
4688265.338
  0
VERTEX
  8
Unknown_Area_Type
  10
374712.682
  20
4688265.099
  0
SEQEND
  8
Unknown_Area_Type
  0
POLYLINE
  8
Unknown_Area_Type
  70
1
  66
1
  0
VERTEX
  8
Unknown_Area_Type
  10
369891.500
  20
4693160.000
  0
VERTEX
  8
Unknown_Area_Type
  10
369889.500
  20
4693160.000
  0
VERTEX
  8
Unknown_Area_Type
  10
368598.300
  20
4693457.600
  0
VERTEX
  8
Unknown_Area_Type
  10
368275.500
  20
4693532.000
  0
VERTEX
  8
Unknown_Area_Type
  10
368291.816
  20
4697060.000
  0
VERTEX
  8
Unknown_Area_Type
  10
368293.342
  20
4697390.000
  0
VERTEX
  8
Unknown_Area_Type
  10
368295.000
  20
4697748.500
  0
VERTEX
  8
Unknown_Area_Type
  10
368299.271
  20
4697750.187
  0
VERTEX
  8
Unknown_Area_Type
  10
368430.184
  20
4697801.888
  0
VERTEX
  8
Unknown_Area_Type
  10
368450.725
  20
4697810.000
  0
VERTEX
  8
Unknown_Area_Type
  10
369615.500
  20
4698270.000
  0
VERTEX
  8
Unknown_Area_Type
  10
369616.500
  20
4698270.500
  0
VERTEX
  8
Unknown_Area_Type
  10
369616.763
  20
4698270.407
  0
VERTEX
  8
Unknown_Area_Type
  10
370006.405
  20
4698132.050
  0
VERTEX
  8
Unknown_Area_Type
  10
371248.500
  20
4697691.000
  0
VERTEX
  8
Unknown_Area_Type
  10
371245.836
  20
4697390.000
  0
VERTEX
  8
Unknown_Area_Type
  10
371242.915
  20
4697060.000
  0
VERTEX
  8
Unknown_Area_Type
  10
371211.500
  20
4693510.500
  0
VERTEX
  8
Unknown_Area_Type
  10
369910.500
  20
4693164.500
  0
VERTEX
  8
Unknown_Area_Type
  10
369893.500
  20
4693160.000
  0
VERTEX
  8
Unknown_Area_Type
  10
369891.500
  20
4693160.000
  0
SEQEND
  8
Unknown_Area_Type
  0
POLYLINE
  8
Unknown_Area_Type
  70
1
  66
1
  0
VERTEX
  8
Unknown_Area_Type
  10
359611.310
  20
4693685.942
  0
VERTEX
  8
Unknown_Area_Type
  10
358716.500
  20
4693414.000
  0
VERTEX
  8
Unknown_Area_Type
  10
358715.154
  20
4693414.199
  0
VERTEX
  8
Unknown_Area_Type
  10
358704.030
  20
4693415.840
  0
VERTEX
  8
Unknown_Area_Type
  10
358686.000
  20
4693418.500
  0
VERTEX
  8
Unknown_Area_Type
  10
357278.723
  20
4693666.297
  0
VERTEX
  8
Unknown_Area_Type
  10
356792.000
  20
4693752.000
  0
VERTEX
  8
Unknown_Area_Type
  10
356833.820
  20
4697310.000
  0
VERTEX
  8
Unknown_Area_Type
  10
356837.934
  20
4697660.000
  0
VERTEX
  8
Unknown_Area_Type
  10
356843.000
  20
4698091.000
  0
VERTEX
  8
Unknown_Area_Type
  10
356843.461
  20
4698091.030
  0
VERTEX
  8
Unknown_Area_Type
  10
357680.000
  20
4698144.500
  0
VERTEX
  8
Unknown_Area_Type
  10
357687.500
  20
4698145.000
  0
VERTEX
  8
Unknown_Area_Type
  10
359270.500
  20
4698245.000
  0
VERTEX
  8
Unknown_Area_Type
  10
359270.506
  20
4698244.996
  0
VERTEX
  8
Unknown_Area_Type
  10
359669.000
  20
4697986.500
  0
VERTEX
  8
Unknown_Area_Type
  10
359664.635
  20
4697660.000
  0
VERTEX
  8
Unknown_Area_Type
  10
359659.955
  20
4697310.000
  0
VERTEX
  8
Unknown_Area_Type
  10
359611.500
  20
4693686.000
  0
VERTEX
  8
Unknown_Area_Type
  10
359611.310
  20
4693685.942
  0
SEQEND
  8
Unknown_Area_Type
  0
POLYLINE
  8
Unknown_Area_Type
  70
1
  66
1
  0
VERTEX
  8
Unknown_Area_Type
  10
364294.375
  20
4693240.125
  0
VERTEX
  8
Unknown_Area_Type
  10
364293.000
  20
4693240.000
  0
VERTEX
  8
Unknown_Area_Type
  10
362426.402
  20
4693613.320
  0
VERTEX
  8
Unknown_Area_Type
  10
362425.500
  20
4693613.500
  0
VERTEX
  8
Unknown_Area_Type
  10
362504.849
  20
4697180.000
  0
VERTEX
  8
Unknown_Area_Type
  10
362512.413
  20
4697520.000
  0
VERTEX
  8
Unknown_Area_Type
  10
362520.000
  20
4697861.000
  0
VERTEX
  8
Unknown_Area_Type
  10
363833.500
  20
4698145.500
  0
VERTEX
  8
Unknown_Area_Type
  10
363835.500
  20
4698146.000
  0
VERTEX
  8
Unknown_Area_Type
  10
364438.500
  20
4698276.500
  0
VERTEX
  8
Unknown_Area_Type
  10
364438.506
  20
4698276.497
  0
VERTEX
  8
Unknown_Area_Type
  10
365415.811
  20
4697775.597
  0
VERTEX
  8
Unknown_Area_Type
  10
365416.000
  20
4697775.500
  0
VERTEX
  8
Unknown_Area_Type
  10
365413.703
  20
4697520.000
  0
VERTEX
  8
Unknown_Area_Type
  10
365410.647
  20
4697180.000
  0
VERTEX
  8
Unknown_Area_Type
  10
365378.000
  20
4693548.000
  0
VERTEX
  8
Unknown_Area_Type
  10
364298.500
  20
4693240.500
  0
VERTEX
  8
Unknown_Area_Type
  10
364295.937
  20
4693240.267
  0
VERTEX
  8
Unknown_Area_Type
  10
364294.375
  20
4693240.125
  0
SEQEND
  8
Unknown_Area_Type
  0
POLYLINE
  8
Unknown_Area_Type
  70
1
  66
1
  0
VERTEX
  8
Unknown_Area_Type
  10
356791.654
  20
4693751.885
  0
VERTEX
  8
Unknown_Area_Type
  10
356035.000
  20
4693500.500
  0
VERTEX
  8
Unknown_Area_Type
  10
356034.657
  20
4693500.552
  0
VERTEX
  8
Unknown_Area_Type
  10
354410.000
  20
4693747.899
  0
VERTEX
  8
Unknown_Area_Type
  10
354100.000
  20
4693795.096
  0
VERTEX
  8
Unknown_Area_Type
  10
353920.000
  20
4693822.500
  0
VERTEX
  8
Unknown_Area_Type
  10
353973.855
  20
4697450.000
  0
VERTEX
  8
Unknown_Area_Type
  10
353979.200
  20
4697810.000
  0
VERTEX
  8
Unknown_Area_Type
  10
353984.493
  20
4698166.500
  0
VERTEX
  8
Unknown_Area_Type
  10
353984.500
  20
4698167.000
  0
VERTEX
  8
Unknown_Area_Type
  10
354005.476
  20
4698182.610
  0
VERTEX
  8
Unknown_Area_Type
  10
354006.000
  20
4698183.000
  0
VERTEX
  8
Unknown_Area_Type
  10
354200.000
  20
4698183.175
  0
VERTEX
  8
Unknown_Area_Type
  10
354500.000
  20
4698183.447
  0
VERTEX
  8
Unknown_Area_Type
  10
354559.000
  20
4698183.500
  0
VERTEX
  8
Unknown_Area_Type
  10
355162.000
  20
4698184.000
  0
VERTEX
  8
Unknown_Area_Type
  10
356717.369
  20
4698184.999
  0
VERTEX
  8
Unknown_Area_Type
  10
356718.500
  20
4698185.000
  0
VERTEX
  8
Unknown_Area_Type
  10
356719.000
  20
4698185.000
  0
VERTEX
  8
Unknown_Area_Type
  10
356843.000
  20
4698091.500
  0
VERTEX
  8
Unknown_Area_Type
  10
356842.999
  20
4698091.377
  0
VERTEX
  8
Unknown_Area_Type
  10
356837.929
  20
4697660.000
  0
VERTEX
  8
Unknown_Area_Type
  10
356833.815
  20
4697310.000
  0
VERTEX
  8
Unknown_Area_Type
  10
356792.000
  20
4693752.000
  0
VERTEX
  8
Unknown_Area_Type
  10
356791.654
  20
4693751.885
  0
SEQEND
  8
Unknown_Area_Type
  0
POLYLINE
  8
Unknown_Area_Type
  70
1
  66
1
  0
VERTEX
  8
Unknown_Area_Type
  10
366985.238
  20
4693198.666
  0
VERTEX
  8
Unknown_Area_Type
  10
366984.500
  20
4693198.500
  0
VERTEX
  8
Unknown_Area_Type
  10
365378.000
  20
4693548.000
  0
VERTEX
  8
Unknown_Area_Type
  10
365410.647
  20
4697180.000
  0
VERTEX
  8
Unknown_Area_Type
  10
365413.703
  20
4697520.000
  0
VERTEX
  8
Unknown_Area_Type
  10
365416.000
  20
4697775.500
  0
VERTEX
  8
Unknown_Area_Type
  10
365794.840
  20
4697894.006
  0
VERTEX
  8
Unknown_Area_Type
  10
367008.000
  20
4698273.500
  0
VERTEX
  8
Unknown_Area_Type
  10
367008.007
  20
4698273.497
  0
VERTEX
  8
Unknown_Area_Type
  10
367008.504
  20
4698273.294
  0
VERTEX
  8
Unknown_Area_Type
  10
367881.093
  20
4697916.971
  0
VERTEX
  8
Unknown_Area_Type
  10
367910.000
  20
4697905.167
  0
VERTEX
  8
Unknown_Area_Type
  10
367930.000
  20
4697897.000
  0
VERTEX
  8
Unknown_Area_Type
  10
367930.105
  20
4697896.974
  0
VERTEX
  8
Unknown_Area_Type
  10
367932.000
  20
4697896.500
  0
VERTEX
  8
Unknown_Area_Type
  10
368210.000
  20
4697783.156
  0
VERTEX
  8
Unknown_Area_Type
  10
368294.560
  20
4697748.679
  0
VERTEX
  8
Unknown_Area_Type
  10
368295.000
  20
4697748.500
  0
VERTEX
  8
Unknown_Area_Type
  10
368293.342
  20
4697390.000
  0
VERTEX
  8
Unknown_Area_Type
  10
368291.816
  20
4697060.000
  0
VERTEX
  8
Unknown_Area_Type
  10
368275.500
  20
4693532.000
  0
VERTEX
  8
Unknown_Area_Type
  10
368275.265
  20
4693531.939
  0
VERTEX
  8
Unknown_Area_Type
  10
368120.000
  20
4693491.728
  0
VERTEX
  8
Unknown_Area_Type
  10
367820.000
  20
4693414.034
  0
VERTEX
  8
Unknown_Area_Type
  10
367009.000
  20
4693204.000
  0
VERTEX
  8
Unknown_Area_Type
  10
366995.831
  20
4693201.044
  0
VERTEX
  8
Unknown_Area_Type
  10
366985.238
  20
4693198.666
  0
SEQEND
  8
Unknown_Area_Type
  0
POLYLINE
  8
Unknown_Area_Type
  70
1
  66
1
  0
VERTEX
  8
Unknown_Area_Type
  10
372690.764
  20
4693133.560
  0
VERTEX
  8
Unknown_Area_Type
  10
372690.500
  20
4693133.500
  0
VERTEX
  8
Unknown_Area_Type
  10
371211.500
  20
4693510.500
  0
VERTEX
  8
Unknown_Area_Type
  10
371242.915
  20
4697060.000
  0
VERTEX
  8
Unknown_Area_Type
  10
371245.836
  20
4697390.000
  0
VERTEX
  8
Unknown_Area_Type
  10
371248.500
  20
4697691.000
  0
VERTEX
  8
Unknown_Area_Type
  10
372141.000
  20
4698145.500
  0
VERTEX
  8
Unknown_Area_Type
  10
372142.000
  20
4698146.000
  0
VERTEX
  8
Unknown_Area_Type
  10
372142.156
  20
4698145.968
  0
VERTEX
  8
Unknown_Area_Type
  10
374211.500
  20
4697716.500
  0
VERTEX
  8
Unknown_Area_Type
  10
374208.653
  20
4697390.000
  0
VERTEX
  8
Unknown_Area_Type
  10
374205.776
  20
4697060.000
  0
VERTEX
  8
Unknown_Area_Type
  10
374174.500
  20
4693473.000
  0
VERTEX
  8
Unknown_Area_Type
  10
374173.699
  20
4693472.817
  0
VERTEX
  8
Unknown_Area_Type
  10
373098.829
  20
4693226.915
  0
VERTEX
  8
Unknown_Area_Type
  10
372690.764
  20
4693133.560
  0
SEQEND
  8
Unknown_Area_Type
  0
POLYLINE
  8
Unknown_Area_Type
  70
1
  66
1
  0
VERTEX
  8
Unknown_Area_Type
  10
362356.804
  20
4693592.348
  0
VERTEX
  8
Unknown_Area_Type
  10
361515.000
  20
4693338.000
  0
VERTEX
  8
Unknown_Area_Type
  10
361514.327
  20
4693338.123
  0
VERTEX
  8
Unknown_Area_Type
  10
361260.000
  20
4693384.552
  0
VERTEX
  8
Unknown_Area_Type
  10
360960.000
  20
4693439.320
  0
VERTEX
  8
Unknown_Area_Type
  10
359737.636
  20
4693662.473
  0
VERTEX
  8
Unknown_Area_Type
  10
359611.500
  20
4693685.500
  0
VERTEX
  8
Unknown_Area_Type
  10
359611.505
  20
4693685.906
  0
VERTEX
  8
Unknown_Area_Type
  10
359659.955
  20
4697310.000
  0
VERTEX
  8
Unknown_Area_Type
  10
359664.635
  20
4697660.000
  0
VERTEX
  8
Unknown_Area_Type
  10
359669.000
  20
4697986.500
  0
VERTEX
  8
Unknown_Area_Type
  10
361050.000
  20
4698177.315
  0
VERTEX
  8
Unknown_Area_Type
  10
361360.000
  20
4698220.148
  0
VERTEX
  8
Unknown_Area_Type
  10
361818.500
  20
4698283.500
  0
VERTEX
  8
Unknown_Area_Type
  10
361822.000
  20
4698284.000
  0
VERTEX
  8
Unknown_Area_Type
  10
361822.122
  20
4698283.926
  0
VERTEX
  8
Unknown_Area_Type
  10
362045.616
  20
4698148.485
  0
VERTEX
  8
Unknown_Area_Type
  10
362520.000
  20
4697861.000
  0
VERTEX
  8
Unknown_Area_Type
  10
362512.450
  20
4697520.000
  0
VERTEX
  8
Unknown_Area_Type
  10
362504.922
  20
4697180.000
  0
VERTEX
  8
Unknown_Area_Type
  10
362426.000
  20
4693615.500
  0
VERTEX
  8
Unknown_Area_Type
  10
362425.500
  20
4693613.500
  0
VERTEX
  8
Unknown_Area_Type
  10
362423.500
  20
4693612.500
  0
VERTEX
  8
Unknown_Area_Type
  10
362356.804
  20
4693592.348
  0
SEQEND
  8
Unknown_Area_Type
  0
POLYLINE
  8
Unknown_Area_Type
  70
1
  66
1
  0
VERTEX
  8
Unknown_Area_Type
  10
353288.603
  20
4693596.186
  0
VERTEX
  8
Unknown_Area_Type
  10
353286.000
  20
4693596.000
  0
VERTEX
  8
Unknown_Area_Type
  10
351492.800
  20
4693835.200
  0
VERTEX
  8
Unknown_Area_Type
  10
351044.500
  20
4693895.000
  0
VERTEX
  8
Unknown_Area_Type
  10
351106.921
  20
4697450.000
  0
VERTEX
  8
Unknown_Area_Type
  10
351113.242
  20
4697810.000
  0
VERTEX
  8
Unknown_Area_Type
  10
351118.000
  20
4698081.000
  0
VERTEX
  8
Unknown_Area_Type
  10
351118.104
  20
4698081.067
  0
VERTEX
  8
Unknown_Area_Type
  10
351482.500
  20
4698315.500
  0
VERTEX
  8
Unknown_Area_Type
  10
351482.503
  20
4698315.500
  0
VERTEX
  8
Unknown_Area_Type
  10
353984.493
  20
4698166.500
  0
VERTEX
  8
Unknown_Area_Type
  10
353984.500
  20
4698166.500
  0
VERTEX
  8
Unknown_Area_Type
  10
353979.207
  20
4697810.000
  0
VERTEX
  8
Unknown_Area_Type
  10
353973.861
  20
4697450.000
  0
VERTEX
  8
Unknown_Area_Type
  10
353920.000
  20
4693822.500
  0
VERTEX
  8
Unknown_Area_Type
  10
353919.555
  20
4693822.340
  0
VERTEX
  8
Unknown_Area_Type
  10
353619.000
  20
4693714.000
  0
VERTEX
  8
Unknown_Area_Type
  10
353617.500
  20
4693714.000
  0
VERTEX
  8
Unknown_Area_Type
  10
353293.000
  20
4693596.500
  0
VERTEX
  8
Unknown_Area_Type
  10
353290.989
  20
4693596.356
  0
VERTEX
  8
Unknown_Area_Type
  10
353288.603
  20
4693596.186
  0
SEQEND
  8
Unknown_Area_Type
  0
POLYLINE
  8
Unknown_Area_Type
  70
1
  66
1
  0
VERTEX
  8
Unknown_Area_Type
  10
374802.890
  20
4693307.840
  0
VERTEX
  8
Unknown_Area_Type
  10
374802.889
  20
4693307.778
  0
VERTEX
  8
Unknown_Area_Type
  10
374717.259
  20
4693330.293
  0
VERTEX
  8
Unknown_Area_Type
  10
374680.000
  20
4693340.089
  0
VERTEX
  8
Unknown_Area_Type
  10
374174.500
  20
4693473.000
  0
VERTEX
  8
Unknown_Area_Type
  10
374205.776
  20
4697060.000
  0
VERTEX
  8
Unknown_Area_Type
  10
374208.653
  20
4697390.000
  0
VERTEX
  8
Unknown_Area_Type
  10
374211.500
  20
4697716.500
  0
VERTEX
  8
Unknown_Area_Type
  10
374211.624
  20
4697716.578
  0
VERTEX
  8
Unknown_Area_Type
  10
374747.500
  20
4698052.500
  0
VERTEX
  8
Unknown_Area_Type
  10
374748.500
  20
4698053.000
  0
VERTEX
  8
Unknown_Area_Type
  10
374748.922
  20
4698052.951
  0
VERTEX
  8
Unknown_Area_Type
  10
374770.000
  20
4698050.522
  0
VERTEX
  8
Unknown_Area_Type
  10
374887.560
  20
4698036.976
  0
VERTEX
  8
Unknown_Area_Type
  10
374871.855
  20
4697160.224
  0
VERTEX
  8
Unknown_Area_Type
  10
374830.435
  20
4694846.883
  0
VERTEX
  8
Unknown_Area_Type
  10
374802.890
  20
4693307.840
  0
SEQEND
  8
Unknown_Area_Type
  0
POLYLINE
  8
Unknown_Area_Type
  70
1
  66
1
  0
VERTEX
  8
Unknown_Area_Type
  10
350585.100
  20
4693715.539
  0
VERTEX
  8
Unknown_Area_Type
  10
350585.000
  20
4693715.500
  0
VERTEX
  8
Unknown_Area_Type
  10
349663.841
  20
4693805.501
  0
VERTEX
  8
Unknown_Area_Type
  10
349496.201
  20
4693821.880
  0
VERTEX
  8
Unknown_Area_Type
  10
347365.485
  20
4694030.059
  0
VERTEX
  8
Unknown_Area_Type
  10
347365.492
  20
4694030.373
  0
VERTEX
  8
Unknown_Area_Type
  10
347395.204
  20
4695391.859
  0
VERTEX
  8
Unknown_Area_Type
  10
347444.409
  20
4697645.731
  0
VERTEX
  8
Unknown_Area_Type
  10
347444.410
  20
4697645.737
  0
VERTEX
  8
Unknown_Area_Type
  10
347753.407
  20
4697810.000
  0
VERTEX
  8
Unknown_Area_Type
  10
348954.500
  20
4698448.500
  0
VERTEX
  8
Unknown_Area_Type
  10
348954.879
  20
4698448.436
  0
VERTEX
  8
Unknown_Area_Type
  10
351118.000
  20
4698081.000
  0
VERTEX
  8
Unknown_Area_Type
  10
351113.242
  20
4697810.000
  0
VERTEX
  8
Unknown_Area_Type
  10
351106.921
  20
4697450.000
  0
VERTEX
  8
Unknown_Area_Type
  10
351044.500
  20
4693895.000
  0
VERTEX
  8
Unknown_Area_Type
  10
351044.246
  20
4693894.901
  0
VERTEX
  8
Unknown_Area_Type
  10
350585.486
  20
4693715.690
  0
VERTEX
  8
Unknown_Area_Type
  10
350585.100
  20
4693715.539
  0
SEQEND
  8
Unknown_Area_Type
  0
POLYLINE
  8
Unknown_Area_Type
  70
1
  66
1
  0
VERTEX
  8
Unknown_Area_Type
  10
349116.461
  20
4702649.981
  0
VERTEX
  8
Unknown_Area_Type
  10
349488.000
  20
4702635.000
  0
VERTEX
  8
Unknown_Area_Type
  10
349492.364
  20
4702635.000
  0
VERTEX
  8
Unknown_Area_Type
  10
349500.000
  20
4702635.000
  0
VERTEX
  8
Unknown_Area_Type
  10
351509.497
  20
4702554.500
  0
VERTEX
  8
Unknown_Area_Type
  10
351509.500
  20
4702554.500
  0
VERTEX
  8
Unknown_Area_Type
  10
351508.771
  20
4702440.000
  0
VERTEX
  8
Unknown_Area_Type
  10
351506.478
  20
4702080.000
  0
VERTEX
  8
Unknown_Area_Type
  10
351482.503
  20
4698315.500
  0
VERTEX
  8
Unknown_Area_Type
  10
351482.500
  20
4698315.000
  0
VERTEX
  8
Unknown_Area_Type
  10
351118.500
  20
4698081.000
  0
VERTEX
  8
Unknown_Area_Type
  10
351118.104
  20
4698081.067
  0
VERTEX
  8
Unknown_Area_Type
  10
348955.000
  20
4698448.500
  0
VERTEX
  8
Unknown_Area_Type
  10
349049.765
  20
4702080.000
  0
VERTEX
  8
Unknown_Area_Type
  10
349059.159
  20
4702440.000
  0
VERTEX
  8
Unknown_Area_Type
  10
349064.000
  20
4702625.500
  0
VERTEX
  8
Unknown_Area_Type
  10
349116.000
  20
4702650.000
  0
VERTEX
  8
Unknown_Area_Type
  10
349116.461
  20
4702649.981
  0
SEQEND
  8
Unknown_Area_Type
  0
POLYLINE
  8
Unknown_Area_Type
  70
1
  66
1
  0
VERTEX
  8
Unknown_Area_Type
  10
354600.000
  20
4702609.556
  0
VERTEX
  8
Unknown_Area_Type
  10
355641.000
  20
4702524.000
  0
VERTEX
  8
Unknown_Area_Type
  10
355643.357
  20
4702524.000
  0
VERTEX
  8
Unknown_Area_Type
  10
355644.000
  20
4702524.000
  0
VERTEX
  8
Unknown_Area_Type
  10
356236.235
  20
4702475.327
  0
VERTEX
  8
Unknown_Area_Type
  10
356696.500
  20
4702437.500
  0
VERTEX
  8
Unknown_Area_Type
  10
356697.263
  20
4702290.000
  0
VERTEX
  8
Unknown_Area_Type
  10
356699.074
  20
4701940.000
  0
VERTEX
  8
Unknown_Area_Type
  10
356718.500
  20
4698185.000
  0
VERTEX
  8
Unknown_Area_Type
  10
356717.369
  20
4698184.999
  0
VERTEX
  8
Unknown_Area_Type
  10
354559.000
  20
4698183.000
  0
VERTEX
  8
Unknown_Area_Type
  10
354500.000
  20
4698183.000
  0
VERTEX
  8
Unknown_Area_Type
  10
354200.000
  20
4698183.000
  0
VERTEX
  8
Unknown_Area_Type
  10
354006.000
  20
4698183.000
  0
VERTEX
  8
Unknown_Area_Type
  10
354006.028
  20
4698183.900
  0
VERTEX
  8
Unknown_Area_Type
  10
354128.893
  20
4702080.000
  0
VERTEX
  8
Unknown_Area_Type
  10
354140.245
  20
4702440.000
  0
VERTEX
  8
Unknown_Area_Type
  10
354142.500
  20
4702511.500
  0
VERTEX
  8
Unknown_Area_Type
  10
354142.643
  20
4702511.562
  0
VERTEX
  8
Unknown_Area_Type
  10
354290.000
  20
4702575.314
  0
VERTEX
  8
Unknown_Area_Type
  10
354406.000
  20
4702625.500
  0
VERTEX
  8
Unknown_Area_Type
  10
354406.859
  20
4702625.429
  0
VERTEX
  8
Unknown_Area_Type
  10
354600.000
  20
4702609.556
  0
SEQEND
  8
Unknown_Area_Type
  0
POLYLINE
  8
Unknown_Area_Type
  70
1
  66
1
  0
VERTEX
  8
Unknown_Area_Type
  10
357057.518
  20
4702592.998
  0
VERTEX
  8
Unknown_Area_Type
  10
357689.500
  20
4702536.500
  0
VERTEX
  8
Unknown_Area_Type
  10
357692.000
  20
4702536.500
  0
VERTEX
  8
Unknown_Area_Type
  10
359317.000
  20
4702392.000
  0
VERTEX
  8
Unknown_Area_Type
  10
359315.856
  20
4702290.000
  0
VERTEX
  8
Unknown_Area_Type
  10
359311.932
  20
4701940.000
  0
VERTEX
  8
Unknown_Area_Type
  10
359270.500
  20
4698245.000
  0
VERTEX
  8
Unknown_Area_Type
  10
356843.500
  20
4698091.000
  0
VERTEX
  8
Unknown_Area_Type
  10
356843.461
  20
4698091.030
  0
VERTEX
  8
Unknown_Area_Type
  10
356842.999
  20
4698091.377
  0
VERTEX
  8
Unknown_Area_Type
  10
356718.500
  20
4698185.000
  0
VERTEX
  8
Unknown_Area_Type
  10
356699.074
  20
4701940.000
  0
VERTEX
  8
Unknown_Area_Type
  10
356697.263
  20
4702290.000
  0
VERTEX
  8
Unknown_Area_Type
  10
356696.500
  20
4702437.500
  0
VERTEX
  8
Unknown_Area_Type
  10
356696.580
  20
4702437.535
  0
VERTEX
  8
Unknown_Area_Type
  10
357057.500
  20
4702593.000
  0
VERTEX
  8
Unknown_Area_Type
  10
357057.518
  20
4702592.998
  0
SEQEND
  8
Unknown_Area_Type
  0
POLYLINE
  8
Unknown_Area_Type
  70
1
  66
1
  0
VERTEX
  8
Unknown_Area_Type
  10
363553.450
  20
4702348.277
  0
VERTEX
  8
Unknown_Area_Type
  10
363833.000
  20
4702310.500
  0
VERTEX
  8
Unknown_Area_Type
  10
363833.841
  20
4702310.500
  0
VERTEX
  8
Unknown_Area_Type
  10
363836.000
  20
4702310.500
  0
VERTEX
  8
Unknown_Area_Type
  10
364364.180
  20
4702239.048
  0
VERTEX
  8
Unknown_Area_Type
  10
364486.500
  20
4702222.500
  0
VERTEX
  8
Unknown_Area_Type
  10
364485.618
  20
4702150.000
  0
VERTEX
  8
Unknown_Area_Type
  10
364481.482
  20
4701810.000
  0
VERTEX
  8
Unknown_Area_Type
  10
364438.500
  20
4698276.500
  0
VERTEX
  8
Unknown_Area_Type
  10
362522.500
  20
4697861.000
  0
VERTEX
  8
Unknown_Area_Type
  10
362520.000
  20
4697861.000
  0
VERTEX
  8
Unknown_Area_Type
  10
362519.000
  20
4697861.000
  0
VERTEX
  8
Unknown_Area_Type
  10
362514.000
  20
4697864.000
  0
VERTEX
  8
Unknown_Area_Type
  10
362045.616
  20
4698148.485
  0
VERTEX
  8
Unknown_Area_Type
  10
361822.500
  20
4698284.000
  0
VERTEX
  8
Unknown_Area_Type
  10
361822.526
  20
4698285.340
  0
VERTEX
  8
Unknown_Area_Type
  10
361889.862
  20
4701810.000
  0
VERTEX
  8
Unknown_Area_Type
  10
361896.357
  20
4702150.000
  0
VERTEX
  8
Unknown_Area_Type
  10
361899.500
  20
4702314.500
  0
VERTEX
  8
Unknown_Area_Type
  10
361899.738
  20
4702314.593
  0
VERTEX
  8
Unknown_Area_Type
  10
362381.500
  20
4702504.000
  0
VERTEX
  8
Unknown_Area_Type
  10
362385.500
  20
4702505.500
  0
VERTEX
  8
Unknown_Area_Type
  10
362385.750
  20
4702505.500
  0
VERTEX
  8
Unknown_Area_Type
  10
362386.500
  20
4702505.500
  0
VERTEX
  8
Unknown_Area_Type
  10
362390.000
  20
4702505.500
  0
VERTEX
  8
Unknown_Area_Type
  10
363553.450
  20
4702348.277
  0
SEQEND
  8
Unknown_Area_Type
  0
POLYLINE
  8
Unknown_Area_Type
  70
1
  66
1
  0
VERTEX
  8
Unknown_Area_Type
  10
354005.000
  20
4698181.500
  0
VERTEX
  8
Unknown_Area_Type
  10
353984.500
  20
4698166.500
  0
VERTEX
  8
Unknown_Area_Type
  10
353984.493
  20
4698166.500
  0
VERTEX
  8
Unknown_Area_Type
  10
351482.503
  20
4698315.500
  0
VERTEX
  8
Unknown_Area_Type
  10
351482.500
  20
4698315.500
  0
VERTEX
  8
Unknown_Area_Type
  10
351506.475
  20
4702080.000
  0
VERTEX
  8
Unknown_Area_Type
  10
351508.768
  20
4702440.000
  0
VERTEX
  8
Unknown_Area_Type
  10
351509.497
  20
4702554.500
  0
VERTEX
  8
Unknown_Area_Type
  10
351509.500
  20
4702555.000
  0
VERTEX
  8
Unknown_Area_Type
  10
351545.500
  20
4702571.000
  0
VERTEX
  8
Unknown_Area_Type
  10
351547.000
  20
4702571.500
  0
VERTEX
  8
Unknown_Area_Type
  10
351791.500
  20
4702680.500
  0
VERTEX
  8
Unknown_Area_Type
  10
351793.140
  20
4702680.673
  0
VERTEX
  8
Unknown_Area_Type
  10
351798.555
  20
4702681.243
  0
VERTEX
  8
Unknown_Area_Type
  10
351801.000
  20
4702681.500
  0
VERTEX
  8
Unknown_Area_Type
  10
353808.000
  20
4702535.786
  0
VERTEX
  8
Unknown_Area_Type
  10
354142.500
  20
4702511.500
  0
VERTEX
  8
Unknown_Area_Type
  10
354140.252
  20
4702440.000
  0
VERTEX
  8
Unknown_Area_Type
  10
354128.936
  20
4702080.000
  0
VERTEX
  8
Unknown_Area_Type
  10
354006.500
  20
4698185.000
  0
VERTEX
  8
Unknown_Area_Type
  10
354006.028
  20
4698183.900
  0
VERTEX
  8
Unknown_Area_Type
  10
354005.476
  20
4698182.610
  0
VERTEX
  8
Unknown_Area_Type
  10
354005.000
  20
4698181.500
  0
SEQEND
  8
Unknown_Area_Type
  0
POLYLINE
  8
Unknown_Area_Type
  70
1
  66
1
  0
VERTEX
  8
Unknown_Area_Type
  10
365415.811
  20
4697775.597
  0
VERTEX
  8
Unknown_Area_Type
  10
365415.500
  20
4697775.500
  0
VERTEX
  8
Unknown_Area_Type
  10
364438.500
  20
4698276.000
  0
VERTEX
  8
Unknown_Area_Type
  10
364438.506
  20
4698276.497
  0
VERTEX
  8
Unknown_Area_Type
  10
364481.925
  20
4701810.000
  0
VERTEX
  8
Unknown_Area_Type
  10
364486.103
  20
4702150.000
  0
VERTEX
  8
Unknown_Area_Type
  10
364486.994
  20
4702222.501
  0
VERTEX
  8
Unknown_Area_Type
  10
364487.000
  20
4702223.000
  0
VERTEX
  8
Unknown_Area_Type
  10
365157.000
  20
4702480.000
  0
VERTEX
  8
Unknown_Area_Type
  10
365157.374
  20
4702479.952
  0
VERTEX
  8
Unknown_Area_Type
  10
367064.500
  20
4702234.500
  0
VERTEX
  8
Unknown_Area_Type
  10
367063.298
  20
4702150.000
  0
VERTEX
  8
Unknown_Area_Type
  10
367058.461
  20
4701810.000
  0
VERTEX
  8
Unknown_Area_Type
  10
367031.000
  20
4699879.500
  0
VERTEX
  8
Unknown_Area_Type
  10
367031.000
  20
4699864.676
  0
VERTEX
  8
Unknown_Area_Type
  10
367031.000
  20
4699858.000
  0
VERTEX
  8
Unknown_Area_Type
  10
367027.350
  20
4699606.478
  0
VERTEX
  8
Unknown_Area_Type
  10
367008.007
  20
4698273.497
  0
VERTEX
  8
Unknown_Area_Type
  10
367008.000
  20
4698273.000
  0
VERTEX
  8
Unknown_Area_Type
  10
365794.840
  20
4697894.006
  0
VERTEX
  8
Unknown_Area_Type
  10
365415.811
  20
4697775.597
  0
SEQEND
  8
Unknown_Area_Type
  0
POLYLINE
  8
Unknown_Area_Type
  70
1
  66
1
  0
VERTEX
  8
Unknown_Area_Type
  10
359669.000
  20
4697986.500
  0
VERTEX
  8
Unknown_Area_Type
  10
359668.500
  20
4697986.500
  0
VERTEX
  8
Unknown_Area_Type
  10
359663.000
  20
4697990.000
  0
VERTEX
  8
Unknown_Area_Type
  10
359270.500
  20
4698244.500
  0
VERTEX
  8
Unknown_Area_Type
  10
359270.506
  20
4698244.996
  0
VERTEX
  8
Unknown_Area_Type
  10
359311.932
  20
4701940.000
  0
VERTEX
  8
Unknown_Area_Type
  10
359315.856
  20
4702290.000
  0
VERTEX
  8
Unknown_Area_Type
  10
359317.000
  20
4702392.000
  0
VERTEX
  8
Unknown_Area_Type
  10
359317.090
  20
4702392.037
  0
VERTEX
  8
Unknown_Area_Type
  10
359737.500
  20
4702562.000
  0
VERTEX
  8
Unknown_Area_Type
  10
359739.000
  20
4702562.500
  0
VERTEX
  8
Unknown_Area_Type
  10
359771.000
  20
4702575.500
  0
VERTEX
  8
Unknown_Area_Type
  10
359772.000
  20
4702575.500
  0
VERTEX
  8
Unknown_Area_Type
  10
359774.500
  20
4702575.500
  0
VERTEX
  8
Unknown_Area_Type
  10
361150.000
  20
4702406.556
  0
VERTEX
  8
Unknown_Area_Type
  10
361292.230
  20
4702389.087
  0
VERTEX
  8
Unknown_Area_Type
  10
361450.000
  20
4702369.709
  0
VERTEX
  8
Unknown_Area_Type
  10
361899.500
  20
4702314.500
  0
VERTEX
  8
Unknown_Area_Type
  10
361896.375
  20
4702150.000
  0
VERTEX
  8
Unknown_Area_Type
  10
361889.917
  20
4701810.000
  0
VERTEX
  8
Unknown_Area_Type
  10
361823.000
  20
4698287.000
  0
VERTEX
  8
Unknown_Area_Type
  10
361822.526
  20
4698285.340
  0
VERTEX
  8
Unknown_Area_Type
  10
361822.122
  20
4698283.926
  0
VERTEX
  8
Unknown_Area_Type
  10
361822.000
  20
4698283.500
  0
VERTEX
  8
Unknown_Area_Type
  10
361360.000
  20
4698219.709
  0
VERTEX
  8
Unknown_Area_Type
  10
361050.000
  20
4698176.906
  0
VERTEX
  8
Unknown_Area_Type
  10
359671.000
  20
4697986.500
  0
VERTEX
  8
Unknown_Area_Type
  10
359669.000
  20
4697986.500
  0
SEQEND
  8
Unknown_Area_Type
  0
POLYLINE
  8
Unknown_Area_Type
  70
1
  66
1
  0
VERTEX
  8
Unknown_Area_Type
  10
374748.922
  20
4698052.951
  0
VERTEX
  8
Unknown_Area_Type
  10
374212.000
  20
4697716.500
  0
VERTEX
  8
Unknown_Area_Type
  10
374211.624
  20
4697716.578
  0
VERTEX
  8
Unknown_Area_Type
  10
372142.156
  20
4698145.968
  0
VERTEX
  8
Unknown_Area_Type
  10
372142.000
  20
4698146.000
  0
VERTEX
  8
Unknown_Area_Type
  10
372307.894
  20
4701680.000
  0
VERTEX
  8
Unknown_Area_Type
  10
372323.855
  20
4702020.000
  0
VERTEX
  8
Unknown_Area_Type
  10
372326.977
  20
4702086.504
  0
VERTEX
  8
Unknown_Area_Type
  10
372327.000
  20
4702087.000
  0
VERTEX
  8
Unknown_Area_Type
  10
372932.000
  20
4702300.000
  0
VERTEX
  8
Unknown_Area_Type
  10
372933.500
  20
4702300.500
  0
VERTEX
  8
Unknown_Area_Type
  10
372934.156
  20
4702300.379
  0
VERTEX
  8
Unknown_Area_Type
  10
374453.535
  20
4702020.000
  0
VERTEX
  8
Unknown_Area_Type
  10
374757.000
  20
4701964.000
  0
VERTEX
  8
Unknown_Area_Type
  10
374756.419
  20
4701680.000
  0
VERTEX
  8
Unknown_Area_Type
  10
374749.000
  20
4698053.000
  0
VERTEX
  8
Unknown_Area_Type
  10
374748.922
  20
4698052.951
  0
SEQEND
  8
Unknown_Area_Type
  0
POLYLINE
  8
Unknown_Area_Type
  70
1
  66
1
  0
VERTEX
  8
Unknown_Area_Type
  10
368294.560
  20
4697748.679
  0
VERTEX
  8
Unknown_Area_Type
  10
368294.000
  20
4697748.500
  0
VERTEX
  8
Unknown_Area_Type
  10
368210.000
  20
4697782.773
  0
VERTEX
  8
Unknown_Area_Type
  10
367930.105
  20
4697896.974
  0
VERTEX
  8
Unknown_Area_Type
  10
367910.000
  20
4697905.177
  0
VERTEX
  8
Unknown_Area_Type
  10
367881.093
  20
4697916.971
  0
VERTEX
  8
Unknown_Area_Type
  10
367008.500
  20
4698273.000
  0
VERTEX
  8
Unknown_Area_Type
  10
367008.504
  20
4698273.294
  0
VERTEX
  8
Unknown_Area_Type
  10
367027.350
  20
4699606.478
  0
VERTEX
  8
Unknown_Area_Type
  10
367031.000
  20
4699864.676
  0
VERTEX
  8
Unknown_Area_Type
  10
367058.499
  20
4701810.000
  0
VERTEX
  8
Unknown_Area_Type
  10
367063.306
  20
4702150.000
  0
VERTEX
  8
Unknown_Area_Type
  10
367064.500
  20
4702234.500
  0
VERTEX
  8
Unknown_Area_Type
  10
367064.628
  20
4702234.548
  0
VERTEX
  8
Unknown_Area_Type
  10
367664.500
  20
4702460.000
  0
VERTEX
  8
Unknown_Area_Type
  10
367664.861
  20
4702459.948
  0
VERTEX
  8
Unknown_Area_Type
  10
368000.000
  20
4702411.218
  0
VERTEX
  8
Unknown_Area_Type
  10
368300.000
  20
4702367.598
  0
VERTEX
  8
Unknown_Area_Type
  10
369659.000
  20
4702170.000
  0
VERTEX
  8
Unknown_Area_Type
  10
369657.384
  20
4702020.000
  0
VERTEX
  8
Unknown_Area_Type
  10
369653.722
  20
4701680.000
  0
VERTEX
  8
Unknown_Area_Type
  10
369617.000
  20
4698270.500
  0
VERTEX
  8
Unknown_Area_Type
  10
369616.763
  20
4698270.407
  0
VERTEX
  8
Unknown_Area_Type
  10
368452.000
  20
4697810.000
  0
VERTEX
  8
Unknown_Area_Type
  10
368450.725
  20
4697810.000
  0
VERTEX
  8
Unknown_Area_Type
  10
368450.500
  20
4697810.000
  0
VERTEX
  8
Unknown_Area_Type
  10
368430.184
  20
4697801.888
  0
VERTEX
  8
Unknown_Area_Type
  10
368306.500
  20
4697752.500
  0
VERTEX
  8
Unknown_Area_Type
  10
368299.271
  20
4697750.187
  0
VERTEX
  8
Unknown_Area_Type
  10
368294.560
  20
4697748.679
  0
SEQEND
  8
Unknown_Area_Type
  0
POLYLINE
  8
Unknown_Area_Type
  70
1
  66
1
  0
VERTEX
  8
Unknown_Area_Type
  10
347753.519
  20
4697810.000
  0
VERTEX
  8
Unknown_Area_Type
  10
347444.409
  20
4697645.731
  0
VERTEX
  8
Unknown_Area_Type
  10
347444.410
  20
4697645.737
  0
VERTEX
  8
Unknown_Area_Type
  10
347445.709
  20
4697705.236
  0
VERTEX
  8
Unknown_Area_Type
  10
347496.233
  20
4700018.621
  0
VERTEX
  8
Unknown_Area_Type
  10
347546.779
  20
4702332.013
  0
VERTEX
  8
Unknown_Area_Type
  10
347553.742
  20
4702650.584
  0
VERTEX
  8
Unknown_Area_Type
  10
347553.747
  20
4702650.796
  0
VERTEX
  8
Unknown_Area_Type
  10
349064.000
  20
4702625.500
  0
VERTEX
  8
Unknown_Area_Type
  10
349059.159
  20
4702440.000
  0
VERTEX
  8
Unknown_Area_Type
  10
349049.765
  20
4702080.000
  0
VERTEX
  8
Unknown_Area_Type
  10
348955.000
  20
4698448.500
  0
VERTEX
  8
Unknown_Area_Type
  10
348954.879
  20
4698448.436
  0
VERTEX
  8
Unknown_Area_Type
  10
347753.519
  20
4697810.000
  0
SEQEND
  8
Unknown_Area_Type
  0
POLYLINE
  8
Unknown_Area_Type
  70
1
  66
1
  0
VERTEX
  8
Unknown_Area_Type
  10
351891.000
  20
4688815.000
  0
VERTEX
  8
Unknown_Area_Type
  10
351885.000
  20
4688813.000
  0
VERTEX
  8
Unknown_Area_Type
  10
351883.983
  20
4688813.170
  0
VERTEX
  8
Unknown_Area_Type
  10
351882.176
  20
4688813.471
  0
VERTEX
  8
Unknown_Area_Type
  10
351879.000
  20
4688814.000
  0
VERTEX
  8
Unknown_Area_Type
  10
350382.740
  20
4689346.415
  0
VERTEX
  8
Unknown_Area_Type
  10
350382.712
  20
4689346.424
  0
VERTEX
  8
Unknown_Area_Type
  10
350382.500
  20
4689346.500
  0
VERTEX
  8
Unknown_Area_Type
  10
350544.338
  20
4692830.000
  0
VERTEX
  8
Unknown_Area_Type
  10
350560.598
  20
4693180.000
  0
VERTEX
  8
Unknown_Area_Type
  10
350585.477
  20
4693715.502
  0
VERTEX
  8
Unknown_Area_Type
  10
350585.486
  20
4693715.690
  0
VERTEX
  8
Unknown_Area_Type
  10
350585.500
  20
4693716.000
  0
VERTEX
  8
Unknown_Area_Type
  10
351042.000
  20
4693894.500
  0
VERTEX
  8
Unknown_Area_Type
  10
351043.500
  20
4693895.000
  0
VERTEX
  8
Unknown_Area_Type
  10
351044.246
  20
4693894.901
  0
VERTEX
  8
Unknown_Area_Type
  10
351492.800
  20
4693835.200
  0
VERTEX
  8
Unknown_Area_Type
  10
353288.603
  20
4693596.186
  0
VERTEX
  8
Unknown_Area_Type
  10
353290.000
  20
4693596.000
  0
VERTEX
  8
Unknown_Area_Type
  10
353271.575
  20
4693180.000
  0
VERTEX
  8
Unknown_Area_Type
  10
353256.073
  20
4692830.000
  0
VERTEX
  8
Unknown_Area_Type
  10
353097.000
  20
4689238.500
  0
VERTEX
  8
Unknown_Area_Type
  10
353096.563
  20
4689238.347
  0
VERTEX
  8
Unknown_Area_Type
  10
351891.000
  20
4688815.000
  0
SEQEND
  8
Unknown_Area_Type
  0
POLYLINE
  8
Unknown_Area_Type
  70
1
  66
1
  0
VERTEX
  8
Unknown_Area_Type
  10
358467.808
  20
4689011.258
  0
VERTEX
  8
Unknown_Area_Type
  10
357380.000
  20
4688603.500
  0
VERTEX
  8
Unknown_Area_Type
  10
357379.421
  20
4688603.658
  0
VERTEX
  8
Unknown_Area_Type
  10
357375.550
  20
4688604.714
  0
VERTEX
  8
Unknown_Area_Type
  10
357369.000
  20
4688606.500
  0
VERTEX
  8
Unknown_Area_Type
  10
356449.660
  20
4688930.412
  0
VERTEX
  8
Unknown_Area_Type
  10
355825.000
  20
4689150.500
  0
VERTEX
  8
Unknown_Area_Type
  10
355995.466
  20
4692690.000
  0
VERTEX
  8
Unknown_Area_Type
  10
356012.322
  20
4693040.000
  0
VERTEX
  8
Unknown_Area_Type
  10
356034.500
  20
4693500.500
  0
VERTEX
  8
Unknown_Area_Type
  10
356034.657
  20
4693500.552
  0
VERTEX
  8
Unknown_Area_Type
  10
356791.000
  20
4693752.000
  0
VERTEX
  8
Unknown_Area_Type
  10
356791.654
  20
4693751.885
  0
VERTEX
  8
Unknown_Area_Type
  10
357278.723
  20
4693666.297
  0
VERTEX
  8
Unknown_Area_Type
  10
358704.030
  20
4693415.840
  0
VERTEX
  8
Unknown_Area_Type
  10
358714.500
  20
4693414.000
  0
VERTEX
  8
Unknown_Area_Type
  10
358703.038
  20
4693040.000
  0
VERTEX
  8
Unknown_Area_Type
  10
358692.311
  20
4692690.000
  0
VERTEX
  8
Unknown_Area_Type
  10
358598.500
  20
4689629.000
  0
VERTEX
  8
Unknown_Area_Type
  10
358598.500
  20
4689625.537
  0
VERTEX
  8
Unknown_Area_Type
  10
358598.500
  20
4689618.000
  0
VERTEX
  8
Unknown_Area_Type
  10
358581.500
  20
4689057.500
  0
VERTEX
  8
Unknown_Area_Type
  10
358581.052
  20
4689055.709
  0
VERTEX
  8
Unknown_Area_Type
  10
358580.500
  20
4689053.500
  0
VERTEX
  8
Unknown_Area_Type
  10
358467.808
  20
4689011.258
  0
SEQEND
  8
Unknown_Area_Type
  0
POLYLINE
  8
Unknown_Area_Type
  70
1
  66
1
  0
VERTEX
  8
Unknown_Area_Type
  10
371248.500
  20
4697691.000
  0
VERTEX
  8
Unknown_Area_Type
  10
371247.000
  20
4697691.000
  0
VERTEX
  8
Unknown_Area_Type
  10
371223.000
  20
4697699.500
  0
VERTEX
  8
Unknown_Area_Type
  10
370006.405
  20
4698132.050
  0
VERTEX
  8
Unknown_Area_Type
  10
369617.000
  20
4698270.500
  0
VERTEX
  8
Unknown_Area_Type
  10
369653.722
  20
4701680.000
  0
VERTEX
  8
Unknown_Area_Type
  10
369657.384
  20
4702020.000
  0
VERTEX
  8
Unknown_Area_Type
  10
369659.000
  20
4702170.000
  0
VERTEX
  8
Unknown_Area_Type
  10
369659.415
  20
4702170.158
  0
VERTEX
  8
Unknown_Area_Type
  10
369977.500
  20
4702291.000
  0
VERTEX
  8
Unknown_Area_Type
  10
369979.000
  20
4702291.500
  0
VERTEX
  8
Unknown_Area_Type
  10
370256.500
  20
4702397.000
  0
VERTEX
  8
Unknown_Area_Type
  10
370258.000
  20
4702397.000
  0
VERTEX
  8
Unknown_Area_Type
  10
370261.500
  20
4702397.000
  0
VERTEX
  8
Unknown_Area_Type
  10
372326.977
  20
4702086.504
  0
VERTEX
  8
Unknown_Area_Type
  10
372327.000
  20
4702086.500
  0
VERTEX
  8
Unknown_Area_Type
  10
372323.886
  20
4702020.000
  0
VERTEX
  8
Unknown_Area_Type
  10
372307.962
  20
4701680.000
  0
VERTEX
  8
Unknown_Area_Type
  10
372142.500
  20
4698147.000
  0
VERTEX
  8
Unknown_Area_Type
  10
372142.156
  20
4698145.968
  0
VERTEX
  8
Unknown_Area_Type
  10
372142.000
  20
4698145.500
  0
VERTEX
  8
Unknown_Area_Type
  10
372122.500
  20
4698135.500
  0
VERTEX
  8
Unknown_Area_Type
  10
371249.500
  20
4697691.000
  0
VERTEX
  8
Unknown_Area_Type
  10
371248.500
  20
4697691.000
  0
SEQEND
  8
Unknown_Area_Type
  0
POLYLINE
  8
Unknown_Area_Type
  70
1
  66
1
  0
VERTEX
  8
Unknown_Area_Type
  10
360228.314
  20
4688495.733
  0
VERTEX
  8
Unknown_Area_Type
  10
360227.500
  20
4688495.500
  0
VERTEX
  8
Unknown_Area_Type
  10
358581.525
  20
4689053.822
  0
VERTEX
  8
Unknown_Area_Type
  10
358581.000
  20
4689054.000
  0
VERTEX
  8
Unknown_Area_Type
  10
358581.052
  20
4689055.709
  0
VERTEX
  8
Unknown_Area_Type
  10
358598.500
  20
4689625.537
  0
VERTEX
  8
Unknown_Area_Type
  10
358692.332
  20
4692690.000
  0
VERTEX
  8
Unknown_Area_Type
  10
358703.048
  20
4693040.000
  0
VERTEX
  8
Unknown_Area_Type
  10
358714.500
  20
4693414.000
  0
VERTEX
  8
Unknown_Area_Type
  10
358715.154
  20
4693414.199
  0
VERTEX
  8
Unknown_Area_Type
  10
359611.000
  20
4693686.000
  0
VERTEX
  8
Unknown_Area_Type
  10
359611.310
  20
4693685.942
  0
VERTEX
  8
Unknown_Area_Type
  10
359611.505
  20
4693685.906
  0
VERTEX
  8
Unknown_Area_Type
  10
359737.500
  20
4693662.500
  0
VERTEX
  8
Unknown_Area_Type
  10
359737.636
  20
4693662.473
  0
VERTEX
  8
Unknown_Area_Type
  10
359740.000
  20
4693662.000
  0
VERTEX
  8
Unknown_Area_Type
  10
360960.000
  20
4693439.181
  0
VERTEX
  8
Unknown_Area_Type
  10
361260.000
  20
4693384.390
  0
VERTEX
  8
Unknown_Area_Type
  10
361514.000
  20
4693338.000
  0
VERTEX
  8
Unknown_Area_Type
  10
361494.474
  20
4692900.000
  0
VERTEX
  8
Unknown_Area_Type
  10
361478.871
  20
4692550.000
  0
VERTEX
  8
Unknown_Area_Type
  10
361317.000
  20
4688919.000
  0
VERTEX
  8
Unknown_Area_Type
  10
361316.564
  20
4688918.830
  0
VERTEX
  8
Unknown_Area_Type
  10
361170.000
  20
4688861.712
  0
VERTEX
  8
Unknown_Area_Type
  10
360870.000
  20
4688744.798
  0
VERTEX
  8
Unknown_Area_Type
  10
360238.000
  20
4688498.500
  0
VERTEX
  8
Unknown_Area_Type
  10
360232.273
  20
4688496.864
  0
VERTEX
  8
Unknown_Area_Type
  10
360228.314
  20
4688495.733
  0
SEQEND
  8
Unknown_Area_Type
  0
POLYLINE
  8
Unknown_Area_Type
  70
1
  66
1
  0
VERTEX
  8
Unknown_Area_Type
  10
366981.120
  20
4688800.478
  0
VERTEX
  8
Unknown_Area_Type
  10
365749.000
  20
4688313.500
  0
VERTEX
  8
Unknown_Area_Type
  10
365748.983
  20
4688313.506
  0
VERTEX
  8
Unknown_Area_Type
  10
364140.000
  20
4688885.000
  0
VERTEX
  8
Unknown_Area_Type
  10
364137.500
  20
4688886.000
  0
VERTEX
  8
Unknown_Area_Type
  10
364137.412
  20
4688886.354
  0
VERTEX
  8
Unknown_Area_Type
  10
364137.063
  20
4688887.747
  0
VERTEX
  8
Unknown_Area_Type
  10
364137.000
  20
4688888.000
  0
VERTEX
  8
Unknown_Area_Type
  10
364269.949
  20
4692550.000
  0
VERTEX
  8
Unknown_Area_Type
  10
364282.656
  20
4692900.000
  0
VERTEX
  8
Unknown_Area_Type
  10
364295.000
  20
4693240.000
  0
VERTEX
  8
Unknown_Area_Type
  10
364295.937
  20
4693240.267
  0
VERTEX
  8
Unknown_Area_Type
  10
365376.000
  20
4693548.000
  0
VERTEX
  8
Unknown_Area_Type
  10
365378.000
  20
4693548.000
  0
VERTEX
  8
Unknown_Area_Type
  10
365380.500
  20
4693548.000
  0
VERTEX
  8
Unknown_Area_Type
  10
365881.500
  20
4693438.500
  0
VERTEX
  8
Unknown_Area_Type
  10
365884.000
  20
4693438.000
  0
VERTEX
  8
Unknown_Area_Type
  10
366985.238
  20
4693198.666
  0
VERTEX
  8
Unknown_Area_Type
  10
366986.000
  20
4693198.500
  0
VERTEX
  8
Unknown_Area_Type
  10
366986.102
  20
4692900.000
  0
VERTEX
  8
Unknown_Area_Type
  10
366986.221
  20
4692550.000
  0
VERTEX
  8
Unknown_Area_Type
  10
366987.500
  20
4688803.000
  0
VERTEX
  8
Unknown_Area_Type
  10
366981.120
  20
4688800.478
  0
SEQEND
  8
Unknown_Area_Type
  0
POLYLINE
  8
Unknown_Area_Type
  70
1
  66
1
  0
VERTEX
  8
Unknown_Area_Type
  10
368628.500
  20
4688256.000
  0
VERTEX
  8
Unknown_Area_Type
  10
368627.000
  20
4688256.000
  0
VERTEX
  8
Unknown_Area_Type
  10
368030.000
  20
4688455.182
  0
VERTEX
  8
Unknown_Area_Type
  10
367740.000
  20
4688551.937
  0
VERTEX
  8
Unknown_Area_Type
  10
366988.234
  20
4688802.755
  0
VERTEX
  8
Unknown_Area_Type
  10
366987.500
  20
4688803.000
  0
VERTEX
  8
Unknown_Area_Type
  10
366986.221
  20
4692550.000
  0
VERTEX
  8
Unknown_Area_Type
  10
366986.102
  20
4692900.000
  0
VERTEX
  8
Unknown_Area_Type
  10
366986.000
  20
4693198.500
  0
VERTEX
  8
Unknown_Area_Type
  10
366995.831
  20
4693201.044
  0
VERTEX
  8
Unknown_Area_Type
  10
367820.000
  20
4693414.290
  0
VERTEX
  8
Unknown_Area_Type
  10
368120.000
  20
4693491.913
  0
VERTEX
  8
Unknown_Area_Type
  10
368273.000
  20
4693531.500
  0
VERTEX
  8
Unknown_Area_Type
  10
368275.000
  20
4693532.000
  0
VERTEX
  8
Unknown_Area_Type
  10
368275.265
  20
4693531.939
  0
VERTEX
  8
Unknown_Area_Type
  10
368598.300
  20
4693457.600
  0
VERTEX
  8
Unknown_Area_Type
  10
369891.500
  20
4693160.000
  0
VERTEX
  8
Unknown_Area_Type
  10
369881.321
  20
4692760.000
  0
VERTEX
  8
Unknown_Area_Type
  10
369872.923
  20
4692430.000
  0
VERTEX
  8
Unknown_Area_Type
  10
369778.000
  20
4688700.000
  0
VERTEX
  8
Unknown_Area_Type
  10
369777.764
  20
4688699.909
  0
VERTEX
  8
Unknown_Area_Type
  10
368629.500
  20
4688256.000
  0
VERTEX
  8
Unknown_Area_Type
  10
368628.500
  20
4688256.000
  0
SEQEND
  8
Unknown_Area_Type
  0
POLYLINE
  8
Unknown_Area_Type
  70
1
  66
1
  0
VERTEX
  8
Unknown_Area_Type
  10
374913.292
  20
4699473.572
  0
VERTEX
  8
Unknown_Area_Type
  10
374887.560
  20
4698037.026
  0
VERTEX
  8
Unknown_Area_Type
  10
374770.000
  20
4698050.579
  0
VERTEX
  8
Unknown_Area_Type
  10
374749.000
  20
4698053.000
  0
VERTEX
  8
Unknown_Area_Type
  10
374756.419
  20
4701680.000
  0
VERTEX
  8
Unknown_Area_Type
  10
374757.000
  20
4701964.000
  0
VERTEX
  8
Unknown_Area_Type
  10
374757.178
  20
4701964.060
  0
VERTEX
  8
Unknown_Area_Type
  10
374850.000
  20
4701995.181
  0
VERTEX
  8
Unknown_Area_Type
  10
374924.027
  20
4702020.000
  0
VERTEX
  8
Unknown_Area_Type
  10
374959.134
  20
4702031.770
  0
VERTEX
  8
Unknown_Area_Type
  10
374959.130
  20
4702031.553
  0
VERTEX
  8
Unknown_Area_Type
  10
374954.745
  20
4701786.929
  0
VERTEX
  8
Unknown_Area_Type
  10
374913.292
  20
4699473.572
  0
SEQEND
  8
Unknown_Area_Type
  0
POLYLINE
  8
Unknown_Area_Type
  70
1
  66
1
  0
VERTEX
  8
Unknown_Area_Type
  10
349129.000
  20
4688935.000
  0
VERTEX
  8
Unknown_Area_Type
  10
349127.500
  20
4688935.000
  0
VERTEX
  8
Unknown_Area_Type
  10
347425.848
  20
4689581.987
  0
VERTEX
  8
Unknown_Area_Type
  10
347269.750
  20
4689641.337
  0
VERTEX
  8
Unknown_Area_Type
  10
347294.255
  20
4690765.128
  0
VERTEX
  8
Unknown_Area_Type
  10
347344.719
  20
4693078.490
  0
VERTEX
  8
Unknown_Area_Type
  10
347365.485
  20
4694030.059
  0
VERTEX
  8
Unknown_Area_Type
  10
347365.492
  20
4694030.373
  0
VERTEX
  8
Unknown_Area_Type
  10
349495.000
  20
4693822.000
  0
VERTEX
  8
Unknown_Area_Type
  10
349496.201
  20
4693821.880
  0
VERTEX
  8
Unknown_Area_Type
  10
349500.000
  20
4693821.500
  0
VERTEX
  8
Unknown_Area_Type
  10
349663.841
  20
4693805.501
  0
VERTEX
  8
Unknown_Area_Type
  10
350585.100
  20
4693715.539
  0
VERTEX
  8
Unknown_Area_Type
  10
350585.477
  20
4693715.502
  0
VERTEX
  8
Unknown_Area_Type
  10
350585.500
  20
4693715.500
  0
VERTEX
  8
Unknown_Area_Type
  10
350560.677
  20
4693180.000
  0
VERTEX
  8
Unknown_Area_Type
  10
350544.453
  20
4692830.000
  0
VERTEX
  8
Unknown_Area_Type
  10
350383.000
  20
4689347.000
  0
VERTEX
  8
Unknown_Area_Type
  10
350382.712
  20
4689346.424
  0
VERTEX
  8
Unknown_Area_Type
  10
350382.701
  20
4689346.402
  0
VERTEX
  8
Unknown_Area_Type
  10
350382.500
  20
4689346.000
  0
VERTEX
  8
Unknown_Area_Type
  10
350367.500
  20
4689341.000
  0
VERTEX
  8
Unknown_Area_Type
  10
349131.000
  20
4688935.000
  0
VERTEX
  8
Unknown_Area_Type
  10
349129.000
  20
4688935.000
  0
SEQEND
  8
Unknown_Area_Type
  0
POLYLINE
  8
Unknown_Area_Type
  70
1
  66
1
  0
VERTEX
  8
Unknown_Area_Type
  10
374336.384
  20
4688140.000
  0
VERTEX
  8
Unknown_Area_Type
  10
374192.000
  20
4688092.000
  0
VERTEX
  8
Unknown_Area_Type
  10
374191.975
  20
4688092.009
  0
VERTEX
  8
Unknown_Area_Type
  10
374053.246
  20
4688140.000
  0
VERTEX
  8
Unknown_Area_Type
  10
372684.500
  20
4688613.500
  0
VERTEX
  8
Unknown_Area_Type
  10
372689.988
  20
4692430.000
  0
VERTEX
  8
Unknown_Area_Type
  10
372690.463
  20
4692760.000
  0
VERTEX
  8
Unknown_Area_Type
  10
372691.000
  20
4693133.500
  0
VERTEX
  8
Unknown_Area_Type
  10
373098.829
  20
4693226.915
  0
VERTEX
  8
Unknown_Area_Type
  10
374171.000
  20
4693472.500
  0
VERTEX
  8
Unknown_Area_Type
  10
374173.000
  20
4693473.000
  0
VERTEX
  8
Unknown_Area_Type
  10
374173.699
  20
4693472.817
  0
VERTEX
  8
Unknown_Area_Type
  10
374680.000
  20
4693340.062
  0
VERTEX
  8
Unknown_Area_Type
  10
374717.259
  20
4693330.293
  0
VERTEX
  8
Unknown_Area_Type
  10
374802.890
  20
4693307.840
  0
VERTEX
  8
Unknown_Area_Type
  10
374802.889
  20
4693307.778
  0
VERTEX
  8
Unknown_Area_Type
  10
374789.032
  20
4692533.550
  0
VERTEX
  8
Unknown_Area_Type
  10
374747.646
  20
4690220.225
  0
VERTEX
  8
Unknown_Area_Type
  10
374712.686
  20
4688265.338
  0
VERTEX
  8
Unknown_Area_Type
  10
374712.682
  20
4688265.099
  0
VERTEX
  8
Unknown_Area_Type
  10
374600.000
  20
4688227.638
  0
VERTEX
  8
Unknown_Area_Type
  10
374336.384
  20
4688140.000
  0
SEQEND
  8
Unknown_Area_Type
  0
POLYLINE
  8
Unknown_Area_Type
  70
1
  66
1
  0
VERTEX
  8
Unknown_Area_Type
  10
364137.000
  20
4688886.000
  0
VERTEX
  8
Unknown_Area_Type
  10
362900.000
  20
4688400.000
  0
VERTEX
  8
Unknown_Area_Type
  10
362899.727
  20
4688400.089
  0
VERTEX
  8
Unknown_Area_Type
  10
361645.998
  20
4688811.135
  0
VERTEX
  8
Unknown_Area_Type
  10
361328.480
  20
4688915.236
  0
VERTEX
  8
Unknown_Area_Type
  10
361317.000
  20
4688919.000
  0
VERTEX
  8
Unknown_Area_Type
  10
361478.551
  20
4692550.000
  0
VERTEX
  8
Unknown_Area_Type
  10
361494.124
  20
4692900.000
  0
VERTEX
  8
Unknown_Area_Type
  10
361513.500
  20
4693335.500
  0
VERTEX
  8
Unknown_Area_Type
  10
361514.000
  20
4693338.000
  0
VERTEX
  8
Unknown_Area_Type
  10
361514.327
  20
4693338.123
  0
VERTEX
  8
Unknown_Area_Type
  10
361518.000
  20
4693339.500
  0
VERTEX
  8
Unknown_Area_Type
  10
361784.500
  20
4693420.000
  0
VERTEX
  8
Unknown_Area_Type
  10
361786.500
  20
4693420.500
  0
VERTEX
  8
Unknown_Area_Type
  10
362356.804
  20
4693592.348
  0
VERTEX
  8
Unknown_Area_Type
  10
362426.402
  20
4693613.320
  0
VERTEX
  8
Unknown_Area_Type
  10
362427.000
  20
4693613.500
  0
VERTEX
  8
Unknown_Area_Type
  10
364294.375
  20
4693240.125
  0
VERTEX
  8
Unknown_Area_Type
  10
364295.000
  20
4693240.000
  0
VERTEX
  8
Unknown_Area_Type
  10
364282.662
  20
4692900.000
  0
VERTEX
  8
Unknown_Area_Type
  10
364269.961
  20
4692550.000
  0
VERTEX
  8
Unknown_Area_Type
  10
364137.063
  20
4688887.747
  0
VERTEX
  8
Unknown_Area_Type
  10
364137.018
  20
4688886.494
  0
VERTEX
  8
Unknown_Area_Type
  10
364137.000
  20
4688886.000
  0
SEQEND
  8
Unknown_Area_Type
  0
POLYLINE
  8
Unknown_Area_Type
  70
1
  66
1
  0
VERTEX
  8
Unknown_Area_Type
  10
372684.500
  20
4688613.500
  0
VERTEX
  8
Unknown_Area_Type
  10
371380.000
  20
4688147.500
  0
VERTEX
  8
Unknown_Area_Type
  10
371378.856
  20
4688147.627
  0
VERTEX
  8
Unknown_Area_Type
  10
371377.787
  20
4688147.746
  0
VERTEX
  8
Unknown_Area_Type
  10
371375.500
  20
4688148.000
  0
VERTEX
  8
Unknown_Area_Type
  10
370361.016
  20
4688498.545
  0
VERTEX
  8
Unknown_Area_Type
  10
369778.000
  20
4688700.000
  0
VERTEX
  8
Unknown_Area_Type
  10
369872.727
  20
4692430.000
  0
VERTEX
  8
Unknown_Area_Type
  10
369881.108
  20
4692760.000
  0
VERTEX
  8
Unknown_Area_Type
  10
369891.000
  20
4693149.500
  0
VERTEX
  8
Unknown_Area_Type
  10
369891.500
  20
4693160.000
  0
VERTEX
  8
Unknown_Area_Type
  10
369976.000
  20
4693182.500
  0
VERTEX
  8
Unknown_Area_Type
  10
369978.000
  20
4693183.000
  0
VERTEX
  8
Unknown_Area_Type
  10
371187.000
  20
4693504.500
  0
VERTEX
  8
Unknown_Area_Type
  10
371210.000
  20
4693510.500
  0
VERTEX
  8
Unknown_Area_Type
  10
371211.500
  20
4693510.500
  0
VERTEX
  8
Unknown_Area_Type
  10
371213.500
  20
4693510.500
  0
VERTEX
  8
Unknown_Area_Type
  10
372690.764
  20
4693133.560
  0
VERTEX
  8
Unknown_Area_Type
  10
372691.000
  20
4693133.500
  0
VERTEX
  8
Unknown_Area_Type
  10
372690.463
  20
4692760.000
  0
VERTEX
  8
Unknown_Area_Type
  10
372689.988
  20
4692430.000
  0
VERTEX
  8
Unknown_Area_Type
  10
372684.500
  20
4688613.500
  0
SEQEND
  8
Unknown_Area_Type
  0
POLYLINE
  8
Unknown_Area_Type
  70
1
  66
1
  0
VERTEX
  8
Unknown_Area_Type
  10
355824.504
  20
4689150.323
  0
VERTEX
  8
Unknown_Area_Type
  10
354603.000
  20
4688713.000
  0
VERTEX
  8
Unknown_Area_Type
  10
354602.494
  20
4688713.177
  0
VERTEX
  8
Unknown_Area_Type
  10
354310.000
  20
4688815.239
  0
VERTEX
  8
Unknown_Area_Type
  10
354000.000
  20
4688923.409
  0
VERTEX
  8
Unknown_Area_Type
  10
353853.278
  20
4688974.606
  0
VERTEX
  8
Unknown_Area_Type
  10
353595.656
  20
4689064.500
  0
VERTEX
  8
Unknown_Area_Type
  10
353439.394
  20
4689119.026
  0
VERTEX
  8
Unknown_Area_Type
  10
353100.579
  20
4689237.251
  0
VERTEX
  8
Unknown_Area_Type
  10
353097.000
  20
4689238.500
  0
VERTEX
  8
Unknown_Area_Type
  10
353256.073
  20
4692830.000
  0
VERTEX
  8
Unknown_Area_Type
  10
353271.575
  20
4693180.000
  0
VERTEX
  8
Unknown_Area_Type
  10
353290.000
  20
4693596.000
  0
VERTEX
  8
Unknown_Area_Type
  10
353290.989
  20
4693596.356
  0
VERTEX
  8
Unknown_Area_Type
  10
353918.500
  20
4693822.500
  0
VERTEX
  8
Unknown_Area_Type
  10
353919.555
  20
4693822.340
  0
VERTEX
  8
Unknown_Area_Type
  10
354100.000
  20
4693794.880
  0
VERTEX
  8
Unknown_Area_Type
  10
354410.000
  20
4693747.707
  0
VERTEX
  8
Unknown_Area_Type
  10
356034.500
  20
4693500.500
  0
VERTEX
  8
Unknown_Area_Type
  10
356012.266
  20
4693040.000
  0
VERTEX
  8
Unknown_Area_Type
  10
355995.367
  20
4692690.000
  0
VERTEX
  8
Unknown_Area_Type
  10
355847.500
  20
4689627.500
  0
VERTEX
  8
Unknown_Area_Type
  10
355847.500
  20
4689618.000
  0
VERTEX
  8
Unknown_Area_Type
  10
355825.000
  20
4689150.500
  0
VERTEX
  8
Unknown_Area_Type
  10
355824.504
  20
4689150.323
  0
SEQEND
  8
Unknown_Area_Type
  0
ENDSEC
  0
EOF
