  0
SECTION
  2
HEADER
  9
$ACADVER
  1
AC1009
  9
$LUNITS
  70
2
  9
$LIMMIN
  10
375037.701
  20
4705976.246
  9
$LIMMAX
  10
402686.682
  20
4724920.924
  9
$EXTMIN
  10
375037.701
  20
4705976.246
  9
$EXTMAX
  10
402686.682
  20
4724920.924
  999
Created by Global Mapper
  999
Projection: UTM
  999
Datum: ETRS89
  999
Ground Units: meters
  999
ZONE: 30
  0
ENDSEC
  0
SECTION
  2
TABLES
  0
ENDSEC
  0
SECTION
  2
BLOCKS
  0
BLOCK
  8
FeatureAttribs
  70
0
  2
FEATURE
  3
FEATURE
  10
0.00000000
  20
0.00000000
  0
ATTDEF
  8
FeatureAttribs
  70
0
  1
 
  2
NAME
  3
NAME
  10
0.00000000
  20
0.00000000
  40
1.00000000
  0
ENDBLK
  0
ENDSEC
  0
SECTION
  2
ENTITIES
  0
POLYLINE
  8
Unknown_Area_Type
  70
1
  66
1
  0
VERTEX
  8
Unknown_Area_Type
  10
375328.000
  20
4721115.500
  0
VERTEX
  8
Unknown_Area_Type
  10
375301.562
  20
4721105.677
  0
VERTEX
  8
Unknown_Area_Type
  10
375301.572
  20
4721106.231
  0
VERTEX
  8
Unknown_Area_Type
  10
375328.569
  20
4722607.489
  0
VERTEX
  8
Unknown_Area_Type
  10
375368.976
  20
4724853.548
  0
VERTEX
  8
Unknown_Area_Type
  10
375368.979
  20
4724853.699
  0
VERTEX
  8
Unknown_Area_Type
  10
375479.066
  20
4724820.000
  0
VERTEX
  8
Unknown_Area_Type
  10
375480.000
  20
4724819.714
  0
VERTEX
  8
Unknown_Area_Type
  10
375514.754
  20
4724809.075
  0
VERTEX
  8
Unknown_Area_Type
  10
375515.000
  20
4724809.000
  0
VERTEX
  8
Unknown_Area_Type
  10
375509.481
  20
4724700.000
  0
VERTEX
  8
Unknown_Area_Type
  10
375480.000
  20
4724117.703
  0
VERTEX
  8
Unknown_Area_Type
  10
375328.000
  20
4721115.500
  0
SEQEND
  8
Unknown_Area_Type
  0
POLYLINE
  8
Unknown_Area_Type
  70
1
  66
1
  0
VERTEX
  8
Unknown_Area_Type
  10
397039.070
  20
4719974.728
  0
VERTEX
  8
Unknown_Area_Type
  10
397039.000
  20
4719974.500
  0
VERTEX
  8
Unknown_Area_Type
  10
396407.760
  20
4720060.000
  0
VERTEX
  8
Unknown_Area_Type
  10
395960.000
  20
4720120.648
  0
VERTEX
  8
Unknown_Area_Type
  10
395890.000
  20
4720130.129
  0
VERTEX
  8
Unknown_Area_Type
  10
395680.000
  20
4720158.573
  0
VERTEX
  8
Unknown_Area_Type
  10
395595.638
  20
4720170.000
  0
VERTEX
  8
Unknown_Area_Type
  10
395527.155
  20
4720179.276
  0
VERTEX
  8
Unknown_Area_Type
  10
395525.500
  20
4720179.500
  0
VERTEX
  8
Unknown_Area_Type
  10
395663.500
  20
4724397.000
  0
VERTEX
  8
Unknown_Area_Type
  10
395680.000
  20
4724397.054
  0
VERTEX
  8
Unknown_Area_Type
  10
395750.000
  20
4724397.286
  0
VERTEX
  8
Unknown_Area_Type
  10
395960.000
  20
4724397.981
  0
VERTEX
  8
Unknown_Area_Type
  10
397931.000
  20
4724404.500
  0
VERTEX
  8
Unknown_Area_Type
  10
398084.500
  20
4724405.000
  0
VERTEX
  8
Unknown_Area_Type
  10
398201.500
  20
4724405.000
  0
VERTEX
  8
Unknown_Area_Type
  10
398202.000
  20
4724405.000
  0
VERTEX
  8
Unknown_Area_Type
  10
398243.885
  20
4724380.000
  0
VERTEX
  8
Unknown_Area_Type
  10
398362.000
  20
4724309.500
  0
VERTEX
  8
Unknown_Area_Type
  10
398364.000
  20
4724308.000
  0
VERTEX
  8
Unknown_Area_Type
  10
398364.000
  20
4724307.799
  0
VERTEX
  8
Unknown_Area_Type
  10
398364.000
  20
4724306.500
  0
VERTEX
  8
Unknown_Area_Type
  10
397065.151
  20
4720060.000
  0
VERTEX
  8
Unknown_Area_Type
  10
397039.070
  20
4719974.728
  0
SEQEND
  8
Unknown_Area_Type
  0
POLYLINE
  8
Unknown_Area_Type
  70
1
  66
1
  0
VERTEX
  8
Unknown_Area_Type
  10
399716.377
  20
4720060.000
  0
VERTEX
  8
Unknown_Area_Type
  10
399638.500
  20
4719819.000
  0
VERTEX
  8
Unknown_Area_Type
  10
399414.494
  20
4719845.383
  0
VERTEX
  8
Unknown_Area_Type
  10
399413.500
  20
4719845.500
  0
VERTEX
  8
Unknown_Area_Type
  10
399368.971
  20
4720060.000
  0
VERTEX
  8
Unknown_Area_Type
  10
398652.000
  20
4723513.716
  0
VERTEX
  8
Unknown_Area_Type
  10
398495.000
  20
4724270.000
  0
VERTEX
  8
Unknown_Area_Type
  10
400852.000
  20
4724305.500
  0
VERTEX
  8
Unknown_Area_Type
  10
400852.023
  20
4724305.487
  0
VERTEX
  8
Unknown_Area_Type
  10
401051.500
  20
4724190.500
  0
VERTEX
  8
Unknown_Area_Type
  10
401051.364
  20
4724190.079
  0
VERTEX
  8
Unknown_Area_Type
  10
400832.021
  20
4723511.923
  0
VERTEX
  8
Unknown_Area_Type
  10
400699.500
  20
4723102.198
  0
VERTEX
  8
Unknown_Area_Type
  10
400468.500
  20
4722388.000
  0
VERTEX
  8
Unknown_Area_Type
  10
400468.000
  20
4722386.000
  0
VERTEX
  8
Unknown_Area_Type
  10
399716.377
  20
4720060.000
  0
SEQEND
  8
Unknown_Area_Type
  0
POLYLINE
  8
Unknown_Area_Type
  70
1
  66
1
  0
VERTEX
  8
Unknown_Area_Type
  10
393845.500
  20
4719289.000
  0
VERTEX
  8
Unknown_Area_Type
  10
393837.500
  20
4719285.000
  0
VERTEX
  8
Unknown_Area_Type
  10
393837.278
  20
4719285.056
  0
VERTEX
  8
Unknown_Area_Type
  10
393836.782
  20
4719285.179
  0
VERTEX
  8
Unknown_Area_Type
  10
393835.500
  20
4719285.500
  0
VERTEX
  8
Unknown_Area_Type
  10
393150.687
  20
4719850.000
  0
VERTEX
  8
Unknown_Area_Type
  10
392762.485
  20
4720170.000
  0
VERTEX
  8
Unknown_Area_Type
  10
392671.500
  20
4720245.000
  0
VERTEX
  8
Unknown_Area_Type
  10
392671.514
  20
4720245.489
  0
VERTEX
  8
Unknown_Area_Type
  10
392709.735
  20
4721616.148
  0
VERTEX
  8
Unknown_Area_Type
  10
392789.594
  20
4724480.000
  0
VERTEX
  8
Unknown_Area_Type
  10
392790.500
  20
4724512.500
  0
VERTEX
  8
Unknown_Area_Type
  10
392791.000
  20
4724516.000
  0
VERTEX
  8
Unknown_Area_Type
  10
392791.059
  20
4724516.040
  0
VERTEX
  8
Unknown_Area_Type
  10
392794.000
  20
4724518.000
  0
VERTEX
  8
Unknown_Area_Type
  10
392886.000
  20
4724565.500
  0
VERTEX
  8
Unknown_Area_Type
  10
392887.000
  20
4724566.000
  0
VERTEX
  8
Unknown_Area_Type
  10
392887.937
  20
4724565.967
  0
VERTEX
  8
Unknown_Area_Type
  10
395355.432
  20
4724480.000
  0
VERTEX
  8
Unknown_Area_Type
  10
395542.000
  20
4724473.500
  0
VERTEX
  8
Unknown_Area_Type
  10
395542.026
  20
4724473.484
  0
VERTEX
  8
Unknown_Area_Type
  10
395663.498
  20
4724397.002
  0
VERTEX
  8
Unknown_Area_Type
  10
395663.500
  20
4724397.000
  0
VERTEX
  8
Unknown_Area_Type
  10
395525.500
  20
4720179.500
  0
VERTEX
  8
Unknown_Area_Type
  10
395524.124
  20
4720178.771
  0
VERTEX
  8
Unknown_Area_Type
  10
395507.578
  20
4720170.000
  0
VERTEX
  8
Unknown_Area_Type
  10
394903.872
  20
4719850.000
  0
VERTEX
  8
Unknown_Area_Type
  10
393845.500
  20
4719289.000
  0
SEQEND
  8
Unknown_Area_Type
  0
POLYLINE
  8
Unknown_Area_Type
  70
1
  66
1
  0
VERTEX
  8
Unknown_Area_Type
  10
387195.000
  20
4720389.500
  0
VERTEX
  8
Unknown_Area_Type
  10
387180.000
  20
4720389.500
  0
VERTEX
  8
Unknown_Area_Type
  10
387179.987
  20
4720389.508
  0
VERTEX
  8
Unknown_Area_Type
  10
387177.500
  20
4720391.000
  0
VERTEX
  8
Unknown_Area_Type
  10
386955.000
  20
4720552.000
  0
VERTEX
  8
Unknown_Area_Type
  10
386954.997
  20
4720552.500
  0
VERTEX
  8
Unknown_Area_Type
  10
386942.179
  20
4722576.433
  0
VERTEX
  8
Unknown_Area_Type
  10
386929.503
  20
4724578.001
  0
VERTEX
  8
Unknown_Area_Type
  10
386929.500
  20
4724578.500
  0
VERTEX
  8
Unknown_Area_Type
  10
386933.011
  20
4724580.000
  0
VERTEX
  8
Unknown_Area_Type
  10
387254.790
  20
4724717.487
  0
VERTEX
  8
Unknown_Area_Type
  10
387255.569
  20
4724717.475
  0
VERTEX
  8
Unknown_Area_Type
  10
388853.799
  20
4724691.475
  0
VERTEX
  8
Unknown_Area_Type
  10
388857.075
  20
4724691.422
  0
VERTEX
  8
Unknown_Area_Type
  10
388920.000
  20
4724684.484
  0
VERTEX
  8
Unknown_Area_Type
  10
389130.000
  20
4724661.327
  0
VERTEX
  8
Unknown_Area_Type
  10
389210.000
  20
4724652.505
  0
VERTEX
  8
Unknown_Area_Type
  10
389863.000
  20
4724580.500
  0
VERTEX
  8
Unknown_Area_Type
  10
389862.758
  20
4724480.000
  0
VERTEX
  8
Unknown_Area_Type
  10
389853.000
  20
4720434.500
  0
VERTEX
  8
Unknown_Area_Type
  10
389130.000
  20
4720422.260
  0
VERTEX
  8
Unknown_Area_Type
  10
388850.000
  20
4720417.519
  0
VERTEX
  8
Unknown_Area_Type
  10
387195.000
  20
4720389.500
  0
SEQEND
  8
Unknown_Area_Type
  0
POLYLINE
  8
Unknown_Area_Type
  70
1
  66
1
  0
VERTEX
  8
Unknown_Area_Type
  10
382020.000
  20
4720355.887
  0
VERTEX
  8
Unknown_Area_Type
  10
381834.000
  20
4720329.000
  0
VERTEX
  8
Unknown_Area_Type
  10
381833.975
  20
4720329.015
  0
VERTEX
  8
Unknown_Area_Type
  10
381715.690
  20
4720400.000
  0
VERTEX
  8
Unknown_Area_Type
  10
380992.777
  20
4720833.834
  0
VERTEX
  8
Unknown_Area_Type
  10
380992.500
  20
4720834.000
  0
VERTEX
  8
Unknown_Area_Type
  10
381167.500
  20
4724651.000
  0
VERTEX
  8
Unknown_Area_Type
  10
381167.967
  20
4724651.148
  0
VERTEX
  8
Unknown_Area_Type
  10
381322.214
  20
4724700.000
  0
VERTEX
  8
Unknown_Area_Type
  10
381671.186
  20
4724810.524
  0
VERTEX
  8
Unknown_Area_Type
  10
381672.504
  20
4724810.501
  0
VERTEX
  8
Unknown_Area_Type
  10
382199.341
  20
4724801.411
  0
VERTEX
  8
Unknown_Area_Type
  10
383274.128
  20
4724783.397
  0
VERTEX
  8
Unknown_Area_Type
  10
383276.789
  20
4724783.352
  0
VERTEX
  8
Unknown_Area_Type
  10
384027.000
  20
4724627.500
  0
VERTEX
  8
Unknown_Area_Type
  10
384026.994
  20
4724627.001
  0
VERTEX
  8
Unknown_Area_Type
  10
384026.465
  20
4724580.000
  0
VERTEX
  8
Unknown_Area_Type
  10
384002.000
  20
4722409.500
  0
VERTEX
  8
Unknown_Area_Type
  10
384002.000
  20
4722392.467
  0
VERTEX
  8
Unknown_Area_Type
  10
384002.000
  20
4722386.000
  0
VERTEX
  8
Unknown_Area_Type
  10
383982.000
  20
4720639.500
  0
VERTEX
  8
Unknown_Area_Type
  10
382300.000
  20
4720396.362
  0
VERTEX
  8
Unknown_Area_Type
  10
382230.000
  20
4720386.243
  0
VERTEX
  8
Unknown_Area_Type
  10
382020.000
  20
4720355.887
  0
SEQEND
  8
Unknown_Area_Type
  0
POLYLINE
  8
Unknown_Area_Type
  70
1
  66
1
  0
VERTEX
  8
Unknown_Area_Type
  10
379184.684
  20
4720418.157
  0
VERTEX
  8
Unknown_Area_Type
  10
379184.000
  20
4720418.000
  0
VERTEX
  8
Unknown_Area_Type
  10
378656.500
  20
4720681.500
  0
VERTEX
  8
Unknown_Area_Type
  10
378129.000
  20
4720945.000
  0
VERTEX
  8
Unknown_Area_Type
  10
378318.865
  20
4724700.000
  0
VERTEX
  8
Unknown_Area_Type
  10
378322.000
  20
4724762.000
  0
VERTEX
  8
Unknown_Area_Type
  10
378322.697
  20
4724762.206
  0
VERTEX
  8
Unknown_Area_Type
  10
378662.534
  20
4724862.495
  0
VERTEX
  8
Unknown_Area_Type
  10
378663.744
  20
4724862.473
  0
VERTEX
  8
Unknown_Area_Type
  10
378784.767
  20
4724860.326
  0
VERTEX
  8
Unknown_Area_Type
  10
380521.865
  20
4724830.354
  0
VERTEX
  8
Unknown_Area_Type
  10
380991.111
  20
4724700.000
  0
VERTEX
  8
Unknown_Area_Type
  10
381167.500
  20
4724651.000
  0
VERTEX
  8
Unknown_Area_Type
  10
381063.500
  20
4722387.500
  0
VERTEX
  8
Unknown_Area_Type
  10
381063.500
  20
4722386.000
  0
VERTEX
  8
Unknown_Area_Type
  10
380992.500
  20
4720834.000
  0
VERTEX
  8
Unknown_Area_Type
  10
380529.294
  20
4720727.451
  0
VERTEX
  8
Unknown_Area_Type
  10
379772.007
  20
4720553.256
  0
VERTEX
  8
Unknown_Area_Type
  10
379184.684
  20
4720418.157
  0
SEQEND
  8
Unknown_Area_Type
  0
POLYLINE
  8
Unknown_Area_Type
  70
1
  66
1
  0
VERTEX
  8
Unknown_Area_Type
  10
384441.885
  20
4720339.075
  0
VERTEX
  8
Unknown_Area_Type
  10
384441.000
  20
4720339.000
  0
VERTEX
  8
Unknown_Area_Type
  10
383982.000
  20
4720639.500
  0
VERTEX
  8
Unknown_Area_Type
  10
384002.000
  20
4722392.467
  0
VERTEX
  8
Unknown_Area_Type
  10
384026.958
  20
4724580.000
  0
VERTEX
  8
Unknown_Area_Type
  10
384027.496
  20
4724627.182
  0
VERTEX
  8
Unknown_Area_Type
  10
384027.500
  20
4724627.500
  0
VERTEX
  8
Unknown_Area_Type
  10
384314.000
  20
4724732.500
  0
VERTEX
  8
Unknown_Area_Type
  10
384315.500
  20
4724733.000
  0
VERTEX
  8
Unknown_Area_Type
  10
384401.314
  20
4724764.504
  0
VERTEX
  8
Unknown_Area_Type
  10
384401.768
  20
4724764.497
  0
VERTEX
  8
Unknown_Area_Type
  10
385613.910
  20
4724744.180
  0
VERTEX
  8
Unknown_Area_Type
  10
386005.367
  20
4724737.812
  0
VERTEX
  8
Unknown_Area_Type
  10
386006.796
  20
4724737.789
  0
VERTEX
  8
Unknown_Area_Type
  10
386917.951
  20
4724580.000
  0
VERTEX
  8
Unknown_Area_Type
  10
386929.500
  20
4724578.000
  0
VERTEX
  8
Unknown_Area_Type
  10
386942.179
  20
4722576.433
  0
VERTEX
  8
Unknown_Area_Type
  10
386955.000
  20
4720552.500
  0
VERTEX
  8
Unknown_Area_Type
  10
386954.997
  20
4720552.500
  0
VERTEX
  8
Unknown_Area_Type
  10
385216.774
  20
4720404.882
  0
VERTEX
  8
Unknown_Area_Type
  10
384441.885
  20
4720339.075
  0
SEQEND
  8
Unknown_Area_Type
  0
POLYLINE
  8
Unknown_Area_Type
  70
1
  66
1
  0
VERTEX
  8
Unknown_Area_Type
  10
378128.345
  20
4720944.828
  0
VERTEX
  8
Unknown_Area_Type
  10
376664.500
  20
4720561.000
  0
VERTEX
  8
Unknown_Area_Type
  10
376663.400
  20
4720561.236
  0
VERTEX
  8
Unknown_Area_Type
  10
376660.374
  20
4720561.884
  0
VERTEX
  8
Unknown_Area_Type
  10
376657.500
  20
4720562.500
  0
VERTEX
  8
Unknown_Area_Type
  10
375480.000
  20
4721052.276
  0
VERTEX
  8
Unknown_Area_Type
  10
375328.000
  20
4721115.500
  0
VERTEX
  8
Unknown_Area_Type
  10
375480.000
  20
4724117.703
  0
VERTEX
  8
Unknown_Area_Type
  10
375509.481
  20
4724700.000
  0
VERTEX
  8
Unknown_Area_Type
  10
375515.000
  20
4724809.000
  0
VERTEX
  8
Unknown_Area_Type
  10
375551.931
  20
4724820.000
  0
VERTEX
  8
Unknown_Area_Type
  10
375560.000
  20
4724822.404
  0
VERTEX
  8
Unknown_Area_Type
  10
375712.219
  20
4724867.743
  0
VERTEX
  8
Unknown_Area_Type
  10
375861.495
  20
4724912.205
  0
VERTEX
  8
Unknown_Area_Type
  10
375861.852
  20
4724912.199
  0
VERTEX
  8
Unknown_Area_Type
  10
377890.932
  20
4724876.189
  0
VERTEX
  8
Unknown_Area_Type
  10
377892.821
  20
4724876.155
  0
VERTEX
  8
Unknown_Area_Type
  10
378319.079
  20
4724762.777
  0
VERTEX
  8
Unknown_Area_Type
  10
378322.000
  20
4724762.000
  0
VERTEX
  8
Unknown_Area_Type
  10
378318.865
  20
4724700.000
  0
VERTEX
  8
Unknown_Area_Type
  10
378129.000
  20
4720945.000
  0
VERTEX
  8
Unknown_Area_Type
  10
378128.345
  20
4720944.828
  0
SEQEND
  8
Unknown_Area_Type
  0
POLYLINE
  8
Unknown_Area_Type
  70
1
  66
1
  0
VERTEX
  8
Unknown_Area_Type
  10
392671.500
  20
4720245.500
  0
VERTEX
  8
Unknown_Area_Type
  10
392665.000
  20
4720245.500
  0
VERTEX
  8
Unknown_Area_Type
  10
390458.616
  20
4720385.500
  0
VERTEX
  8
Unknown_Area_Type
  10
390450.055
  20
4720386.043
  0
VERTEX
  8
Unknown_Area_Type
  10
389875.500
  20
4720422.500
  0
VERTEX
  8
Unknown_Area_Type
  10
389871.500
  20
4720423.000
  0
VERTEX
  8
Unknown_Area_Type
  10
389868.494
  20
4720423.376
  0
VERTEX
  8
Unknown_Area_Type
  10
389867.500
  20
4720423.500
  0
VERTEX
  8
Unknown_Area_Type
  10
389853.000
  20
4720434.500
  0
VERTEX
  8
Unknown_Area_Type
  10
389862.758
  20
4724480.000
  0
VERTEX
  8
Unknown_Area_Type
  10
389863.000
  20
4724580.500
  0
VERTEX
  8
Unknown_Area_Type
  10
390054.963
  20
4724672.442
  0
VERTEX
  8
Unknown_Area_Type
  10
390055.837
  20
4724672.428
  0
VERTEX
  8
Unknown_Area_Type
  10
391260.539
  20
4724653.424
  0
VERTEX
  8
Unknown_Area_Type
  10
391261.373
  20
4724653.411
  0
VERTEX
  8
Unknown_Area_Type
  10
392146.750
  20
4724573.875
  0
VERTEX
  8
Unknown_Area_Type
  10
392791.000
  20
4724516.000
  0
VERTEX
  8
Unknown_Area_Type
  10
392789.991
  20
4724480.000
  0
VERTEX
  8
Unknown_Area_Type
  10
392709.735
  20
4721616.148
  0
VERTEX
  8
Unknown_Area_Type
  10
392674.000
  20
4720341.000
  0
VERTEX
  8
Unknown_Area_Type
  10
392674.000
  20
4720338.000
  0
VERTEX
  8
Unknown_Area_Type
  10
392671.500
  20
4720245.500
  0
SEQEND
  8
Unknown_Area_Type
  0
POLYLINE
  8
Unknown_Area_Type
  70
1
  66
1
  0
VERTEX
  8
Unknown_Area_Type
  10
378663.744
  20
4724862.473
  0
VERTEX
  8
Unknown_Area_Type
  10
378324.000
  20
4724762.000
  0
VERTEX
  8
Unknown_Area_Type
  10
378322.697
  20
4724762.206
  0
VERTEX
  8
Unknown_Area_Type
  10
378319.079
  20
4724762.777
  0
VERTEX
  8
Unknown_Area_Type
  10
378314.500
  20
4724763.500
  0
VERTEX
  8
Unknown_Area_Type
  10
377890.932
  20
4724876.189
  0
VERTEX
  8
Unknown_Area_Type
  10
377892.821
  20
4724876.155
  0
VERTEX
  8
Unknown_Area_Type
  10
378662.534
  20
4724862.495
  0
VERTEX
  8
Unknown_Area_Type
  10
378663.744
  20
4724862.473
  0
SEQEND
  8
Unknown_Area_Type
  0
POLYLINE
  8
Unknown_Area_Type
  70
1
  66
1
  0
VERTEX
  8
Unknown_Area_Type
  10
375514.754
  20
4724809.075
  0
VERTEX
  8
Unknown_Area_Type
  10
375514.500
  20
4724809.000
  0
VERTEX
  8
Unknown_Area_Type
  10
375480.000
  20
4724819.561
  0
VERTEX
  8
Unknown_Area_Type
  10
375478.567
  20
4724820.000
  0
VERTEX
  8
Unknown_Area_Type
  10
375368.976
  20
4724853.548
  0
VERTEX
  8
Unknown_Area_Type
  10
375368.979
  20
4724853.699
  0
VERTEX
  8
Unknown_Area_Type
  10
375370.188
  20
4724920.924
  0
VERTEX
  8
Unknown_Area_Type
  10
375861.495
  20
4724912.205
  0
VERTEX
  8
Unknown_Area_Type
  10
375861.852
  20
4724912.199
  0
VERTEX
  8
Unknown_Area_Type
  10
375712.219
  20
4724867.743
  0
VERTEX
  8
Unknown_Area_Type
  10
375560.000
  20
4724822.518
  0
VERTEX
  8
Unknown_Area_Type
  10
375551.524
  20
4724820.000
  0
VERTEX
  8
Unknown_Area_Type
  10
375514.754
  20
4724809.075
  0
SEQEND
  8
Unknown_Area_Type
  0
POLYLINE
  8
Unknown_Area_Type
  70
1
  66
1
  0
VERTEX
  8
Unknown_Area_Type
  10
381323.334
  20
4724700.000
  0
VERTEX
  8
Unknown_Area_Type
  10
381168.500
  20
4724651.000
  0
VERTEX
  8
Unknown_Area_Type
  10
381167.967
  20
4724651.148
  0
VERTEX
  8
Unknown_Area_Type
  10
380991.951
  20
4724700.000
  0
VERTEX
  8
Unknown_Area_Type
  10
380522.309
  20
4724830.346
  0
VERTEX
  8
Unknown_Area_Type
  10
381671.186
  20
4724810.524
  0
VERTEX
  8
Unknown_Area_Type
  10
381672.504
  20
4724810.501
  0
VERTEX
  8
Unknown_Area_Type
  10
381323.334
  20
4724700.000
  0
SEQEND
  8
Unknown_Area_Type
  0
POLYLINE
  8
Unknown_Area_Type
  70
1
  66
1
  0
VERTEX
  8
Unknown_Area_Type
  10
386929.503
  20
4724578.001
  0
VERTEX
  8
Unknown_Area_Type
  10
386929.500
  20
4724578.000
  0
VERTEX
  8
Unknown_Area_Type
  10
386917.935
  20
4724580.000
  0
VERTEX
  8
Unknown_Area_Type
  10
386005.367
  20
4724737.812
  0
VERTEX
  8
Unknown_Area_Type
  10
386006.796
  20
4724737.789
  0
VERTEX
  8
Unknown_Area_Type
  10
387254.790
  20
4724717.487
  0
VERTEX
  8
Unknown_Area_Type
  10
387255.569
  20
4724717.475
  0
VERTEX
  8
Unknown_Area_Type
  10
386934.176
  20
4724580.000
  0
VERTEX
  8
Unknown_Area_Type
  10
386929.503
  20
4724578.001
  0
SEQEND
  8
Unknown_Area_Type
  0
POLYLINE
  8
Unknown_Area_Type
  70
1
  66
1
  0
VERTEX
  8
Unknown_Area_Type
  10
384027.496
  20
4724627.182
  0
VERTEX
  8
Unknown_Area_Type
  10
384027.000
  20
4724627.000
  0
VERTEX
  8
Unknown_Area_Type
  10
384026.994
  20
4724627.001
  0
VERTEX
  8
Unknown_Area_Type
  10
383274.128
  20
4724783.397
  0
VERTEX
  8
Unknown_Area_Type
  10
383276.789
  20
4724783.352
  0
VERTEX
  8
Unknown_Area_Type
  10
384401.314
  20
4724764.504
  0
VERTEX
  8
Unknown_Area_Type
  10
384401.768
  20
4724764.497
  0
VERTEX
  8
Unknown_Area_Type
  10
384027.496
  20
4724627.182
  0
SEQEND
  8
Unknown_Area_Type
  0
POLYLINE
  8
Unknown_Area_Type
  70
1
  66
1
  0
VERTEX
  8
Unknown_Area_Type
  10
395542.346
  20
4724480.000
  0
VERTEX
  8
Unknown_Area_Type
  10
395542.000
  20
4724473.500
  0
VERTEX
  8
Unknown_Area_Type
  10
395355.503
  20
4724480.000
  0
VERTEX
  8
Unknown_Area_Type
  10
392888.000
  20
4724566.000
  0
VERTEX
  8
Unknown_Area_Type
  10
392891.468
  20
4724627.919
  0
VERTEX
  8
Unknown_Area_Type
  10
392891.473
  20
4724627.918
  0
VERTEX
  8
Unknown_Area_Type
  10
395548.052
  20
4724587.323
  0
VERTEX
  8
Unknown_Area_Type
  10
395542.346
  20
4724480.000
  0
SEQEND
  8
Unknown_Area_Type
  0
POLYLINE
  8
Unknown_Area_Type
  70
1
  66
1
  0
VERTEX
  8
Unknown_Area_Type
  10
389863.000
  20
4724580.500
  0
VERTEX
  8
Unknown_Area_Type
  10
389859.500
  20
4724580.500
  0
VERTEX
  8
Unknown_Area_Type
  10
389210.000
  20
4724652.170
  0
VERTEX
  8
Unknown_Area_Type
  10
389130.000
  20
4724660.998
  0
VERTEX
  8
Unknown_Area_Type
  10
388920.000
  20
4724684.170
  0
VERTEX
  8
Unknown_Area_Type
  10
388853.799
  20
4724691.475
  0
VERTEX
  8
Unknown_Area_Type
  10
388857.075
  20
4724691.422
  0
VERTEX
  8
Unknown_Area_Type
  10
389028.474
  20
4724688.634
  0
VERTEX
  8
Unknown_Area_Type
  10
390054.963
  20
4724672.442
  0
VERTEX
  8
Unknown_Area_Type
  10
390055.837
  20
4724672.428
  0
VERTEX
  8
Unknown_Area_Type
  10
389864.000
  20
4724580.500
  0
VERTEX
  8
Unknown_Area_Type
  10
389863.000
  20
4724580.500
  0
SEQEND
  8
Unknown_Area_Type
  0
POLYLINE
  8
Unknown_Area_Type
  70
1
  66
1
  0
VERTEX
  8
Unknown_Area_Type
  10
395663.498
  20
4724397.002
  0
VERTEX
  8
Unknown_Area_Type
  10
395663.000
  20
4724397.000
  0
VERTEX
  8
Unknown_Area_Type
  10
395542.000
  20
4724473.000
  0
VERTEX
  8
Unknown_Area_Type
  10
395542.026
  20
4724473.484
  0
VERTEX
  8
Unknown_Area_Type
  10
395542.372
  20
4724480.000
  0
VERTEX
  8
Unknown_Area_Type
  10
395548.078
  20
4724587.322
  0
VERTEX
  8
Unknown_Area_Type
  10
395857.587
  20
4724582.592
  0
VERTEX
  8
Unknown_Area_Type
  10
398209.416
  20
4724547.813
  0
VERTEX
  8
Unknown_Area_Type
  10
398201.500
  20
4724405.000
  0
VERTEX
  8
Unknown_Area_Type
  10
395960.000
  20
4724397.936
  0
VERTEX
  8
Unknown_Area_Type
  10
395750.000
  20
4724397.274
  0
VERTEX
  8
Unknown_Area_Type
  10
395680.000
  20
4724397.054
  0
VERTEX
  8
Unknown_Area_Type
  10
395663.498
  20
4724397.002
  0
SEQEND
  8
Unknown_Area_Type
  0
POLYLINE
  8
Unknown_Area_Type
  70
1
  66
1
  0
VERTEX
  8
Unknown_Area_Type
  10
392887.937
  20
4724565.967
  0
VERTEX
  8
Unknown_Area_Type
  10
392791.500
  20
4724516.000
  0
VERTEX
  8
Unknown_Area_Type
  10
392791.059
  20
4724516.040
  0
VERTEX
  8
Unknown_Area_Type
  10
392146.750
  20
4724573.875
  0
VERTEX
  8
Unknown_Area_Type
  10
391260.539
  20
4724653.424
  0
VERTEX
  8
Unknown_Area_Type
  10
391261.373
  20
4724653.411
  0
VERTEX
  8
Unknown_Area_Type
  10
392443.033
  20
4724634.771
  0
VERTEX
  8
Unknown_Area_Type
  10
392891.468
  20
4724627.919
  0
VERTEX
  8
Unknown_Area_Type
  10
392891.473
  20
4724627.918
  0
VERTEX
  8
Unknown_Area_Type
  10
392888.000
  20
4724566.000
  0
VERTEX
  8
Unknown_Area_Type
  10
392887.937
  20
4724565.967
  0
SEQEND
  8
Unknown_Area_Type
  0
POLYLINE
  8
Unknown_Area_Type
  70
1
  66
1
  0
VERTEX
  8
Unknown_Area_Type
  10
398495.000
  20
4724270.000
  0
VERTEX
  8
Unknown_Area_Type
  10
398494.000
  20
4724270.000
  0
VERTEX
  8
Unknown_Area_Type
  10
398364.500
  20
4724307.500
  0
VERTEX
  8
Unknown_Area_Type
  10
398364.000
  20
4724307.799
  0
VERTEX
  8
Unknown_Area_Type
  10
398363.948
  20
4724307.830
  0
VERTEX
  8
Unknown_Area_Type
  10
398243.295
  20
4724380.000
  0
VERTEX
  8
Unknown_Area_Type
  10
398201.500
  20
4724405.000
  0
VERTEX
  8
Unknown_Area_Type
  10
398209.416
  20
4724547.813
  0
VERTEX
  8
Unknown_Area_Type
  10
399272.137
  20
4724532.097
  0
VERTEX
  8
Unknown_Area_Type
  10
400861.599
  20
4724509.376
  0
VERTEX
  8
Unknown_Area_Type
  10
400855.508
  20
4724380.000
  0
VERTEX
  8
Unknown_Area_Type
  10
400852.000
  20
4724305.500
  0
VERTEX
  8
Unknown_Area_Type
  10
398513.000
  20
4724270.000
  0
VERTEX
  8
Unknown_Area_Type
  10
398495.000
  20
4724270.000
  0
SEQEND
  8
Unknown_Area_Type
  0
POLYLINE
  8
Unknown_Area_Type
  70
1
  66
1
  0
VERTEX
  8
Unknown_Area_Type
  10
381003.054
  20
4706520.000
  0
VERTEX
  8
Unknown_Area_Type
  10
380998.629
  20
4706309.458
  0
VERTEX
  8
Unknown_Area_Type
  10
378461.394
  20
4706353.097
  0
VERTEX
  8
Unknown_Area_Type
  10
378411.946
  20
4706353.971
  0
VERTEX
  8
Unknown_Area_Type
  10
378411.677
  20
4706353.976
  0
VERTEX
  8
Unknown_Area_Type
  10
378416.720
  20
4706520.000
  0
VERTEX
  8
Unknown_Area_Type
  10
378426.000
  20
4706825.500
  0
VERTEX
  8
Unknown_Area_Type
  10
378426.573
  20
4706834.481
  0
VERTEX
  8
Unknown_Area_Type
  10
378427.468
  20
4706848.500
  0
VERTEX
  8
Unknown_Area_Type
  10
378427.500
  20
4706849.000
  0
VERTEX
  8
Unknown_Area_Type
  10
378455.623
  20
4706862.688
  0
VERTEX
  8
Unknown_Area_Type
  10
378483.493
  20
4706876.253
  0
VERTEX
  8
Unknown_Area_Type
  10
378484.000
  20
4706876.500
  0
VERTEX
  8
Unknown_Area_Type
  10
380828.113
  20
4706697.613
  0
VERTEX
  8
Unknown_Area_Type
  10
381006.500
  20
4706684.000
  0
VERTEX
  8
Unknown_Area_Type
  10
381003.054
  20
4706520.000
  0
SEQEND
  8
Unknown_Area_Type
  0
POLYLINE
  8
Unknown_Area_Type
  70
1
  66
1
  0
VERTEX
  8
Unknown_Area_Type
  10
375772.584
  20
4706520.000
  0
VERTEX
  8
Unknown_Area_Type
  10
375768.858
  20
4706400.730
  0
VERTEX
  8
Unknown_Area_Type
  10
375037.701
  20
4706413.665
  0
VERTEX
  8
Unknown_Area_Type
  10
375048.398
  20
4707009.961
  0
VERTEX
  8
Unknown_Area_Type
  10
375230.000
  20
4707007.059
  0
VERTEX
  8
Unknown_Area_Type
  10
375703.000
  20
4706999.500
  0
VERTEX
  8
Unknown_Area_Type
  10
375785.562
  20
4706949.764
  0
VERTEX
  8
Unknown_Area_Type
  10
375786.000
  20
4706949.500
  0
VERTEX
  8
Unknown_Area_Type
  10
375772.584
  20
4706520.000
  0
SEQEND
  8
Unknown_Area_Type
  0
POLYLINE
  8
Unknown_Area_Type
  70
1
  66
1
  0
VERTEX
  8
Unknown_Area_Type
  10
383708.520
  20
4706400.000
  0
VERTEX
  8
Unknown_Area_Type
  10
383700.654
  20
4706263.877
  0
VERTEX
  8
Unknown_Area_Type
  10
383700.209
  20
4706263.885
  0
VERTEX
  8
Unknown_Area_Type
  10
381885.081
  20
4706294.211
  0
VERTEX
  8
Unknown_Area_Type
  10
380998.651
  20
4706309.457
  0
VERTEX
  8
Unknown_Area_Type
  10
381003.063
  20
4706520.000
  0
VERTEX
  8
Unknown_Area_Type
  10
381006.500
  20
4706684.000
  0
VERTEX
  8
Unknown_Area_Type
  10
381006.570
  20
4706684.033
  0
VERTEX
  8
Unknown_Area_Type
  10
381274.500
  20
4706809.000
  0
VERTEX
  8
Unknown_Area_Type
  10
381275.500
  20
4706809.500
  0
VERTEX
  8
Unknown_Area_Type
  10
381276.288
  20
4706809.401
  0
VERTEX
  8
Unknown_Area_Type
  10
381780.000
  20
4706746.205
  0
VERTEX
  8
Unknown_Area_Type
  10
382070.000
  20
4706709.821
  0
VERTEX
  8
Unknown_Area_Type
  10
383714.500
  20
4706503.500
  0
VERTEX
  8
Unknown_Area_Type
  10
383714.484
  20
4706503.216
  0
VERTEX
  8
Unknown_Area_Type
  10
383708.520
  20
4706400.000
  0
SEQEND
  8
Unknown_Area_Type
  0
POLYLINE
  8
Unknown_Area_Type
  70
1
  66
1
  0
VERTEX
  8
Unknown_Area_Type
  10
386273.000
  20
4706351.000
  0
VERTEX
  8
Unknown_Area_Type
  10
386269.668
  20
4706221.427
  0
VERTEX
  8
Unknown_Area_Type
  10
385308.763
  20
4706237.009
  0
VERTEX
  8
Unknown_Area_Type
  10
383700.654
  20
4706263.877
  0
VERTEX
  8
Unknown_Area_Type
  10
383700.209
  20
4706263.885
  0
VERTEX
  8
Unknown_Area_Type
  10
383708.059
  20
4706400.000
  0
VERTEX
  8
Unknown_Area_Type
  10
383714.000
  20
4706503.000
  0
VERTEX
  8
Unknown_Area_Type
  10
383714.484
  20
4706503.216
  0
VERTEX
  8
Unknown_Area_Type
  10
383827.109
  20
4706553.503
  0
VERTEX
  8
Unknown_Area_Type
  10
383985.000
  20
4706624.000
  0
VERTEX
  8
Unknown_Area_Type
  10
383986.500
  20
4706624.500
  0
VERTEX
  8
Unknown_Area_Type
  10
383986.894
  20
4706624.453
  0
VERTEX
  8
Unknown_Area_Type
  10
385863.353
  20
4706400.000
  0
VERTEX
  8
Unknown_Area_Type
  10
386273.000
  20
4706351.000
  0
SEQEND
  8
Unknown_Area_Type
  0
POLYLINE
  8
Unknown_Area_Type
  70
1
  66
1
  0
VERTEX
  8
Unknown_Area_Type
  10
378417.000
  20
4706520.000
  0
VERTEX
  8
Unknown_Area_Type
  10
378411.946
  20
4706353.971
  0
VERTEX
  8
Unknown_Area_Type
  10
378411.677
  20
4706353.976
  0
VERTEX
  8
Unknown_Area_Type
  10
375769.135
  20
4706400.725
  0
VERTEX
  8
Unknown_Area_Type
  10
375772.868
  20
4706520.000
  0
VERTEX
  8
Unknown_Area_Type
  10
375786.000
  20
4706939.500
  0
VERTEX
  8
Unknown_Area_Type
  10
375786.000
  20
4706949.500
  0
VERTEX
  8
Unknown_Area_Type
  10
375786.906
  20
4706949.465
  0
VERTEX
  8
Unknown_Area_Type
  10
378427.000
  20
4706848.500
  0
VERTEX
  8
Unknown_Area_Type
  10
378426.573
  20
4706834.481
  0
VERTEX
  8
Unknown_Area_Type
  10
378417.000
  20
4706520.000
  0
SEQEND
  8
Unknown_Area_Type
  0
POLYLINE
  8
Unknown_Area_Type
  70
1
  66
1
  0
VERTEX
  8
Unknown_Area_Type
  10
390467.631
  20
4706290.000
  0
VERTEX
  8
Unknown_Area_Type
  10
391182.383
  20
4706142.966
  0
VERTEX
  8
Unknown_Area_Type
  10
388885.162
  20
4706179.089
  0
VERTEX
  8
Unknown_Area_Type
  10
388885.500
  20
4706204.500
  0
VERTEX
  8
Unknown_Area_Type
  10
388885.638
  20
4706204.560
  0
VERTEX
  8
Unknown_Area_Type
  10
388910.000
  20
4706215.153
  0
VERTEX
  8
Unknown_Area_Type
  10
389082.135
  20
4706290.000
  0
VERTEX
  8
Unknown_Area_Type
  10
389526.000
  20
4706483.000
  0
VERTEX
  8
Unknown_Area_Type
  10
389527.000
  20
4706483.500
  0
VERTEX
  8
Unknown_Area_Type
  10
389527.709
  20
4706483.354
  0
VERTEX
  8
Unknown_Area_Type
  10
390467.631
  20
4706290.000
  0
SEQEND
  8
Unknown_Area_Type
  0
POLYLINE
  8
Unknown_Area_Type
  70
1
  66
1
  0
VERTEX
  8
Unknown_Area_Type
  10
392525.645
  20
4706290.000
  0
VERTEX
  8
Unknown_Area_Type
  10
393261.379
  20
4706110.818
  0
VERTEX
  8
Unknown_Area_Type
  10
393259.517
  20
4706110.847
  0
VERTEX
  8
Unknown_Area_Type
  10
392156.111
  20
4706127.655
  0
VERTEX
  8
Unknown_Area_Type
  10
391806.816
  20
4706133.147
  0
VERTEX
  8
Unknown_Area_Type
  10
391805.609
  20
4706133.166
  0
VERTEX
  8
Unknown_Area_Type
  10
392200.608
  20
4706290.000
  0
VERTEX
  8
Unknown_Area_Type
  10
392321.500
  20
4706338.000
  0
VERTEX
  8
Unknown_Area_Type
  10
392322.500
  20
4706338.500
  0
VERTEX
  8
Unknown_Area_Type
  10
392324.000
  20
4706338.500
  0
VERTEX
  8
Unknown_Area_Type
  10
392326.500
  20
4706338.500
  0
VERTEX
  8
Unknown_Area_Type
  10
392525.645
  20
4706290.000
  0
SEQEND
  8
Unknown_Area_Type
  0
POLYLINE
  8
Unknown_Area_Type
  70
1
  66
1
  0
VERTEX
  8
Unknown_Area_Type
  10
398014.673
  20
4706180.000
  0
VERTEX
  8
Unknown_Area_Type
  10
398484.465
  20
4706032.683
  0
VERTEX
  8
Unknown_Area_Type
  10
397592.064
  20
4706045.838
  0
VERTEX
  8
Unknown_Area_Type
  10
397590.865
  20
4706045.856
  0
VERTEX
  8
Unknown_Area_Type
  10
397947.432
  20
4706180.000
  0
VERTEX
  8
Unknown_Area_Type
  10
397977.714
  20
4706191.392
  0
VERTEX
  8
Unknown_Area_Type
  10
397978.000
  20
4706191.500
  0
VERTEX
  8
Unknown_Area_Type
  10
398014.673
  20
4706180.000
  0
SEQEND
  8
Unknown_Area_Type
  0
POLYLINE
  8
Unknown_Area_Type
  70
1
  66
1
  0
VERTEX
  8
Unknown_Area_Type
  10
395750.000
  20
4706096.684
  0
VERTEX
  8
Unknown_Area_Type
  10
395841.421
  20
4706071.645
  0
VERTEX
  8
Unknown_Area_Type
  10
395579.778
  20
4706075.502
  0
VERTEX
  8
Unknown_Area_Type
  10
394717.698
  20
4706088.634
  0
VERTEX
  8
Unknown_Area_Type
  10
394716.366
  20
4706088.655
  0
VERTEX
  8
Unknown_Area_Type
  10
395159.500
  20
4706257.500
  0
VERTEX
  8
Unknown_Area_Type
  10
395161.000
  20
4706258.000
  0
VERTEX
  8
Unknown_Area_Type
  10
395161.019
  20
4706257.995
  0
VERTEX
  8
Unknown_Area_Type
  10
395445.795
  20
4706180.000
  0
VERTEX
  8
Unknown_Area_Type
  10
395470.000
  20
4706173.371
  0
VERTEX
  8
Unknown_Area_Type
  10
395680.000
  20
4706115.855
  0
VERTEX
  8
Unknown_Area_Type
  10
395750.000
  20
4706096.684
  0
SEQEND
  8
Unknown_Area_Type
  0
POLYLINE
  8
Unknown_Area_Type
  70
1
  66
1
  0
VERTEX
  8
Unknown_Area_Type
  10
388885.500
  20
4706204.500
  0
VERTEX
  8
Unknown_Area_Type
  10
388885.162
  20
4706179.089
  0
VERTEX
  8
Unknown_Area_Type
  10
388732.440
  20
4706181.491
  0
VERTEX
  8
Unknown_Area_Type
  10
386269.668
  20
4706221.427
  0
VERTEX
  8
Unknown_Area_Type
  10
386273.000
  20
4706351.000
  0
VERTEX
  8
Unknown_Area_Type
  10
386273.212
  20
4706351.094
  0
VERTEX
  8
Unknown_Area_Type
  10
386362.000
  20
4706390.500
  0
VERTEX
  8
Unknown_Area_Type
  10
386363.000
  20
4706391.000
  0
VERTEX
  8
Unknown_Area_Type
  10
386383.416
  20
4706400.000
  0
VERTEX
  8
Unknown_Area_Type
  10
386573.895
  20
4706483.969
  0
VERTEX
  8
Unknown_Area_Type
  10
386747.226
  20
4706560.379
  0
VERTEX
  8
Unknown_Area_Type
  10
386747.500
  20
4706560.500
  0
VERTEX
  8
Unknown_Area_Type
  10
387711.402
  20
4706400.000
  0
VERTEX
  8
Unknown_Area_Type
  10
388173.041
  20
4706323.132
  0
VERTEX
  8
Unknown_Area_Type
  10
388550.000
  20
4706260.364
  0
VERTEX
  8
Unknown_Area_Type
  10
388630.000
  20
4706247.043
  0
VERTEX
  8
Unknown_Area_Type
  10
388840.000
  20
4706212.076
  0
VERTEX
  8
Unknown_Area_Type
  10
388885.500
  20
4706204.500
  0
SEQEND
  8
Unknown_Area_Type
  0
POLYLINE
  8
Unknown_Area_Type
  70
1
  66
1
  0
VERTEX
  8
Unknown_Area_Type
  10
402436.799
  20
4706669.000
  0
VERTEX
  8
Unknown_Area_Type
  10
402427.096
  20
4705976.246
  0
VERTEX
  8
Unknown_Area_Type
  10
400591.826
  20
4706002.398
  0
VERTEX
  8
Unknown_Area_Type
  10
400591.140
  20
4706002.408
  0
VERTEX
  8
Unknown_Area_Type
  10
401082.817
  20
4706180.000
  0
VERTEX
  8
Unknown_Area_Type
  10
402436.800
  20
4706669.053
  0
VERTEX
  8
Unknown_Area_Type
  10
402436.799
  20
4706669.000
  0
SEQEND
  8
Unknown_Area_Type
  0
POLYLINE
  8
Unknown_Area_Type
  70
1
  66
1
  0
VERTEX
  8
Unknown_Area_Type
  10
375752.000
  20
4711515.007
  0
VERTEX
  8
Unknown_Area_Type
  10
375752.000
  20
4711515.000
  0
VERTEX
  8
Unknown_Area_Type
  10
375310.000
  20
4711521.413
  0
VERTEX
  8
Unknown_Area_Type
  10
375129.406
  20
4711524.034
  0
VERTEX
  8
Unknown_Area_Type
  10
375129.407
  20
4711524.106
  0
VERTEX
  8
Unknown_Area_Type
  10
375162.259
  20
4713353.828
  0
VERTEX
  8
Unknown_Area_Type
  10
375203.812
  20
4715667.232
  0
VERTEX
  8
Unknown_Area_Type
  10
375214.576
  20
4716266.266
  0
VERTEX
  8
Unknown_Area_Type
  10
375214.576
  20
4716266.313
  0
VERTEX
  8
Unknown_Area_Type
  10
375390.000
  20
4716239.280
  0
VERTEX
  8
Unknown_Area_Type
  10
376030.657
  20
4716140.553
  0
VERTEX
  8
Unknown_Area_Type
  10
376030.903
  20
4716140.515
  0
VERTEX
  8
Unknown_Area_Type
  10
376031.000
  20
4716140.500
  0
VERTEX
  8
Unknown_Area_Type
  10
376008.652
  20
4715770.000
  0
VERTEX
  8
Unknown_Area_Type
  10
375988.747
  20
4715440.000
  0
VERTEX
  8
Unknown_Area_Type
  10
375752.000
  20
4711515.007
  0
SEQEND
  8
Unknown_Area_Type
  0
POLYLINE
  8
Unknown_Area_Type
  70
1
  66
1
  0
VERTEX
  8
Unknown_Area_Type
  10
375907.400
  20
4710497.500
  0
VERTEX
  8
Unknown_Area_Type
  10
375703.000
  20
4706999.500
  0
VERTEX
  8
Unknown_Area_Type
  10
375230.000
  20
4707007.090
  0
VERTEX
  8
Unknown_Area_Type
  10
375048.399
  20
4707010.004
  0
VERTEX
  8
Unknown_Area_Type
  10
375079.203
  20
4708727.045
  0
VERTEX
  8
Unknown_Area_Type
  10
375120.723
  20
4711040.433
  0
VERTEX
  8
Unknown_Area_Type
  10
375129.406
  20
4711524.034
  0
VERTEX
  8
Unknown_Area_Type
  10
375129.407
  20
4711524.106
  0
VERTEX
  8
Unknown_Area_Type
  10
375310.000
  20
4711521.467
  0
VERTEX
  8
Unknown_Area_Type
  10
375752.000
  20
4711515.007
  0
VERTEX
  8
Unknown_Area_Type
  10
375752.500
  20
4711515.000
  0
VERTEX
  8
Unknown_Area_Type
  10
375958.500
  20
4711372.000
  0
VERTEX
  8
Unknown_Area_Type
  10
375945.528
  20
4711150.000
  0
VERTEX
  8
Unknown_Area_Type
  10
375926.245
  20
4710820.000
  0
VERTEX
  8
Unknown_Area_Type
  10
375907.400
  20
4710497.500
  0
SEQEND
  8
Unknown_Area_Type
  0
POLYLINE
  8
Unknown_Area_Type
  70
1
  66
1
  0
VERTEX
  8
Unknown_Area_Type
  10
397778.367
  20
4715294.479
  0
VERTEX
  8
Unknown_Area_Type
  10
398611.500
  20
4715290.500
  0
VERTEX
  8
Unknown_Area_Type
  10
398652.000
  20
4715290.500
  0
VERTEX
  8
Unknown_Area_Type
  10
400334.500
  20
4715283.500
  0
VERTEX
  8
Unknown_Area_Type
  10
400334.549
  20
4715283.470
  0
VERTEX
  8
Unknown_Area_Type
  10
400494.996
  20
4715184.003
  0
VERTEX
  8
Unknown_Area_Type
  10
400495.000
  20
4715184.000
  0
VERTEX
  8
Unknown_Area_Type
  10
400497.085
  20
4715120.000
  0
VERTEX
  8
Unknown_Area_Type
  10
400637.508
  20
4710810.000
  0
VERTEX
  8
Unknown_Area_Type
  10
400646.500
  20
4710534.000
  0
VERTEX
  8
Unknown_Area_Type
  10
400225.845
  20
4710508.804
  0
VERTEX
  8
Unknown_Area_Type
  10
400078.858
  20
4710500.000
  0
VERTEX
  8
Unknown_Area_Type
  10
398125.500
  20
4710383.000
  0
VERTEX
  8
Unknown_Area_Type
  10
398123.000
  20
4710383.000
  0
VERTEX
  8
Unknown_Area_Type
  10
398122.983
  20
4710383.008
  0
VERTEX
  8
Unknown_Area_Type
  10
398117.000
  20
4710386.000
  0
VERTEX
  8
Unknown_Area_Type
  10
397902.865
  20
4710500.000
  0
VERTEX
  8
Unknown_Area_Type
  10
397839.063
  20
4710533.966
  0
VERTEX
  8
Unknown_Area_Type
  10
397839.000
  20
4710534.000
  0
VERTEX
  8
Unknown_Area_Type
  10
397835.232
  20
4710810.000
  0
VERTEX
  8
Unknown_Area_Type
  10
397776.383
  20
4715120.000
  0
VERTEX
  8
Unknown_Area_Type
  10
397774.000
  20
4715294.499
  0
VERTEX
  8
Unknown_Area_Type
  10
397778.367
  20
4715294.479
  0
SEQEND
  8
Unknown_Area_Type
  0
POLYLINE
  8
Unknown_Area_Type
  70
1
  66
1
  0
VERTEX
  8
Unknown_Area_Type
  10
395890.000
  20
4715408.814
  0
VERTEX
  8
Unknown_Area_Type
  10
396431.000
  20
4715407.500
  0
VERTEX
  8
Unknown_Area_Type
  10
396503.245
  20
4715407.500
  0
VERTEX
  8
Unknown_Area_Type
  10
396604.000
  20
4715407.500
  0
VERTEX
  8
Unknown_Area_Type
  10
397584.500
  20
4715405.000
  0
VERTEX
  8
Unknown_Area_Type
  10
397585.000
  20
4715405.000
  0
VERTEX
  8
Unknown_Area_Type
  10
397774.000
  20
4715294.499
  0
VERTEX
  8
Unknown_Area_Type
  10
397776.383
  20
4715120.000
  0
VERTEX
  8
Unknown_Area_Type
  10
397835.232
  20
4710810.000
  0
VERTEX
  8
Unknown_Area_Type
  10
397839.000
  20
4710534.000
  0
VERTEX
  8
Unknown_Area_Type
  10
397752.222
  20
4710530.841
  0
VERTEX
  8
Unknown_Area_Type
  10
396905.021
  20
4710500.000
  0
VERTEX
  8
Unknown_Area_Type
  10
395750.000
  20
4710457.953
  0
VERTEX
  8
Unknown_Area_Type
  10
395470.000
  20
4710447.760
  0
VERTEX
  8
Unknown_Area_Type
  10
395325.500
  20
4710442.500
  0
VERTEX
  8
Unknown_Area_Type
  10
395324.755
  20
4710442.583
  0
VERTEX
  8
Unknown_Area_Type
  10
395321.734
  20
4710442.918
  0
VERTEX
  8
Unknown_Area_Type
  10
395321.000
  20
4710443.000
  0
VERTEX
  8
Unknown_Area_Type
  10
395033.249
  20
4710600.000
  0
VERTEX
  8
Unknown_Area_Type
  10
395030.595
  20
4710601.448
  0
VERTEX
  8
Unknown_Area_Type
  10
395030.500
  20
4710601.500
  0
VERTEX
  8
Unknown_Area_Type
  10
395027.870
  20
4710910.000
  0
VERTEX
  8
Unknown_Area_Type
  10
394991.128
  20
4715220.000
  0
VERTEX
  8
Unknown_Area_Type
  10
394989.500
  20
4715411.000
  0
VERTEX
  8
Unknown_Area_Type
  10
394989.504
  20
4715411.000
  0
VERTEX
  8
Unknown_Area_Type
  10
395540.000
  20
4715409.663
  0
VERTEX
  8
Unknown_Area_Type
  10
395610.000
  20
4715409.493
  0
VERTEX
  8
Unknown_Area_Type
  10
395820.000
  20
4715408.984
  0
VERTEX
  8
Unknown_Area_Type
  10
395890.000
  20
4715408.814
  0
SEQEND
  8
Unknown_Area_Type
  0
POLYLINE
  8
Unknown_Area_Type
  70
1
  66
1
  0
VERTEX
  8
Unknown_Area_Type
  10
389622.815
  20
4715727.427
  0
VERTEX
  8
Unknown_Area_Type
  10
390455.500
  20
4715681.000
  0
VERTEX
  8
Unknown_Area_Type
  10
390457.901
  20
4715681.000
  0
VERTEX
  8
Unknown_Area_Type
  10
390460.000
  20
4715681.000
  0
VERTEX
  8
Unknown_Area_Type
  10
391643.601
  20
4715614.962
  0
VERTEX
  8
Unknown_Area_Type
  10
392207.500
  20
4715583.500
  0
VERTEX
  8
Unknown_Area_Type
  10
392206.757
  20
4715540.000
  0
VERTEX
  8
Unknown_Area_Type
  10
392201.288
  20
4715220.000
  0
VERTEX
  8
Unknown_Area_Type
  10
392127.632
  20
4710910.000
  0
VERTEX
  8
Unknown_Area_Type
  10
392125.000
  20
4710756.000
  0
VERTEX
  8
Unknown_Area_Type
  10
391897.248
  20
4710737.823
  0
VERTEX
  8
Unknown_Area_Type
  10
390170.337
  20
4710600.000
  0
VERTEX
  8
Unknown_Area_Type
  10
389820.661
  20
4710572.093
  0
VERTEX
  8
Unknown_Area_Type
  10
389819.500
  20
4710572.000
  0
VERTEX
  8
Unknown_Area_Type
  10
389814.972
  20
4710573.742
  0
VERTEX
  8
Unknown_Area_Type
  10
389813.000
  20
4710574.500
  0
VERTEX
  8
Unknown_Area_Type
  10
389768.654
  20
4710600.000
  0
VERTEX
  8
Unknown_Area_Type
  10
389257.987
  20
4710893.645
  0
VERTEX
  8
Unknown_Area_Type
  10
389256.500
  20
4710894.500
  0
VERTEX
  8
Unknown_Area_Type
  10
389256.940
  20
4710910.000
  0
VERTEX
  8
Unknown_Area_Type
  10
389379.225
  20
4715220.000
  0
VERTEX
  8
Unknown_Area_Type
  10
389388.305
  20
4715540.000
  0
VERTEX
  8
Unknown_Area_Type
  10
389391.000
  20
4715635.000
  0
VERTEX
  8
Unknown_Area_Type
  10
389391.491
  20
4715635.197
  0
VERTEX
  8
Unknown_Area_Type
  10
389468.388
  20
4715666.056
  0
VERTEX
  8
Unknown_Area_Type
  10
389621.500
  20
4715727.500
  0
VERTEX
  8
Unknown_Area_Type
  10
389622.815
  20
4715727.427
  0
SEQEND
  8
Unknown_Area_Type
  0
POLYLINE
  8
Unknown_Area_Type
  70
1
  66
1
  0
VERTEX
  8
Unknown_Area_Type
  10
387059.779
  20
4715886.416
  0
VERTEX
  8
Unknown_Area_Type
  10
388410.000
  20
4715741.000
  0
VERTEX
  8
Unknown_Area_Type
  10
388411.527
  20
4715741.000
  0
VERTEX
  8
Unknown_Area_Type
  10
388412.000
  20
4715741.000
  0
VERTEX
  8
Unknown_Area_Type
  10
388780.000
  20
4715701.363
  0
VERTEX
  8
Unknown_Area_Type
  10
389060.000
  20
4715671.205
  0
VERTEX
  8
Unknown_Area_Type
  10
389391.500
  20
4715635.500
  0
VERTEX
  8
Unknown_Area_Type
  10
389391.491
  20
4715635.197
  0
VERTEX
  8
Unknown_Area_Type
  10
389388.781
  20
4715540.000
  0
VERTEX
  8
Unknown_Area_Type
  10
389379.669
  20
4715220.000
  0
VERTEX
  8
Unknown_Area_Type
  10
389256.940
  20
4710910.000
  0
VERTEX
  8
Unknown_Area_Type
  10
389256.500
  20
4710894.500
  0
VERTEX
  8
Unknown_Area_Type
  10
389253.617
  20
4710894.269
  0
VERTEX
  8
Unknown_Area_Type
  10
388990.000
  20
4710873.143
  0
VERTEX
  8
Unknown_Area_Type
  10
388910.000
  20
4710866.731
  0
VERTEX
  8
Unknown_Area_Type
  10
388700.000
  20
4710849.902
  0
VERTEX
  8
Unknown_Area_Type
  10
388630.000
  20
4710844.292
  0
VERTEX
  8
Unknown_Area_Type
  10
386973.000
  20
4710711.500
  0
VERTEX
  8
Unknown_Area_Type
  10
386970.941
  20
4710711.706
  0
VERTEX
  8
Unknown_Area_Type
  10
386968.761
  20
4710711.924
  0
VERTEX
  8
Unknown_Area_Type
  10
386968.000
  20
4710712.000
  0
VERTEX
  8
Unknown_Area_Type
  10
386524.547
  20
4710966.473
  0
VERTEX
  8
Unknown_Area_Type
  10
386524.500
  20
4710966.500
  0
VERTEX
  8
Unknown_Area_Type
  10
386525.497
  20
4711030.000
  0
VERTEX
  8
Unknown_Area_Type
  10
386593.010
  20
4715330.000
  0
VERTEX
  8
Unknown_Area_Type
  10
386598.034
  20
4715650.000
  0
VERTEX
  8
Unknown_Area_Type
  10
386599.000
  20
4715711.500
  0
VERTEX
  8
Unknown_Area_Type
  10
386599.207
  20
4715711.579
  0
VERTEX
  8
Unknown_Area_Type
  10
387059.000
  20
4715886.500
  0
VERTEX
  8
Unknown_Area_Type
  10
387059.779
  20
4715886.416
  0
SEQEND
  8
Unknown_Area_Type
  0
POLYLINE
  8
Unknown_Area_Type
  70
1
  66
1
  0
VERTEX
  8
Unknown_Area_Type
  10
381780.000
  20
4710981.912
  0
VERTEX
  8
Unknown_Area_Type
  10
381555.000
  20
4710967.500
  0
VERTEX
  8
Unknown_Area_Type
  10
381265.648
  20
4711150.000
  0
VERTEX
  8
Unknown_Area_Type
  10
381096.000
  20
4711257.000
  0
VERTEX
  8
Unknown_Area_Type
  10
381299.553
  20
4715440.000
  0
VERTEX
  8
Unknown_Area_Type
  10
381315.612
  20
4715770.000
  0
VERTEX
  8
Unknown_Area_Type
  10
381321.500
  20
4715891.000
  0
VERTEX
  8
Unknown_Area_Type
  10
381321.835
  20
4715891.127
  0
VERTEX
  8
Unknown_Area_Type
  10
381612.500
  20
4716001.000
  0
VERTEX
  8
Unknown_Area_Type
  10
381612.899
  20
4716000.962
  0
VERTEX
  8
Unknown_Area_Type
  10
381940.000
  20
4715969.762
  0
VERTEX
  8
Unknown_Area_Type
  10
382230.000
  20
4715942.100
  0
VERTEX
  8
Unknown_Area_Type
  10
382262.500
  20
4715939.000
  0
VERTEX
  8
Unknown_Area_Type
  10
382268.000
  20
4715938.500
  0
VERTEX
  8
Unknown_Area_Type
  10
383005.653
  20
4715868.647
  0
VERTEX
  8
Unknown_Area_Type
  10
383984.000
  20
4715776.000
  0
VERTEX
  8
Unknown_Area_Type
  10
383979.327
  20
4715650.000
  0
VERTEX
  8
Unknown_Area_Type
  10
383967.458
  20
4715330.000
  0
VERTEX
  8
Unknown_Area_Type
  10
383811.000
  20
4711112.000
  0
VERTEX
  8
Unknown_Area_Type
  10
383810.549
  20
4711111.971
  0
VERTEX
  8
Unknown_Area_Type
  10
382530.779
  20
4711030.000
  0
VERTEX
  8
Unknown_Area_Type
  10
382150.000
  20
4711005.611
  0
VERTEX
  8
Unknown_Area_Type
  10
382070.000
  20
4711000.488
  0
VERTEX
  8
Unknown_Area_Type
  10
381860.000
  20
4710987.036
  0
VERTEX
  8
Unknown_Area_Type
  10
381780.000
  20
4710981.912
  0
SEQEND
  8
Unknown_Area_Type
  0
POLYLINE
  8
Unknown_Area_Type
  70
1
  66
1
  0
VERTEX
  8
Unknown_Area_Type
  10
378897.127
  20
4711150.000
  0
VERTEX
  8
Unknown_Area_Type
  10
378743.000
  20
4711142.500
  0
VERTEX
  8
Unknown_Area_Type
  10
378742.971
  20
4711142.519
  0
VERTEX
  8
Unknown_Area_Type
  10
378731.569
  20
4711150.000
  0
VERTEX
  8
Unknown_Area_Type
  10
378395.500
  20
4711370.500
  0
VERTEX
  8
Unknown_Area_Type
  10
378446.500
  20
4712147.148
  0
VERTEX
  8
Unknown_Area_Type
  10
378662.731
  20
4715440.000
  0
VERTEX
  8
Unknown_Area_Type
  10
378684.401
  20
4715770.000
  0
VERTEX
  8
Unknown_Area_Type
  10
378702.000
  20
4716038.000
  0
VERTEX
  8
Unknown_Area_Type
  10
378702.229
  20
4716038.082
  0
VERTEX
  8
Unknown_Area_Type
  10
378849.750
  20
4716091.000
  0
VERTEX
  8
Unknown_Area_Type
  10
378997.267
  20
4716143.917
  0
VERTEX
  8
Unknown_Area_Type
  10
378997.500
  20
4716144.000
  0
VERTEX
  8
Unknown_Area_Type
  10
379217.988
  20
4716119.914
  0
VERTEX
  8
Unknown_Area_Type
  10
380215.000
  20
4716011.000
  0
VERTEX
  8
Unknown_Area_Type
  10
380220.000
  20
4716010.500
  0
VERTEX
  8
Unknown_Area_Type
  10
381321.500
  20
4715891.000
  0
VERTEX
  8
Unknown_Area_Type
  10
381315.612
  20
4715770.000
  0
VERTEX
  8
Unknown_Area_Type
  10
381299.553
  20
4715440.000
  0
VERTEX
  8
Unknown_Area_Type
  10
381096.000
  20
4711257.000
  0
VERTEX
  8
Unknown_Area_Type
  10
378897.127
  20
4711150.000
  0
SEQEND
  8
Unknown_Area_Type
  0
POLYLINE
  8
Unknown_Area_Type
  70
1
  66
1
  0
VERTEX
  8
Unknown_Area_Type
  10
397949.060
  20
4706180.000
  0
VERTEX
  8
Unknown_Area_Type
  10
397592.064
  20
4706045.838
  0
VERTEX
  8
Unknown_Area_Type
  10
397590.865
  20
4706045.856
  0
VERTEX
  8
Unknown_Area_Type
  10
395841.628
  20
4706071.642
  0
VERTEX
  8
Unknown_Area_Type
  10
395750.000
  20
4706096.730
  0
VERTEX
  8
Unknown_Area_Type
  10
395680.000
  20
4706115.896
  0
VERTEX
  8
Unknown_Area_Type
  10
395470.000
  20
4706173.395
  0
VERTEX
  8
Unknown_Area_Type
  10
395445.877
  20
4706180.000
  0
VERTEX
  8
Unknown_Area_Type
  10
395161.019
  20
4706257.995
  0
VERTEX
  8
Unknown_Area_Type
  10
395161.000
  20
4706258.000
  0
VERTEX
  8
Unknown_Area_Type
  10
395162.235
  20
4706290.000
  0
VERTEX
  8
Unknown_Area_Type
  10
395322.500
  20
4710442.500
  0
VERTEX
  8
Unknown_Area_Type
  10
395324.755
  20
4710442.583
  0
VERTEX
  8
Unknown_Area_Type
  10
395470.000
  20
4710447.913
  0
VERTEX
  8
Unknown_Area_Type
  10
395750.000
  20
4710458.190
  0
VERTEX
  8
Unknown_Area_Type
  10
396589.500
  20
4710489.000
  0
VERTEX
  8
Unknown_Area_Type
  10
396603.500
  20
4710489.500
  0
VERTEX
  8
Unknown_Area_Type
  10
396895.258
  20
4710500.000
  0
VERTEX
  8
Unknown_Area_Type
  10
397752.222
  20
4710530.841
  0
VERTEX
  8
Unknown_Area_Type
  10
397839.063
  20
4710533.966
  0
VERTEX
  8
Unknown_Area_Type
  10
397840.000
  20
4710534.000
  0
VERTEX
  8
Unknown_Area_Type
  10
397903.934
  20
4710500.000
  0
VERTEX
  8
Unknown_Area_Type
  10
398123.000
  20
4710383.500
  0
VERTEX
  8
Unknown_Area_Type
  10
398122.983
  20
4710383.008
  0
VERTEX
  8
Unknown_Area_Type
  10
398117.668
  20
4710228.344
  0
VERTEX
  8
Unknown_Area_Type
  10
397979.000
  20
4706193.000
  0
VERTEX
  8
Unknown_Area_Type
  10
397978.532
  20
4706192.414
  0
VERTEX
  8
Unknown_Area_Type
  10
397977.714
  20
4706191.392
  0
VERTEX
  8
Unknown_Area_Type
  10
397977.000
  20
4706190.500
  0
VERTEX
  8
Unknown_Area_Type
  10
397949.060
  20
4706180.000
  0
SEQEND
  8
Unknown_Area_Type
  0
POLYLINE
  8
Unknown_Area_Type
  70
1
  66
1
  0
VERTEX
  8
Unknown_Area_Type
  10
392645.454
  20
4710464.526
  0
VERTEX
  8
Unknown_Area_Type
  10
392645.000
  20
4710464.500
  0
VERTEX
  8
Unknown_Area_Type
  10
392403.285
  20
4710600.000
  0
VERTEX
  8
Unknown_Area_Type
  10
392125.124
  20
4710755.930
  0
VERTEX
  8
Unknown_Area_Type
  10
392125.000
  20
4710756.000
  0
VERTEX
  8
Unknown_Area_Type
  10
392127.632
  20
4710910.000
  0
VERTEX
  8
Unknown_Area_Type
  10
392201.288
  20
4715220.000
  0
VERTEX
  8
Unknown_Area_Type
  10
392206.757
  20
4715540.000
  0
VERTEX
  8
Unknown_Area_Type
  10
392207.500
  20
4715583.500
  0
VERTEX
  8
Unknown_Area_Type
  10
392207.607
  20
4715583.550
  0
VERTEX
  8
Unknown_Area_Type
  10
392505.500
  20
4715721.500
  0
VERTEX
  8
Unknown_Area_Type
  10
392506.500
  20
4715722.000
  0
VERTEX
  8
Unknown_Area_Type
  10
393532.500
  20
4716196.500
  0
VERTEX
  8
Unknown_Area_Type
  10
393550.222
  20
4716204.238
  0
VERTEX
  8
Unknown_Area_Type
  10
393567.437
  20
4716211.754
  0
VERTEX
  8
Unknown_Area_Type
  10
393568.000
  20
4716212.000
  0
VERTEX
  8
Unknown_Area_Type
  10
394761.314
  20
4715540.000
  0
VERTEX
  8
Unknown_Area_Type
  10
394989.500
  20
4715411.500
  0
VERTEX
  8
Unknown_Area_Type
  10
394989.504
  20
4715411.000
  0
VERTEX
  8
Unknown_Area_Type
  10
394991.132
  20
4715220.000
  0
VERTEX
  8
Unknown_Area_Type
  10
395027.870
  20
4710910.000
  0
VERTEX
  8
Unknown_Area_Type
  10
395030.500
  20
4710601.500
  0
VERTEX
  8
Unknown_Area_Type
  10
395004.381
  20
4710600.000
  0
VERTEX
  8
Unknown_Area_Type
  10
392645.454
  20
4710464.526
  0
SEQEND
  8
Unknown_Area_Type
  0
POLYLINE
  8
Unknown_Area_Type
  70
1
  66
1
  0
VERTEX
  8
Unknown_Area_Type
  10
384287.963
  20
4710833.527
  0
VERTEX
  8
Unknown_Area_Type
  10
384287.500
  20
4710833.500
  0
VERTEX
  8
Unknown_Area_Type
  10
383950.693
  20
4711030.000
  0
VERTEX
  8
Unknown_Area_Type
  10
383811.000
  20
4711111.500
  0
VERTEX
  8
Unknown_Area_Type
  10
383811.008
  20
4711111.704
  0
VERTEX
  8
Unknown_Area_Type
  10
383967.458
  20
4715330.000
  0
VERTEX
  8
Unknown_Area_Type
  10
383979.327
  20
4715650.000
  0
VERTEX
  8
Unknown_Area_Type
  10
383984.000
  20
4715776.000
  0
VERTEX
  8
Unknown_Area_Type
  10
384313.500
  20
4715902.000
  0
VERTEX
  8
Unknown_Area_Type
  10
384315.000
  20
4715902.500
  0
VERTEX
  8
Unknown_Area_Type
  10
384389.500
  20
4715931.000
  0
VERTEX
  8
Unknown_Area_Type
  10
384390.500
  20
4715931.000
  0
VERTEX
  8
Unknown_Area_Type
  10
384394.500
  20
4715931.000
  0
VERTEX
  8
Unknown_Area_Type
  10
386158.100
  20
4715755.400
  0
VERTEX
  8
Unknown_Area_Type
  10
386599.000
  20
4715711.500
  0
VERTEX
  8
Unknown_Area_Type
  10
386598.034
  20
4715650.000
  0
VERTEX
  8
Unknown_Area_Type
  10
386593.010
  20
4715330.000
  0
VERTEX
  8
Unknown_Area_Type
  10
386525.497
  20
4711030.000
  0
VERTEX
  8
Unknown_Area_Type
  10
386524.500
  20
4710966.500
  0
VERTEX
  8
Unknown_Area_Type
  10
386228.013
  20
4710948.872
  0
VERTEX
  8
Unknown_Area_Type
  10
384290.030
  20
4710833.650
  0
VERTEX
  8
Unknown_Area_Type
  10
384287.963
  20
4710833.527
  0
SEQEND
  8
Unknown_Area_Type
  0
POLYLINE
  8
Unknown_Area_Type
  70
1
  66
1
  0
VERTEX
  8
Unknown_Area_Type
  10
392201.852
  20
4706290.000
  0
VERTEX
  8
Unknown_Area_Type
  10
391806.816
  20
4706133.147
  0
VERTEX
  8
Unknown_Area_Type
  10
391805.609
  20
4706133.166
  0
VERTEX
  8
Unknown_Area_Type
  10
391182.605
  20
4706142.963
  0
VERTEX
  8
Unknown_Area_Type
  10
390468.180
  20
4706290.000
  0
VERTEX
  8
Unknown_Area_Type
  10
389528.000
  20
4706483.500
  0
VERTEX
  8
Unknown_Area_Type
  10
389817.500
  20
4710571.500
  0
VERTEX
  8
Unknown_Area_Type
  10
389817.971
  20
4710571.588
  0
VERTEX
  8
Unknown_Area_Type
  10
389820.661
  20
4710572.093
  0
VERTEX
  8
Unknown_Area_Type
  10
389825.500
  20
4710573.000
  0
VERTEX
  8
Unknown_Area_Type
  10
390164.080
  20
4710600.000
  0
VERTEX
  8
Unknown_Area_Type
  10
390452.500
  20
4710623.000
  0
VERTEX
  8
Unknown_Area_Type
  10
390458.500
  20
4710623.500
  0
VERTEX
  8
Unknown_Area_Type
  10
391897.248
  20
4710737.823
  0
VERTEX
  8
Unknown_Area_Type
  10
392125.124
  20
4710755.930
  0
VERTEX
  8
Unknown_Area_Type
  10
392126.000
  20
4710756.000
  0
VERTEX
  8
Unknown_Area_Type
  10
392404.017
  20
4710600.000
  0
VERTEX
  8
Unknown_Area_Type
  10
392645.454
  20
4710464.526
  0
VERTEX
  8
Unknown_Area_Type
  10
392645.500
  20
4710464.500
  0
VERTEX
  8
Unknown_Area_Type
  10
392507.500
  20
4708693.464
  0
VERTEX
  8
Unknown_Area_Type
  10
392324.000
  20
4706338.500
  0
VERTEX
  8
Unknown_Area_Type
  10
392201.852
  20
4706290.000
  0
SEQEND
  8
Unknown_Area_Type
  0
POLYLINE
  8
Unknown_Area_Type
  70
1
  66
1
  0
VERTEX
  8
Unknown_Area_Type
  10
388910.000
  20
4706214.920
  0
VERTEX
  8
Unknown_Area_Type
  10
388886.000
  20
4706204.500
  0
VERTEX
  8
Unknown_Area_Type
  10
388885.638
  20
4706204.560
  0
VERTEX
  8
Unknown_Area_Type
  10
388840.000
  20
4706212.154
  0
VERTEX
  8
Unknown_Area_Type
  10
388630.000
  20
4706247.097
  0
VERTEX
  8
Unknown_Area_Type
  10
388550.000
  20
4706260.408
  0
VERTEX
  8
Unknown_Area_Type
  10
388173.041
  20
4706323.132
  0
VERTEX
  8
Unknown_Area_Type
  10
387711.078
  20
4706400.000
  0
VERTEX
  8
Unknown_Area_Type
  10
386747.226
  20
4706560.379
  0
VERTEX
  8
Unknown_Area_Type
  10
386746.500
  20
4706560.500
  0
VERTEX
  8
Unknown_Area_Type
  10
386968.678
  20
4710700.000
  0
VERTEX
  8
Unknown_Area_Type
  10
386969.000
  20
4710706.000
  0
VERTEX
  8
Unknown_Area_Type
  10
386969.500
  20
4710711.500
  0
VERTEX
  8
Unknown_Area_Type
  10
386970.941
  20
4710711.706
  0
VERTEX
  8
Unknown_Area_Type
  10
386973.000
  20
4710712.000
  0
VERTEX
  8
Unknown_Area_Type
  10
388630.000
  20
4710844.706
  0
VERTEX
  8
Unknown_Area_Type
  10
388700.000
  20
4710850.312
  0
VERTEX
  8
Unknown_Area_Type
  10
388910.000
  20
4710867.130
  0
VERTEX
  8
Unknown_Area_Type
  10
388990.000
  20
4710873.537
  0
VERTEX
  8
Unknown_Area_Type
  10
389245.500
  20
4710894.000
  0
VERTEX
  8
Unknown_Area_Type
  10
389252.000
  20
4710894.500
  0
VERTEX
  8
Unknown_Area_Type
  10
389253.617
  20
4710894.269
  0
VERTEX
  8
Unknown_Area_Type
  10
389257.987
  20
4710893.645
  0
VERTEX
  8
Unknown_Area_Type
  10
389259.000
  20
4710893.500
  0
VERTEX
  8
Unknown_Area_Type
  10
389769.316
  20
4710600.000
  0
VERTEX
  8
Unknown_Area_Type
  10
389814.972
  20
4710573.742
  0
VERTEX
  8
Unknown_Area_Type
  10
389818.000
  20
4710572.000
  0
VERTEX
  8
Unknown_Area_Type
  10
389817.971
  20
4710571.588
  0
VERTEX
  8
Unknown_Area_Type
  10
389528.500
  20
4706487.500
  0
VERTEX
  8
Unknown_Area_Type
  10
389528.000
  20
4706483.500
  0
VERTEX
  8
Unknown_Area_Type
  10
389527.709
  20
4706483.354
  0
VERTEX
  8
Unknown_Area_Type
  10
389524.000
  20
4706481.500
  0
VERTEX
  8
Unknown_Area_Type
  10
389082.928
  20
4706290.000
  0
VERTEX
  8
Unknown_Area_Type
  10
388910.000
  20
4706214.920
  0
SEQEND
  8
Unknown_Area_Type
  0
POLYLINE
  8
Unknown_Area_Type
  70
1
  66
1
  0
VERTEX
  8
Unknown_Area_Type
  10
395161.000
  20
4706257.500
  0
VERTEX
  8
Unknown_Area_Type
  10
394717.698
  20
4706088.634
  0
VERTEX
  8
Unknown_Area_Type
  10
394716.366
  20
4706088.655
  0
VERTEX
  8
Unknown_Area_Type
  10
393261.379
  20
4706110.818
  0
VERTEX
  8
Unknown_Area_Type
  10
393259.517
  20
4706110.847
  0
VERTEX
  8
Unknown_Area_Type
  10
392523.306
  20
4706290.000
  0
VERTEX
  8
Unknown_Area_Type
  10
392324.000
  20
4706338.500
  0
VERTEX
  8
Unknown_Area_Type
  10
392507.500
  20
4708690.500
  0
VERTEX
  8
Unknown_Area_Type
  10
392507.500
  20
4708693.464
  0
VERTEX
  8
Unknown_Area_Type
  10
392507.500
  20
4708696.500
  0
VERTEX
  8
Unknown_Area_Type
  10
392645.500
  20
4710464.500
  0
VERTEX
  8
Unknown_Area_Type
  10
395005.377
  20
4710600.000
  0
VERTEX
  8
Unknown_Area_Type
  10
395030.595
  20
4710601.448
  0
VERTEX
  8
Unknown_Area_Type
  10
395031.500
  20
4710601.500
  0
VERTEX
  8
Unknown_Area_Type
  10
395034.245
  20
4710600.000
  0
VERTEX
  8
Unknown_Area_Type
  10
395321.734
  20
4710442.918
  0
VERTEX
  8
Unknown_Area_Type
  10
395322.500
  20
4710442.500
  0
VERTEX
  8
Unknown_Area_Type
  10
395162.254
  20
4706290.000
  0
VERTEX
  8
Unknown_Area_Type
  10
395161.019
  20
4706257.995
  0
VERTEX
  8
Unknown_Area_Type
  10
395161.000
  20
4706257.500
  0
SEQEND
  8
Unknown_Area_Type
  0
POLYLINE
  8
Unknown_Area_Type
  70
1
  66
1
  0
VERTEX
  8
Unknown_Area_Type
  10
383827.109
  20
4706553.503
  0
VERTEX
  8
Unknown_Area_Type
  10
383714.500
  20
4706503.500
  0
VERTEX
  8
Unknown_Area_Type
  10
382070.000
  20
4706709.906
  0
VERTEX
  8
Unknown_Area_Type
  10
381780.000
  20
4706746.304
  0
VERTEX
  8
Unknown_Area_Type
  10
381276.500
  20
4706809.500
  0
VERTEX
  8
Unknown_Area_Type
  10
381276.500
  20
4706814.500
  0
VERTEX
  8
Unknown_Area_Type
  10
381545.109
  20
4710820.000
  0
VERTEX
  8
Unknown_Area_Type
  10
381555.000
  20
4710967.500
  0
VERTEX
  8
Unknown_Area_Type
  10
381780.000
  20
4710981.912
  0
VERTEX
  8
Unknown_Area_Type
  10
381860.000
  20
4710987.036
  0
VERTEX
  8
Unknown_Area_Type
  10
382070.000
  20
4711000.488
  0
VERTEX
  8
Unknown_Area_Type
  10
382150.000
  20
4711005.614
  0
VERTEX
  8
Unknown_Area_Type
  10
382530.694
  20
4711030.000
  0
VERTEX
  8
Unknown_Area_Type
  10
383803.000
  20
4711111.500
  0
VERTEX
  8
Unknown_Area_Type
  10
383810.500
  20
4711112.000
  0
VERTEX
  8
Unknown_Area_Type
  10
383810.549
  20
4711111.971
  0
VERTEX
  8
Unknown_Area_Type
  10
383811.008
  20
4711111.704
  0
VERTEX
  8
Unknown_Area_Type
  10
383951.262
  20
4711030.000
  0
VERTEX
  8
Unknown_Area_Type
  10
384286.000
  20
4710835.000
  0
VERTEX
  8
Unknown_Area_Type
  10
384287.963
  20
4710833.527
  0
VERTEX
  8
Unknown_Area_Type
  10
384288.000
  20
4710833.500
  0
VERTEX
  8
Unknown_Area_Type
  10
384288.000
  20
4710830.000
  0
VERTEX
  8
Unknown_Area_Type
  10
384278.695
  20
4710700.000
  0
VERTEX
  8
Unknown_Area_Type
  10
383987.000
  20
4706624.500
  0
VERTEX
  8
Unknown_Area_Type
  10
383986.894
  20
4706624.453
  0
VERTEX
  8
Unknown_Area_Type
  10
383827.109
  20
4706553.503
  0
SEQEND
  8
Unknown_Area_Type
  0
POLYLINE
  8
Unknown_Area_Type
  70
1
  66
1
  0
VERTEX
  8
Unknown_Area_Type
  10
381276.288
  20
4706809.401
  0
VERTEX
  8
Unknown_Area_Type
  10
381007.000
  20
4706684.000
  0
VERTEX
  8
Unknown_Area_Type
  10
381006.570
  20
4706684.033
  0
VERTEX
  8
Unknown_Area_Type
  10
380828.113
  20
4706697.613
  0
VERTEX
  8
Unknown_Area_Type
  10
378484.000
  20
4706876.000
  0
VERTEX
  8
Unknown_Area_Type
  10
378483.493
  20
4706876.253
  0
VERTEX
  8
Unknown_Area_Type
  10
378483.000
  20
4706876.500
  0
VERTEX
  8
Unknown_Area_Type
  10
378483.000
  20
4706883.500
  0
VERTEX
  8
Unknown_Area_Type
  10
378723.312
  20
4710820.000
  0
VERTEX
  8
Unknown_Area_Type
  10
378725.667
  20
4710858.567
  0
VERTEX
  8
Unknown_Area_Type
  10
378743.000
  20
4711142.500
  0
VERTEX
  8
Unknown_Area_Type
  10
378896.585
  20
4711150.000
  0
VERTEX
  8
Unknown_Area_Type
  10
381077.500
  20
4711256.500
  0
VERTEX
  8
Unknown_Area_Type
  10
381088.000
  20
4711257.000
  0
VERTEX
  8
Unknown_Area_Type
  10
381096.000
  20
4711257.000
  0
VERTEX
  8
Unknown_Area_Type
  10
381096.500
  20
4711257.000
  0
VERTEX
  8
Unknown_Area_Type
  10
381100.000
  20
4711255.000
  0
VERTEX
  8
Unknown_Area_Type
  10
381266.545
  20
4711150.000
  0
VERTEX
  8
Unknown_Area_Type
  10
381546.500
  20
4710973.500
  0
VERTEX
  8
Unknown_Area_Type
  10
381555.000
  20
4710968.000
  0
VERTEX
  8
Unknown_Area_Type
  10
381555.000
  20
4710967.500
  0
VERTEX
  8
Unknown_Area_Type
  10
381555.000
  20
4710960.000
  0
VERTEX
  8
Unknown_Area_Type
  10
381545.606
  20
4710820.000
  0
VERTEX
  8
Unknown_Area_Type
  10
381276.500
  20
4706809.500
  0
VERTEX
  8
Unknown_Area_Type
  10
381276.288
  20
4706809.401
  0
SEQEND
  8
Unknown_Area_Type
  0
POLYLINE
  8
Unknown_Area_Type
  70
1
  66
1
  0
VERTEX
  8
Unknown_Area_Type
  10
386384.513
  20
4706400.000
  0
VERTEX
  8
Unknown_Area_Type
  10
386274.000
  20
4706351.000
  0
VERTEX
  8
Unknown_Area_Type
  10
386273.212
  20
4706351.094
  0
VERTEX
  8
Unknown_Area_Type
  10
385864.263
  20
4706400.000
  0
VERTEX
  8
Unknown_Area_Type
  10
383987.000
  20
4706624.500
  0
VERTEX
  8
Unknown_Area_Type
  10
384278.211
  20
4710700.000
  0
VERTEX
  8
Unknown_Area_Type
  10
384287.500
  20
4710830.000
  0
VERTEX
  8
Unknown_Area_Type
  10
384288.000
  20
4710833.500
  0
VERTEX
  8
Unknown_Area_Type
  10
384290.030
  20
4710833.650
  0
VERTEX
  8
Unknown_Area_Type
  10
384301.500
  20
4710834.500
  0
VERTEX
  8
Unknown_Area_Type
  10
384309.500
  20
4710835.000
  0
VERTEX
  8
Unknown_Area_Type
  10
386228.013
  20
4710948.872
  0
VERTEX
  8
Unknown_Area_Type
  10
386524.547
  20
4710966.473
  0
VERTEX
  8
Unknown_Area_Type
  10
386525.000
  20
4710966.500
  0
VERTEX
  8
Unknown_Area_Type
  10
386968.761
  20
4710711.924
  0
VERTEX
  8
Unknown_Area_Type
  10
386969.500
  20
4710711.500
  0
VERTEX
  8
Unknown_Area_Type
  10
386968.882
  20
4710700.000
  0
VERTEX
  8
Unknown_Area_Type
  10
386746.500
  20
4706560.500
  0
VERTEX
  8
Unknown_Area_Type
  10
386573.895
  20
4706483.969
  0
VERTEX
  8
Unknown_Area_Type
  10
386384.513
  20
4706400.000
  0
SEQEND
  8
Unknown_Area_Type
  0
POLYLINE
  8
Unknown_Area_Type
  70
1
  66
1
  0
VERTEX
  8
Unknown_Area_Type
  10
378446.500
  20
4712146.000
  0
VERTEX
  8
Unknown_Area_Type
  10
378395.500
  20
4711370.500
  0
VERTEX
  8
Unknown_Area_Type
  10
375958.500
  20
4711372.000
  0
VERTEX
  8
Unknown_Area_Type
  10
375958.000
  20
4711372.000
  0
VERTEX
  8
Unknown_Area_Type
  10
375752.000
  20
4711515.000
  0
VERTEX
  8
Unknown_Area_Type
  10
375752.000
  20
4711515.007
  0
VERTEX
  8
Unknown_Area_Type
  10
375988.425
  20
4715440.000
  0
VERTEX
  8
Unknown_Area_Type
  10
376008.303
  20
4715770.000
  0
VERTEX
  8
Unknown_Area_Type
  10
376030.500
  20
4716138.500
  0
VERTEX
  8
Unknown_Area_Type
  10
376030.903
  20
4716140.515
  0
VERTEX
  8
Unknown_Area_Type
  10
376030.929
  20
4716140.644
  0
VERTEX
  8
Unknown_Area_Type
  10
376031.000
  20
4716141.000
  0
VERTEX
  8
Unknown_Area_Type
  10
376440.500
  20
4716278.500
  0
VERTEX
  8
Unknown_Area_Type
  10
376440.570
  20
4716278.492
  0
VERTEX
  8
Unknown_Area_Type
  10
378702.000
  20
4716038.000
  0
VERTEX
  8
Unknown_Area_Type
  10
378684.375
  20
4715770.000
  0
VERTEX
  8
Unknown_Area_Type
  10
378662.672
  20
4715440.000
  0
VERTEX
  8
Unknown_Area_Type
  10
378446.500
  20
4712153.000
  0
VERTEX
  8
Unknown_Area_Type
  10
378446.500
  20
4712147.148
  0
VERTEX
  8
Unknown_Area_Type
  10
378446.500
  20
4712146.000
  0
SEQEND
  8
Unknown_Area_Type
  0
POLYLINE
  8
Unknown_Area_Type
  70
1
  66
1
  0
VERTEX
  8
Unknown_Area_Type
  10
378427.000
  20
4706848.500
  0
VERTEX
  8
Unknown_Area_Type
  10
378417.000
  20
4706848.500
  0
VERTEX
  8
Unknown_Area_Type
  10
375789.000
  20
4706949.000
  0
VERTEX
  8
Unknown_Area_Type
  10
375786.906
  20
4706949.465
  0
VERTEX
  8
Unknown_Area_Type
  10
375785.562
  20
4706949.764
  0
VERTEX
  8
Unknown_Area_Type
  10
375784.500
  20
4706950.000
  0
VERTEX
  8
Unknown_Area_Type
  10
375703.000
  20
4706999.000
  0
VERTEX
  8
Unknown_Area_Type
  10
375703.000
  20
4706999.500
  0
VERTEX
  8
Unknown_Area_Type
  10
375703.000
  20
4707005.500
  0
VERTEX
  8
Unknown_Area_Type
  10
375907.400
  20
4710497.500
  0
VERTEX
  8
Unknown_Area_Type
  10
375926.277
  20
4710820.000
  0
VERTEX
  8
Unknown_Area_Type
  10
375945.593
  20
4711150.000
  0
VERTEX
  8
Unknown_Area_Type
  10
375958.500
  20
4711370.500
  0
VERTEX
  8
Unknown_Area_Type
  10
375958.500
  20
4711372.000
  0
VERTEX
  8
Unknown_Area_Type
  10
378395.500
  20
4711370.500
  0
VERTEX
  8
Unknown_Area_Type
  10
378396.000
  20
4711370.500
  0
VERTEX
  8
Unknown_Area_Type
  10
378732.323
  20
4711150.000
  0
VERTEX
  8
Unknown_Area_Type
  10
378743.000
  20
4711143.000
  0
VERTEX
  8
Unknown_Area_Type
  10
378742.971
  20
4711142.519
  0
VERTEX
  8
Unknown_Area_Type
  10
378725.667
  20
4710858.567
  0
VERTEX
  8
Unknown_Area_Type
  10
378723.316
  20
4710820.000
  0
VERTEX
  8
Unknown_Area_Type
  10
378483.000
  20
4706876.500
  0
VERTEX
  8
Unknown_Area_Type
  10
378455.623
  20
4706862.688
  0
VERTEX
  8
Unknown_Area_Type
  10
378427.500
  20
4706848.500
  0
VERTEX
  8
Unknown_Area_Type
  10
378427.468
  20
4706848.500
  0
VERTEX
  8
Unknown_Area_Type
  10
378427.000
  20
4706848.500
  0
SEQEND
  8
Unknown_Area_Type
  0
POLYLINE
  8
Unknown_Area_Type
  70
1
  66
1
  0
VERTEX
  8
Unknown_Area_Type
  10
402491.915
  20
4710602.957
  0
VERTEX
  8
Unknown_Area_Type
  10
402479.515
  20
4709718.042
  0
VERTEX
  8
Unknown_Area_Type
  10
402376.000
  20
4709719.500
  0
VERTEX
  8
Unknown_Area_Type
  10
402336.500
  20
4709718.000
  0
VERTEX
  8
Unknown_Area_Type
  10
402327.704
  20
4709717.182
  0
VERTEX
  8
Unknown_Area_Type
  10
402315.000
  20
4709716.000
  0
VERTEX
  8
Unknown_Area_Type
  10
402313.937
  20
4709716.521
  0
VERTEX
  8
Unknown_Area_Type
  10
401497.138
  20
4710116.965
  0
VERTEX
  8
Unknown_Area_Type
  10
400715.851
  20
4710500.000
  0
VERTEX
  8
Unknown_Area_Type
  10
400646.554
  20
4710533.973
  0
VERTEX
  8
Unknown_Area_Type
  10
400646.500
  20
4710534.000
  0
VERTEX
  8
Unknown_Area_Type
  10
400637.492
  20
4710810.000
  0
VERTEX
  8
Unknown_Area_Type
  10
400496.828
  20
4715120.000
  0
VERTEX
  8
Unknown_Area_Type
  10
400495.000
  20
4715176.000
  0
VERTEX
  8
Unknown_Area_Type
  10
400495.000
  20
4715184.000
  0
VERTEX
  8
Unknown_Area_Type
  10
400495.771
  20
4715184.007
  0
VERTEX
  8
Unknown_Area_Type
  10
400549.000
  20
4715184.500
  0
VERTEX
  8
Unknown_Area_Type
  10
402556.308
  20
4715195.652
  0
VERTEX
  8
Unknown_Area_Type
  10
402556.306
  20
4715195.540
  0
VERTEX
  8
Unknown_Area_Type
  10
402524.343
  20
4712916.325
  0
VERTEX
  8
Unknown_Area_Type
  10
402491.915
  20
4710602.957
  0
SEQEND
  8
Unknown_Area_Type
  0
POLYLINE
  8
Unknown_Area_Type
  70
1
  66
1
  0
VERTEX
  8
Unknown_Area_Type
  10
401497.138
  20
4710116.965
  0
VERTEX
  8
Unknown_Area_Type
  10
402313.500
  20
4709716.500
  0
VERTEX
  8
Unknown_Area_Type
  10
402313.937
  20
4709716.521
  0
VERTEX
  8
Unknown_Area_Type
  10
402327.704
  20
4709717.182
  0
VERTEX
  8
Unknown_Area_Type
  10
402376.000
  20
4709719.500
  0
VERTEX
  8
Unknown_Area_Type
  10
402479.515
  20
4709718.042
  0
VERTEX
  8
Unknown_Area_Type
  10
402459.499
  20
4708289.597
  0
VERTEX
  8
Unknown_Area_Type
  10
402436.800
  20
4706669.053
  0
VERTEX
  8
Unknown_Area_Type
  10
402436.799
  20
4706669.000
  0
VERTEX
  8
Unknown_Area_Type
  10
401083.380
  20
4706180.000
  0
VERTEX
  8
Unknown_Area_Type
  10
400591.826
  20
4706002.398
  0
VERTEX
  8
Unknown_Area_Type
  10
400591.140
  20
4706002.408
  0
VERTEX
  8
Unknown_Area_Type
  10
399003.439
  20
4706025.032
  0
VERTEX
  8
Unknown_Area_Type
  10
398485.148
  20
4706032.673
  0
VERTEX
  8
Unknown_Area_Type
  10
398015.184
  20
4706180.000
  0
VERTEX
  8
Unknown_Area_Type
  10
397978.500
  20
4706191.500
  0
VERTEX
  8
Unknown_Area_Type
  10
397978.532
  20
4706192.414
  0
VERTEX
  8
Unknown_Area_Type
  10
398117.668
  20
4710228.344
  0
VERTEX
  8
Unknown_Area_Type
  10
398123.000
  20
4710383.000
  0
VERTEX
  8
Unknown_Area_Type
  10
400078.683
  20
4710500.000
  0
VERTEX
  8
Unknown_Area_Type
  10
400225.845
  20
4710508.804
  0
VERTEX
  8
Unknown_Area_Type
  10
400646.554
  20
4710533.973
  0
VERTEX
  8
Unknown_Area_Type
  10
400647.000
  20
4710534.000
  0
VERTEX
  8
Unknown_Area_Type
  10
400716.310
  20
4710500.000
  0
VERTEX
  8
Unknown_Area_Type
  10
401497.138
  20
4710116.965
  0
SEQEND
  8
Unknown_Area_Type
  0
POLYLINE
  8
Unknown_Area_Type
  70
1
  66
1
  0
VERTEX
  8
Unknown_Area_Type
  10
402686.682
  20
4724483.286
  0
VERTEX
  8
Unknown_Area_Type
  10
402675.906
  20
4723716.047
  0
VERTEX
  8
Unknown_Area_Type
  10
401392.500
  20
4724090.500
  0
VERTEX
  8
Unknown_Area_Type
  10
401389.500
  20
4724091.500
  0
VERTEX
  8
Unknown_Area_Type
  10
401389.500
  20
4724100.000
  0
VERTEX
  8
Unknown_Area_Type
  10
401385.000
  20
4724104.500
  0
VERTEX
  8
Unknown_Area_Type
  10
401375.000
  20
4724104.500
  0
VERTEX
  8
Unknown_Area_Type
  10
401370.500
  20
4724100.000
  0
VERTEX
  8
Unknown_Area_Type
  10
401370.500
  20
4724097.500
  0
VERTEX
  8
Unknown_Area_Type
  10
401368.500
  20
4724097.500
  0
VERTEX
  8
Unknown_Area_Type
  10
401140.500
  20
4724164.000
  0
VERTEX
  8
Unknown_Area_Type
  10
401130.000
  20
4724174.500
  0
VERTEX
  8
Unknown_Area_Type
  10
401110.000
  20
4724174.500
  0
VERTEX
  8
Unknown_Area_Type
  10
401108.000
  20
4724173.500
  0
VERTEX
  8
Unknown_Area_Type
  10
401051.500
  20
4724190.000
  0
VERTEX
  8
Unknown_Area_Type
  10
401051.364
  20
4724190.079
  0
VERTEX
  8
Unknown_Area_Type
  10
400852.000
  20
4724305.000
  0
VERTEX
  8
Unknown_Area_Type
  10
400852.023
  20
4724305.487
  0
VERTEX
  8
Unknown_Area_Type
  10
400855.531
  20
4724380.000
  0
VERTEX
  8
Unknown_Area_Type
  10
400861.621
  20
4724509.376
  0
VERTEX
  8
Unknown_Area_Type
  10
402686.682
  20
4724483.286
  0
SEQEND
  8
Unknown_Area_Type
  0
POLYLINE
  8
Unknown_Area_Type
  70
1
  66
1
  0
VERTEX
  8
Unknown_Area_Type
  10
378849.750
  20
4716091.000
  0
VERTEX
  8
Unknown_Area_Type
  10
378703.000
  20
4716038.000
  0
VERTEX
  8
Unknown_Area_Type
  10
378702.229
  20
4716038.082
  0
VERTEX
  8
Unknown_Area_Type
  10
376441.000
  20
4716278.500
  0
VERTEX
  8
Unknown_Area_Type
  10
376441.243
  20
4716283.203
  0
VERTEX
  8
Unknown_Area_Type
  10
376637.104
  20
4720070.000
  0
VERTEX
  8
Unknown_Area_Type
  10
376654.173
  20
4720400.000
  0
VERTEX
  8
Unknown_Area_Type
  10
376662.500
  20
4720561.000
  0
VERTEX
  8
Unknown_Area_Type
  10
376663.400
  20
4720561.236
  0
VERTEX
  8
Unknown_Area_Type
  10
378126.000
  20
4720944.500
  0
VERTEX
  8
Unknown_Area_Type
  10
378128.000
  20
4720945.000
  0
VERTEX
  8
Unknown_Area_Type
  10
378128.345
  20
4720944.828
  0
VERTEX
  8
Unknown_Area_Type
  10
378656.500
  20
4720681.500
  0
VERTEX
  8
Unknown_Area_Type
  10
379184.684
  20
4720418.157
  0
VERTEX
  8
Unknown_Area_Type
  10
379185.000
  20
4720418.000
  0
VERTEX
  8
Unknown_Area_Type
  10
379184.206
  20
4720400.000
  0
VERTEX
  8
Unknown_Area_Type
  10
379169.652
  20
4720070.000
  0
VERTEX
  8
Unknown_Area_Type
  10
378996.500
  20
4716144.000
  0
VERTEX
  8
Unknown_Area_Type
  10
378849.750
  20
4716091.000
  0
SEQEND
  8
Unknown_Area_Type
  0
POLYLINE
  8
Unknown_Area_Type
  70
1
  66
1
  0
VERTEX
  8
Unknown_Area_Type
  10
381612.899
  20
4716000.962
  0
VERTEX
  8
Unknown_Area_Type
  10
381323.000
  20
4715891.000
  0
VERTEX
  8
Unknown_Area_Type
  10
381321.835
  20
4715891.127
  0
VERTEX
  8
Unknown_Area_Type
  10
379217.988
  20
4716119.914
  0
VERTEX
  8
Unknown_Area_Type
  10
378997.267
  20
4716143.917
  0
VERTEX
  8
Unknown_Area_Type
  10
378996.500
  20
4716144.000
  0
VERTEX
  8
Unknown_Area_Type
  10
379169.253
  20
4720070.000
  0
VERTEX
  8
Unknown_Area_Type
  10
379183.774
  20
4720400.000
  0
VERTEX
  8
Unknown_Area_Type
  10
379184.500
  20
4720416.500
  0
VERTEX
  8
Unknown_Area_Type
  10
379185.000
  20
4720418.000
  0
VERTEX
  8
Unknown_Area_Type
  10
379189.000
  20
4720419.000
  0
VERTEX
  8
Unknown_Area_Type
  10
379772.007
  20
4720553.256
  0
VERTEX
  8
Unknown_Area_Type
  10
380216.000
  20
4720655.500
  0
VERTEX
  8
Unknown_Area_Type
  10
380218.000
  20
4720656.000
  0
VERTEX
  8
Unknown_Area_Type
  10
380529.294
  20
4720727.451
  0
VERTEX
  8
Unknown_Area_Type
  10
380992.777
  20
4720833.834
  0
VERTEX
  8
Unknown_Area_Type
  10
380993.500
  20
4720834.000
  0
VERTEX
  8
Unknown_Area_Type
  10
381716.547
  20
4720400.000
  0
VERTEX
  8
Unknown_Area_Type
  10
381834.000
  20
4720329.500
  0
VERTEX
  8
Unknown_Area_Type
  10
381833.975
  20
4720329.015
  0
VERTEX
  8
Unknown_Area_Type
  10
381820.751
  20
4720070.000
  0
VERTEX
  8
Unknown_Area_Type
  10
381613.000
  20
4716001.000
  0
VERTEX
  8
Unknown_Area_Type
  10
381612.899
  20
4716000.962
  0
SEQEND
  8
Unknown_Area_Type
  0
POLYLINE
  8
Unknown_Area_Type
  70
1
  66
1
  0
VERTEX
  8
Unknown_Area_Type
  10
387059.779
  20
4715886.416
  0
VERTEX
  8
Unknown_Area_Type
  10
386600.000
  20
4715711.500
  0
VERTEX
  8
Unknown_Area_Type
  10
386599.207
  20
4715711.579
  0
VERTEX
  8
Unknown_Area_Type
  10
386158.100
  20
4715755.400
  0
VERTEX
  8
Unknown_Area_Type
  10
384390.500
  20
4715931.000
  0
VERTEX
  8
Unknown_Area_Type
  10
384437.572
  20
4719960.000
  0
VERTEX
  8
Unknown_Area_Type
  10
384441.311
  20
4720280.000
  0
VERTEX
  8
Unknown_Area_Type
  10
384442.000
  20
4720339.000
  0
VERTEX
  8
Unknown_Area_Type
  10
385216.774
  20
4720404.882
  0
VERTEX
  8
Unknown_Area_Type
  10
386353.000
  20
4720501.500
  0
VERTEX
  8
Unknown_Area_Type
  10
386359.000
  20
4720502.000
  0
VERTEX
  8
Unknown_Area_Type
  10
386954.997
  20
4720552.500
  0
VERTEX
  8
Unknown_Area_Type
  10
386955.000
  20
4720552.500
  0
VERTEX
  8
Unknown_Area_Type
  10
387180.000
  20
4720390.000
  0
VERTEX
  8
Unknown_Area_Type
  10
387179.987
  20
4720389.508
  0
VERTEX
  8
Unknown_Area_Type
  10
387177.069
  20
4720280.000
  0
VERTEX
  8
Unknown_Area_Type
  10
387168.542
  20
4719960.000
  0
VERTEX
  8
Unknown_Area_Type
  10
387060.000
  20
4715886.500
  0
VERTEX
  8
Unknown_Area_Type
  10
387059.779
  20
4715886.416
  0
SEQEND
  8
Unknown_Area_Type
  0
POLYLINE
  8
Unknown_Area_Type
  70
1
  66
1
  0
VERTEX
  8
Unknown_Area_Type
  10
376030.657
  20
4716140.553
  0
VERTEX
  8
Unknown_Area_Type
  10
376030.500
  20
4716140.500
  0
VERTEX
  8
Unknown_Area_Type
  10
375390.000
  20
4716239.226
  0
VERTEX
  8
Unknown_Area_Type
  10
375214.576
  20
4716266.266
  0
VERTEX
  8
Unknown_Area_Type
  10
375214.576
  20
4716266.313
  0
VERTEX
  8
Unknown_Area_Type
  10
375245.381
  20
4717980.643
  0
VERTEX
  8
Unknown_Area_Type
  10
375286.967
  20
4720294.062
  0
VERTEX
  8
Unknown_Area_Type
  10
375301.562
  20
4721105.677
  0
VERTEX
  8
Unknown_Area_Type
  10
375301.572
  20
4721106.231
  0
VERTEX
  8
Unknown_Area_Type
  10
375326.500
  20
4721115.500
  0
VERTEX
  8
Unknown_Area_Type
  10
375328.000
  20
4721115.500
  0
VERTEX
  8
Unknown_Area_Type
  10
375329.000
  20
4721115.500
  0
VERTEX
  8
Unknown_Area_Type
  10
375354.500
  20
4721105.000
  0
VERTEX
  8
Unknown_Area_Type
  10
375480.000
  20
4721052.804
  0
VERTEX
  8
Unknown_Area_Type
  10
376660.374
  20
4720561.884
  0
VERTEX
  8
Unknown_Area_Type
  10
376662.500
  20
4720561.000
  0
VERTEX
  8
Unknown_Area_Type
  10
376654.179
  20
4720400.000
  0
VERTEX
  8
Unknown_Area_Type
  10
376637.123
  20
4720070.000
  0
VERTEX
  8
Unknown_Area_Type
  10
376441.500
  20
4716285.000
  0
VERTEX
  8
Unknown_Area_Type
  10
376441.243
  20
4716283.203
  0
VERTEX
  8
Unknown_Area_Type
  10
376440.570
  20
4716278.492
  0
VERTEX
  8
Unknown_Area_Type
  10
376440.500
  20
4716278.000
  0
VERTEX
  8
Unknown_Area_Type
  10
376333.500
  20
4716242.000
  0
VERTEX
  8
Unknown_Area_Type
  10
376332.000
  20
4716242.000
  0
VERTEX
  8
Unknown_Area_Type
  10
376030.929
  20
4716140.644
  0
VERTEX
  8
Unknown_Area_Type
  10
376030.657
  20
4716140.553
  0
SEQEND
  8
Unknown_Area_Type
  0
POLYLINE
  8
Unknown_Area_Type
  70
1
  66
1
  0
VERTEX
  8
Unknown_Area_Type
  10
389468.388
  20
4715666.056
  0
VERTEX
  8
Unknown_Area_Type
  10
389391.500
  20
4715635.500
  0
VERTEX
  8
Unknown_Area_Type
  10
389060.000
  20
4715671.188
  0
VERTEX
  8
Unknown_Area_Type
  10
388780.000
  20
4715701.332
  0
VERTEX
  8
Unknown_Area_Type
  10
388411.527
  20
4715741.000
  0
VERTEX
  8
Unknown_Area_Type
  10
387060.000
  20
4715886.500
  0
VERTEX
  8
Unknown_Area_Type
  10
387168.554
  20
4719960.000
  0
VERTEX
  8
Unknown_Area_Type
  10
387177.082
  20
4720280.000
  0
VERTEX
  8
Unknown_Area_Type
  10
387180.000
  20
4720389.500
  0
VERTEX
  8
Unknown_Area_Type
  10
388381.000
  20
4720410.000
  0
VERTEX
  8
Unknown_Area_Type
  10
388410.500
  20
4720410.500
  0
VERTEX
  8
Unknown_Area_Type
  10
388850.000
  20
4720417.915
  0
VERTEX
  8
Unknown_Area_Type
  10
389130.000
  20
4720422.639
  0
VERTEX
  8
Unknown_Area_Type
  10
389833.000
  20
4720434.500
  0
VERTEX
  8
Unknown_Area_Type
  10
389853.000
  20
4720434.500
  0
VERTEX
  8
Unknown_Area_Type
  10
389853.500
  20
4720434.500
  0
VERTEX
  8
Unknown_Area_Type
  10
389868.500
  20
4720423.500
  0
VERTEX
  8
Unknown_Area_Type
  10
389868.494
  20
4720423.376
  0
VERTEX
  8
Unknown_Area_Type
  10
389868.467
  20
4720422.868
  0
VERTEX
  8
Unknown_Area_Type
  10
389855.247
  20
4720170.000
  0
VERTEX
  8
Unknown_Area_Type
  10
389838.518
  20
4719850.000
  0
VERTEX
  8
Unknown_Area_Type
  10
389623.000
  20
4715727.500
  0
VERTEX
  8
Unknown_Area_Type
  10
389622.815
  20
4715727.427
  0
VERTEX
  8
Unknown_Area_Type
  10
389468.388
  20
4715666.056
  0
SEQEND
  8
Unknown_Area_Type
  0
POLYLINE
  8
Unknown_Area_Type
  70
1
  66
1
  0
VERTEX
  8
Unknown_Area_Type
  10
383984.000
  20
4715776.000
  0
VERTEX
  8
Unknown_Area_Type
  10
383980.500
  20
4715776.000
  0
VERTEX
  8
Unknown_Area_Type
  10
383005.653
  20
4715868.647
  0
VERTEX
  8
Unknown_Area_Type
  10
382230.000
  20
4715942.362
  0
VERTEX
  8
Unknown_Area_Type
  10
381940.000
  20
4715969.923
  0
VERTEX
  8
Unknown_Area_Type
  10
381613.000
  20
4716001.000
  0
VERTEX
  8
Unknown_Area_Type
  10
381820.775
  20
4720070.000
  0
VERTEX
  8
Unknown_Area_Type
  10
381834.000
  20
4720329.000
  0
VERTEX
  8
Unknown_Area_Type
  10
382020.000
  20
4720355.906
  0
VERTEX
  8
Unknown_Area_Type
  10
382230.000
  20
4720386.283
  0
VERTEX
  8
Unknown_Area_Type
  10
382300.000
  20
4720396.409
  0
VERTEX
  8
Unknown_Area_Type
  10
383980.500
  20
4720639.500
  0
VERTEX
  8
Unknown_Area_Type
  10
383982.000
  20
4720639.500
  0
VERTEX
  8
Unknown_Area_Type
  10
383982.500
  20
4720639.500
  0
VERTEX
  8
Unknown_Area_Type
  10
383986.500
  20
4720637.000
  0
VERTEX
  8
Unknown_Area_Type
  10
384315.000
  20
4720421.500
  0
VERTEX
  8
Unknown_Area_Type
  10
384316.000
  20
4720421.000
  0
VERTEX
  8
Unknown_Area_Type
  10
384441.885
  20
4720339.075
  0
VERTEX
  8
Unknown_Area_Type
  10
384442.000
  20
4720339.000
  0
VERTEX
  8
Unknown_Area_Type
  10
384441.311
  20
4720280.000
  0
VERTEX
  8
Unknown_Area_Type
  10
384437.572
  20
4719960.000
  0
VERTEX
  8
Unknown_Area_Type
  10
384390.500
  20
4715931.000
  0
VERTEX
  8
Unknown_Area_Type
  10
383989.000
  20
4715777.500
  0
VERTEX
  8
Unknown_Area_Type
  10
383985.000
  20
4715776.000
  0
VERTEX
  8
Unknown_Area_Type
  10
383984.000
  20
4715776.000
  0
SEQEND
  8
Unknown_Area_Type
  0
POLYLINE
  8
Unknown_Area_Type
  70
1
  66
1
  0
VERTEX
  8
Unknown_Area_Type
  10
400349.714
  20
4715430.000
  0
VERTEX
  8
Unknown_Area_Type
  10
400334.500
  20
4715283.500
  0
VERTEX
  8
Unknown_Area_Type
  10
397778.367
  20
4715294.479
  0
VERTEX
  8
Unknown_Area_Type
  10
397774.000
  20
4715294.499
  0
VERTEX
  8
Unknown_Area_Type
  10
397773.500
  20
4715294.500
  0
VERTEX
  8
Unknown_Area_Type
  10
397586.500
  20
4715403.500
  0
VERTEX
  8
Unknown_Area_Type
  10
397584.500
  20
4715405.000
  0
VERTEX
  8
Unknown_Area_Type
  10
397584.500
  20
4715409.000
  0
VERTEX
  8
Unknown_Area_Type
  10
397586.604
  20
4715430.000
  0
VERTEX
  8
Unknown_Area_Type
  10
397996.000
  20
4719517.000
  0
VERTEX
  8
Unknown_Area_Type
  10
398606.947
  20
4719658.435
  0
VERTEX
  8
Unknown_Area_Type
  10
399002.475
  20
4719750.000
  0
VERTEX
  8
Unknown_Area_Type
  10
399413.470
  20
4719845.146
  0
VERTEX
  8
Unknown_Area_Type
  10
399414.494
  20
4719845.383
  0
VERTEX
  8
Unknown_Area_Type
  10
399415.000
  20
4719845.500
  0
VERTEX
  8
Unknown_Area_Type
  10
399638.500
  20
4719819.000
  0
VERTEX
  8
Unknown_Area_Type
  10
399638.643
  20
4719818.941
  0
VERTEX
  8
Unknown_Area_Type
  10
399805.185
  20
4719750.000
  0
VERTEX
  8
Unknown_Area_Type
  10
400699.000
  20
4719380.000
  0
VERTEX
  8
Unknown_Area_Type
  10
400699.197
  20
4719379.902
  0
VERTEX
  8
Unknown_Area_Type
  10
400700.000
  20
4719379.500
  0
VERTEX
  8
Unknown_Area_Type
  10
400705.934
  20
4719377.116
  0
VERTEX
  8
Unknown_Area_Type
  10
400756.000
  20
4719357.000
  0
VERTEX
  8
Unknown_Area_Type
  10
400757.000
  20
4719356.500
  0
VERTEX
  8
Unknown_Area_Type
  10
400757.000
  20
4719356.000
  0
VERTEX
  8
Unknown_Area_Type
  10
400757.000
  20
4719352.000
  0
VERTEX
  8
Unknown_Area_Type
  10
400381.418
  20
4715735.298
  0
VERTEX
  8
Unknown_Area_Type
  10
400349.714
  20
4715430.000
  0
SEQEND
  8
Unknown_Area_Type
  0
POLYLINE
  8
Unknown_Area_Type
  70
1
  66
1
  0
VERTEX
  8
Unknown_Area_Type
  10
397587.002
  20
4715430.000
  0
VERTEX
  8
Unknown_Area_Type
  10
397584.500
  20
4715405.000
  0
VERTEX
  8
Unknown_Area_Type
  10
396503.245
  20
4715407.500
  0
VERTEX
  8
Unknown_Area_Type
  10
395890.000
  20
4715408.918
  0
VERTEX
  8
Unknown_Area_Type
  10
395820.000
  20
4715409.080
  0
VERTEX
  8
Unknown_Area_Type
  10
395610.000
  20
4715409.565
  0
VERTEX
  8
Unknown_Area_Type
  10
395540.000
  20
4715409.727
  0
VERTEX
  8
Unknown_Area_Type
  10
394989.504
  20
4715411.000
  0
VERTEX
  8
Unknown_Area_Type
  10
394989.500
  20
4715411.000
  0
VERTEX
  8
Unknown_Area_Type
  10
394760.408
  20
4715540.000
  0
VERTEX
  8
Unknown_Area_Type
  10
393567.437
  20
4716211.754
  0
VERTEX
  8
Unknown_Area_Type
  10
393567.000
  20
4716212.000
  0
VERTEX
  8
Unknown_Area_Type
  10
393836.500
  20
4719283.500
  0
VERTEX
  8
Unknown_Area_Type
  10
393836.947
  20
4719284.393
  0
VERTEX
  8
Unknown_Area_Type
  10
393837.278
  20
4719285.056
  0
VERTEX
  8
Unknown_Area_Type
  10
393837.500
  20
4719285.500
  0
VERTEX
  8
Unknown_Area_Type
  10
394554.500
  20
4719665.500
  0
VERTEX
  8
Unknown_Area_Type
  10
394555.500
  20
4719666.000
  0
VERTEX
  8
Unknown_Area_Type
  10
394902.677
  20
4719850.000
  0
VERTEX
  8
Unknown_Area_Type
  10
395506.462
  20
4720170.000
  0
VERTEX
  8
Unknown_Area_Type
  10
395522.500
  20
4720178.500
  0
VERTEX
  8
Unknown_Area_Type
  10
395524.124
  20
4720178.771
  0
VERTEX
  8
Unknown_Area_Type
  10
395527.155
  20
4720179.276
  0
VERTEX
  8
Unknown_Area_Type
  10
395528.500
  20
4720179.500
  0
VERTEX
  8
Unknown_Area_Type
  10
395598.647
  20
4720170.000
  0
VERTEX
  8
Unknown_Area_Type
  10
395680.000
  20
4720158.982
  0
VERTEX
  8
Unknown_Area_Type
  10
395890.000
  20
4720130.542
  0
VERTEX
  8
Unknown_Area_Type
  10
395960.000
  20
4720121.062
  0
VERTEX
  8
Unknown_Area_Type
  10
396410.872
  20
4720060.000
  0
VERTEX
  8
Unknown_Area_Type
  10
397038.500
  20
4719975.000
  0
VERTEX
  8
Unknown_Area_Type
  10
397039.070
  20
4719974.728
  0
VERTEX
  8
Unknown_Area_Type
  10
397508.888
  20
4719750.000
  0
VERTEX
  8
Unknown_Area_Type
  10
397995.837
  20
4719517.078
  0
VERTEX
  8
Unknown_Area_Type
  10
397996.000
  20
4719517.000
  0
VERTEX
  8
Unknown_Area_Type
  10
397587.002
  20
4715430.000
  0
SEQEND
  8
Unknown_Area_Type
  0
POLYLINE
  8
Unknown_Area_Type
  70
1
  66
1
  0
VERTEX
  8
Unknown_Area_Type
  10
390450.055
  20
4720386.043
  0
VERTEX
  8
Unknown_Area_Type
  10
390458.500
  20
4720385.500
  0
VERTEX
  8
Unknown_Area_Type
  10
390458.616
  20
4720385.500
  0
VERTEX
  8
Unknown_Area_Type
  10
390460.000
  20
4720385.500
  0
VERTEX
  8
Unknown_Area_Type
  10
392671.500
  20
4720245.500
  0
VERTEX
  8
Unknown_Area_Type
  10
392671.514
  20
4720245.489
  0
VERTEX
  8
Unknown_Area_Type
  10
392763.114
  20
4720170.000
  0
VERTEX
  8
Unknown_Area_Type
  10
393151.412
  20
4719850.000
  0
VERTEX
  8
Unknown_Area_Type
  10
393836.782
  20
4719285.179
  0
VERTEX
  8
Unknown_Area_Type
  10
393837.000
  20
4719285.000
  0
VERTEX
  8
Unknown_Area_Type
  10
393836.947
  20
4719284.393
  0
VERTEX
  8
Unknown_Area_Type
  10
393567.000
  20
4716212.000
  0
VERTEX
  8
Unknown_Area_Type
  10
393550.222
  20
4716204.238
  0
VERTEX
  8
Unknown_Area_Type
  10
392208.500
  20
4715583.500
  0
VERTEX
  8
Unknown_Area_Type
  10
392207.607
  20
4715583.550
  0
VERTEX
  8
Unknown_Area_Type
  10
391643.601
  20
4715614.962
  0
VERTEX
  8
Unknown_Area_Type
  10
390457.901
  20
4715681.000
  0
VERTEX
  8
Unknown_Area_Type
  10
389623.000
  20
4715727.500
  0
VERTEX
  8
Unknown_Area_Type
  10
389838.194
  20
4719850.000
  0
VERTEX
  8
Unknown_Area_Type
  10
389854.898
  20
4720170.000
  0
VERTEX
  8
Unknown_Area_Type
  10
389868.000
  20
4720421.000
  0
VERTEX
  8
Unknown_Area_Type
  10
389868.467
  20
4720422.868
  0
VERTEX
  8
Unknown_Area_Type
  10
389868.500
  20
4720423.000
  0
VERTEX
  8
Unknown_Area_Type
  10
389871.500
  20
4720423.000
  0
VERTEX
  8
Unknown_Area_Type
  10
389875.500
  20
4720423.000
  0
VERTEX
  8
Unknown_Area_Type
  10
390450.055
  20
4720386.043
  0
SEQEND
  8
Unknown_Area_Type
  0
POLYLINE
  8
Unknown_Area_Type
  70
1
  66
1
  0
VERTEX
  8
Unknown_Area_Type
  10
400494.996
  20
4715184.003
  0
VERTEX
  8
Unknown_Area_Type
  10
400494.500
  20
4715184.000
  0
VERTEX
  8
Unknown_Area_Type
  10
400334.500
  20
4715283.000
  0
VERTEX
  8
Unknown_Area_Type
  10
400334.549
  20
4715283.470
  0
VERTEX
  8
Unknown_Area_Type
  10
400349.749
  20
4715430.000
  0
VERTEX
  8
Unknown_Area_Type
  10
400381.418
  20
4715735.298
  0
VERTEX
  8
Unknown_Area_Type
  10
400757.000
  20
4719356.000
  0
VERTEX
  8
Unknown_Area_Type
  10
402353.097
  20
4719750.000
  0
VERTEX
  8
Unknown_Area_Type
  10
402621.142
  20
4719816.167
  0
VERTEX
  8
Unknown_Area_Type
  10
402589.240
  20
4717543.085
  0
VERTEX
  8
Unknown_Area_Type
  10
402556.785
  20
4715229.701
  0
VERTEX
  8
Unknown_Area_Type
  10
402556.308
  20
4715195.652
  0
VERTEX
  8
Unknown_Area_Type
  10
402556.306
  20
4715195.540
  0
VERTEX
  8
Unknown_Area_Type
  10
400495.771
  20
4715184.007
  0
VERTEX
  8
Unknown_Area_Type
  10
400494.996
  20
4715184.003
  0
SEQEND
  8
Unknown_Area_Type
  0
POLYLINE
  8
Unknown_Area_Type
  70
1
  66
1
  0
VERTEX
  8
Unknown_Area_Type
  10
397995.837
  20
4719517.078
  0
VERTEX
  8
Unknown_Area_Type
  10
397995.500
  20
4719517.000
  0
VERTEX
  8
Unknown_Area_Type
  10
397508.365
  20
4719750.000
  0
VERTEX
  8
Unknown_Area_Type
  10
397039.000
  20
4719974.500
  0
VERTEX
  8
Unknown_Area_Type
  10
397039.070
  20
4719974.728
  0
VERTEX
  8
Unknown_Area_Type
  10
397065.142
  20
4720060.000
  0
VERTEX
  8
Unknown_Area_Type
  10
398363.948
  20
4724307.830
  0
VERTEX
  8
Unknown_Area_Type
  10
398364.000
  20
4724308.000
  0
VERTEX
  8
Unknown_Area_Type
  10
398495.000
  20
4724270.000
  0
VERTEX
  8
Unknown_Area_Type
  10
398652.000
  20
4723515.000
  0
VERTEX
  8
Unknown_Area_Type
  10
398652.000
  20
4723513.716
  0
VERTEX
  8
Unknown_Area_Type
  10
398652.000
  20
4723512.500
  0
VERTEX
  8
Unknown_Area_Type
  10
399368.859
  20
4720060.000
  0
VERTEX
  8
Unknown_Area_Type
  10
399413.470
  20
4719845.146
  0
VERTEX
  8
Unknown_Area_Type
  10
399413.500
  20
4719845.000
  0
VERTEX
  8
Unknown_Area_Type
  10
399002.799
  20
4719750.000
  0
VERTEX
  8
Unknown_Area_Type
  10
398606.947
  20
4719658.435
  0
VERTEX
  8
Unknown_Area_Type
  10
397995.837
  20
4719517.078
  0
SEQEND
  8
Unknown_Area_Type
  0
POLYLINE
  8
Unknown_Area_Type
  70
1
  66
1
  0
VERTEX
  8
Unknown_Area_Type
  10
401051.500
  20
4724190.000
  0
VERTEX
  8
Unknown_Area_Type
  10
401108.000
  20
4724173.500
  0
VERTEX
  8
Unknown_Area_Type
  10
401110.000
  20
4724174.500
  0
VERTEX
  8
Unknown_Area_Type
  10
401130.000
  20
4724174.500
  0
VERTEX
  8
Unknown_Area_Type
  10
401140.500
  20
4724164.000
  0
VERTEX
  8
Unknown_Area_Type
  10
401368.500
  20
4724097.500
  0
VERTEX
  8
Unknown_Area_Type
  10
401370.500
  20
4724097.500
  0
VERTEX
  8
Unknown_Area_Type
  10
401370.500
  20
4724100.000
  0
VERTEX
  8
Unknown_Area_Type
  10
401375.000
  20
4724104.500
  0
VERTEX
  8
Unknown_Area_Type
  10
401385.000
  20
4724104.500
  0
VERTEX
  8
Unknown_Area_Type
  10
401389.500
  20
4724100.000
  0
VERTEX
  8
Unknown_Area_Type
  10
401389.500
  20
4724091.500
  0
VERTEX
  8
Unknown_Area_Type
  10
401392.500
  20
4724090.500
  0
VERTEX
  8
Unknown_Area_Type
  10
402675.906
  20
4723716.047
  0
VERTEX
  8
Unknown_Area_Type
  10
402654.189
  20
4722169.878
  0
VERTEX
  8
Unknown_Area_Type
  10
402621.708
  20
4719856.478
  0
VERTEX
  8
Unknown_Area_Type
  10
402621.142
  20
4719816.167
  0
VERTEX
  8
Unknown_Area_Type
  10
402353.097
  20
4719750.000
  0
VERTEX
  8
Unknown_Area_Type
  10
400757.000
  20
4719356.000
  0
VERTEX
  8
Unknown_Area_Type
  10
400705.934
  20
4719377.116
  0
VERTEX
  8
Unknown_Area_Type
  10
400699.197
  20
4719379.902
  0
VERTEX
  8
Unknown_Area_Type
  10
399804.159
  20
4719750.000
  0
VERTEX
  8
Unknown_Area_Type
  10
399638.500
  20
4719818.500
  0
VERTEX
  8
Unknown_Area_Type
  10
399638.643
  20
4719818.941
  0
VERTEX
  8
Unknown_Area_Type
  10
399716.560
  20
4720060.000
  0
VERTEX
  8
Unknown_Area_Type
  10
400699.500
  20
4723101.000
  0
VERTEX
  8
Unknown_Area_Type
  10
400699.500
  20
4723102.198
  0
VERTEX
  8
Unknown_Area_Type
  10
400699.500
  20
4723102.500
  0
VERTEX
  8
Unknown_Area_Type
  10
400832.021
  20
4723511.923
  0
VERTEX
  8
Unknown_Area_Type
  10
401051.500
  20
4724190.000
  0
SEQEND
  8
Unknown_Area_Type
  0
ENDSEC
  0
EOF
