  0
SECTION
  2
HEADER
  9
$ACADVER
  1
AC1009
  9
$LUNITS
  70
2
  9
$LIMMIN
  10
375370.188
  20
4724483.286
  9
$LIMMAX
  10
402947.096
  20
4743428.686
  9
$EXTMIN
  10
375370.188
  20
4724483.286
  9
$EXTMAX
  10
402947.096
  20
4743428.686
  999
Created by Global Mapper
  999
Projection: UTM
  999
Datum: ETRS89
  999
Ground Units: meters
  999
ZONE: 30
  0
ENDSEC
  0
SECTION
  2
TABLES
  0
ENDSEC
  0
SECTION
  2
BLOCKS
  0
BLOCK
  8
FeatureAttribs
  70
0
  2
FEATURE
  3
FEATURE
  10
0.00000000
  20
0.00000000
  0
ATTDEF
  8
FeatureAttribs
  70
0
  1
 
  2
NAME
  3
NAME
  10
0.00000000
  20
0.00000000
  40
1.00000000
  0
ENDBLK
  0
ENDSEC
  0
SECTION
  2
ENTITIES
  0
POLYLINE
  8
Unknown_Area_Type
  70
1
  66
1
  0
VERTEX
  8
Unknown_Area_Type
  10
398754.850
  20
4737136.621
  0
VERTEX
  8
Unknown_Area_Type
  10
398754.000
  20
4737136.500
  0
VERTEX
  8
Unknown_Area_Type
  10
396957.000
  20
4737326.000
  0
VERTEX
  8
Unknown_Area_Type
  10
396994.726
  20
4738260.000
  0
VERTEX
  8
Unknown_Area_Type
  10
397007.248
  20
4738570.000
  0
VERTEX
  8
Unknown_Area_Type
  10
397144.500
  20
4741968.000
  0
VERTEX
  8
Unknown_Area_Type
  10
397144.626
  20
4741968.040
  0
VERTEX
  8
Unknown_Area_Type
  10
397931.848
  20
4742215.186
  0
VERTEX
  8
Unknown_Area_Type
  10
398073.000
  20
4742259.500
  0
VERTEX
  8
Unknown_Area_Type
  10
398074.500
  20
4742260.000
  0
VERTEX
  8
Unknown_Area_Type
  10
398075.500
  20
4742260.000
  0
VERTEX
  8
Unknown_Area_Type
  10
398077.387
  20
4742246.793
  0
VERTEX
  8
Unknown_Area_Type
  10
398078.500
  20
4742239.000
  0
VERTEX
  8
Unknown_Area_Type
  10
398447.203
  20
4739560.112
  0
VERTEX
  8
Unknown_Area_Type
  10
398583.474
  20
4738570.000
  0
VERTEX
  8
Unknown_Area_Type
  10
398626.141
  20
4738260.000
  0
VERTEX
  8
Unknown_Area_Type
  10
398778.500
  20
4737153.000
  0
VERTEX
  8
Unknown_Area_Type
  10
398778.979
  20
4737146.290
  0
VERTEX
  8
Unknown_Area_Type
  10
398779.000
  20
4737146.000
  0
VERTEX
  8
Unknown_Area_Type
  10
398757.500
  20
4737137.000
  0
VERTEX
  8
Unknown_Area_Type
  10
398755.987
  20
4737136.784
  0
VERTEX
  8
Unknown_Area_Type
  10
398754.850
  20
4737136.621
  0
SEQEND
  8
Unknown_Area_Type
  0
POLYLINE
  8
Unknown_Area_Type
  70
1
  66
1
  0
VERTEX
  8
Unknown_Area_Type
  10
395676.825
  20
4738360.000
  0
VERTEX
  8
Unknown_Area_Type
  10
395654.500
  20
4737276.500
  0
VERTEX
  8
Unknown_Area_Type
  10
393690.500
  20
4737479.000
  0
VERTEX
  8
Unknown_Area_Type
  10
393696.285
  20
4738360.000
  0
VERTEX
  8
Unknown_Area_Type
  10
393698.321
  20
4738670.000
  0
VERTEX
  8
Unknown_Area_Type
  10
393718.500
  20
4741743.000
  0
VERTEX
  8
Unknown_Area_Type
  10
395228.000
  20
4742184.500
  0
VERTEX
  8
Unknown_Area_Type
  10
395229.500
  20
4742185.000
  0
VERTEX
  8
Unknown_Area_Type
  10
395229.732
  20
4742184.922
  0
VERTEX
  8
Unknown_Area_Type
  10
395229.991
  20
4742184.834
  0
VERTEX
  8
Unknown_Area_Type
  10
395572.374
  20
4742069.177
  0
VERTEX
  8
Unknown_Area_Type
  10
395752.000
  20
4742008.500
  0
VERTEX
  8
Unknown_Area_Type
  10
395683.212
  20
4738670.000
  0
VERTEX
  8
Unknown_Area_Type
  10
395676.825
  20
4738360.000
  0
SEQEND
  8
Unknown_Area_Type
  0
POLYLINE
  8
Unknown_Area_Type
  70
1
  66
1
  0
VERTEX
  8
Unknown_Area_Type
  10
402043.000
  20
4737305.000
  0
VERTEX
  8
Unknown_Area_Type
  10
401398.500
  20
4737034.500
  0
VERTEX
  8
Unknown_Area_Type
  10
401398.098
  20
4737034.541
  0
VERTEX
  8
Unknown_Area_Type
  10
400712.833
  20
4737104.667
  0
VERTEX
  8
Unknown_Area_Type
  10
399342.131
  20
4737244.935
  0
VERTEX
  8
Unknown_Area_Type
  10
399341.500
  20
4737245.000
  0
VERTEX
  8
Unknown_Area_Type
  10
399501.772
  20
4738260.000
  0
VERTEX
  8
Unknown_Area_Type
  10
399550.723
  20
4738570.000
  0
VERTEX
  8
Unknown_Area_Type
  10
400244.000
  20
4742960.500
  0
VERTEX
  8
Unknown_Area_Type
  10
400244.334
  20
4742959.450
  0
VERTEX
  8
Unknown_Area_Type
  10
400414.269
  20
4742425.487
  0
VERTEX
  8
Unknown_Area_Type
  10
401577.000
  20
4738772.000
  0
VERTEX
  8
Unknown_Area_Type
  10
401577.500
  20
4738770.000
  0
VERTEX
  8
Unknown_Area_Type
  10
401641.168
  20
4738570.000
  0
VERTEX
  8
Unknown_Area_Type
  10
401739.852
  20
4738260.000
  0
VERTEX
  8
Unknown_Area_Type
  10
402041.000
  20
4737314.000
  0
VERTEX
  8
Unknown_Area_Type
  10
402041.474
  20
4737311.867
  0
VERTEX
  8
Unknown_Area_Type
  10
402042.967
  20
4737305.147
  0
VERTEX
  8
Unknown_Area_Type
  10
402043.000
  20
4737305.000
  0
SEQEND
  8
Unknown_Area_Type
  0
POLYLINE
  8
Unknown_Area_Type
  70
1
  66
1
  0
VERTEX
  8
Unknown_Area_Type
  10
388302.897
  20
4737524.458
  0
VERTEX
  8
Unknown_Area_Type
  10
387749.500
  20
4737301.000
  0
VERTEX
  8
Unknown_Area_Type
  10
387748.354
  20
4737301.142
  0
VERTEX
  8
Unknown_Area_Type
  10
385672.500
  20
4737559.000
  0
VERTEX
  8
Unknown_Area_Type
  10
385678.728
  20
4738460.000
  0
VERTEX
  8
Unknown_Area_Type
  10
385681.010
  20
4738790.000
  0
VERTEX
  8
Unknown_Area_Type
  10
385701.500
  20
4741754.000
  0
VERTEX
  8
Unknown_Area_Type
  10
385701.827
  20
4741754.077
  0
VERTEX
  8
Unknown_Area_Type
  10
387432.500
  20
4742160.500
  0
VERTEX
  8
Unknown_Area_Type
  10
387434.500
  20
4742161.000
  0
VERTEX
  8
Unknown_Area_Type
  10
387434.682
  20
4742160.925
  0
VERTEX
  8
Unknown_Area_Type
  10
387434.991
  20
4742160.798
  0
VERTEX
  8
Unknown_Area_Type
  10
387810.875
  20
4742005.863
  0
VERTEX
  8
Unknown_Area_Type
  10
388337.000
  20
4741789.000
  0
VERTEX
  8
Unknown_Area_Type
  10
388313.091
  20
4738790.000
  0
VERTEX
  8
Unknown_Area_Type
  10
388310.459
  20
4738460.000
  0
VERTEX
  8
Unknown_Area_Type
  10
388303.000
  20
4737524.500
  0
VERTEX
  8
Unknown_Area_Type
  10
388302.897
  20
4737524.458
  0
SEQEND
  8
Unknown_Area_Type
  0
POLYLINE
  8
Unknown_Area_Type
  70
1
  66
1
  0
VERTEX
  8
Unknown_Area_Type
  10
393690.402
  20
4737478.958
  0
VERTEX
  8
Unknown_Area_Type
  10
393233.000
  20
4737284.500
  0
VERTEX
  8
Unknown_Area_Type
  10
393232.593
  20
4737284.540
  0
VERTEX
  8
Unknown_Area_Type
  10
390976.500
  20
4737504.000
  0
VERTEX
  8
Unknown_Area_Type
  10
390978.706
  20
4738360.000
  0
VERTEX
  8
Unknown_Area_Type
  10
390979.505
  20
4738670.000
  0
VERTEX
  8
Unknown_Area_Type
  10
390987.500
  20
4741772.500
  0
VERTEX
  8
Unknown_Area_Type
  10
390987.500
  20
4741773.000
  0
VERTEX
  8
Unknown_Area_Type
  10
392573.000
  20
4742185.500
  0
VERTEX
  8
Unknown_Area_Type
  10
392575.000
  20
4742186.000
  0
VERTEX
  8
Unknown_Area_Type
  10
392575.883
  20
4742185.839
  0
VERTEX
  8
Unknown_Area_Type
  10
392577.823
  20
4742185.487
  0
VERTEX
  8
Unknown_Area_Type
  10
392580.500
  20
4742185.000
  0
VERTEX
  8
Unknown_Area_Type
  10
393718.500
  20
4741743.500
  0
VERTEX
  8
Unknown_Area_Type
  10
393718.497
  20
4741743.001
  0
VERTEX
  8
Unknown_Area_Type
  10
393698.321
  20
4738670.000
  0
VERTEX
  8
Unknown_Area_Type
  10
393696.285
  20
4738360.000
  0
VERTEX
  8
Unknown_Area_Type
  10
393690.500
  20
4737479.000
  0
VERTEX
  8
Unknown_Area_Type
  10
393690.402
  20
4737478.958
  0
SEQEND
  8
Unknown_Area_Type
  0
POLYLINE
  8
Unknown_Area_Type
  70
1
  66
1
  0
VERTEX
  8
Unknown_Area_Type
  10
390976.315
  20
4737503.921
  0
VERTEX
  8
Unknown_Area_Type
  10
390491.000
  20
4737295.500
  0
VERTEX
  8
Unknown_Area_Type
  10
390490.196
  20
4737295.584
  0
VERTEX
  8
Unknown_Area_Type
  10
390076.225
  20
4737338.816
  0
VERTEX
  8
Unknown_Area_Type
  10
389360.000
  20
4737413.614
  0
VERTEX
  8
Unknown_Area_Type
  10
389070.000
  20
4737443.900
  0
VERTEX
  8
Unknown_Area_Type
  10
388303.000
  20
4737524.000
  0
VERTEX
  8
Unknown_Area_Type
  10
388303.004
  20
4737524.447
  0
VERTEX
  8
Unknown_Area_Type
  10
388310.462
  20
4738460.000
  0
VERTEX
  8
Unknown_Area_Type
  10
388313.091
  20
4738790.000
  0
VERTEX
  8
Unknown_Area_Type
  10
388337.000
  20
4741789.000
  0
VERTEX
  8
Unknown_Area_Type
  10
388337.629
  20
4741789.153
  0
VERTEX
  8
Unknown_Area_Type
  10
388409.000
  20
4741806.500
  0
VERTEX
  8
Unknown_Area_Type
  10
388411.000
  20
4741807.000
  0
VERTEX
  8
Unknown_Area_Type
  10
389150.000
  20
4741983.901
  0
VERTEX
  8
Unknown_Area_Type
  10
389430.000
  20
4742050.927
  0
VERTEX
  8
Unknown_Area_Type
  10
389987.002
  20
4742184.261
  0
VERTEX
  8
Unknown_Area_Type
  10
389987.684
  20
4742184.424
  0
VERTEX
  8
Unknown_Area_Type
  10
389988.000
  20
4742184.500
  0
VERTEX
  8
Unknown_Area_Type
  10
390987.500
  20
4741772.500
  0
VERTEX
  8
Unknown_Area_Type
  10
390979.505
  20
4738670.000
  0
VERTEX
  8
Unknown_Area_Type
  10
390978.706
  20
4738360.000
  0
VERTEX
  8
Unknown_Area_Type
  10
390976.500
  20
4737504.000
  0
VERTEX
  8
Unknown_Area_Type
  10
390976.315
  20
4737503.921
  0
SEQEND
  8
Unknown_Area_Type
  0
POLYLINE
  8
Unknown_Area_Type
  70
1
  66
1
  0
VERTEX
  8
Unknown_Area_Type
  10
385672.259
  20
4737558.905
  0
VERTEX
  8
Unknown_Area_Type
  10
385108.500
  20
4737337.500
  0
VERTEX
  8
Unknown_Area_Type
  10
385107.393
  20
4737337.654
  0
VERTEX
  8
Unknown_Area_Type
  10
383023.000
  20
4737628.000
  0
VERTEX
  8
Unknown_Area_Type
  10
383039.914
  20
4738460.000
  0
VERTEX
  8
Unknown_Area_Type
  10
383046.622
  20
4738790.000
  0
VERTEX
  8
Unknown_Area_Type
  10
383107.000
  20
4741760.000
  0
VERTEX
  8
Unknown_Area_Type
  10
383404.021
  20
4741819.071
  0
VERTEX
  8
Unknown_Area_Type
  10
384889.500
  20
4742114.500
  0
VERTEX
  8
Unknown_Area_Type
  10
384891.988
  20
4742114.997
  0
VERTEX
  8
Unknown_Area_Type
  10
384892.000
  20
4742115.000
  0
VERTEX
  8
Unknown_Area_Type
  10
385701.500
  20
4741754.500
  0
VERTEX
  8
Unknown_Area_Type
  10
385701.498
  20
4741754.224
  0
VERTEX
  8
Unknown_Area_Type
  10
385681.010
  20
4738790.000
  0
VERTEX
  8
Unknown_Area_Type
  10
385678.728
  20
4738460.000
  0
VERTEX
  8
Unknown_Area_Type
  10
385672.500
  20
4737559.000
  0
VERTEX
  8
Unknown_Area_Type
  10
385672.259
  20
4737558.905
  0
SEQEND
  8
Unknown_Area_Type
  0
POLYLINE
  8
Unknown_Area_Type
  70
1
  66
1
  0
VERTEX
  8
Unknown_Area_Type
  10
382540.000
  20
4737450.421
  0
VERTEX
  8
Unknown_Area_Type
  10
382401.500
  20
4737399.500
  0
VERTEX
  8
Unknown_Area_Type
  10
382401.482
  20
4737399.503
  0
VERTEX
  8
Unknown_Area_Type
  10
382250.000
  20
4737423.948
  0
VERTEX
  8
Unknown_Area_Type
  10
380387.500
  20
4737724.500
  0
VERTEX
  8
Unknown_Area_Type
  10
380410.497
  20
4738580.000
  0
VERTEX
  8
Unknown_Area_Type
  10
380419.369
  20
4738910.000
  0
VERTEX
  8
Unknown_Area_Type
  10
380498.000
  20
4741835.000
  0
VERTEX
  8
Unknown_Area_Type
  10
382330.000
  20
4742115.781
  0
VERTEX
  8
Unknown_Area_Type
  10
382351.000
  20
4742119.000
  0
VERTEX
  8
Unknown_Area_Type
  10
382354.500
  20
4742119.500
  0
VERTEX
  8
Unknown_Area_Type
  10
382355.497
  20
4742119.270
  0
VERTEX
  8
Unknown_Area_Type
  10
382359.318
  20
4742118.388
  0
VERTEX
  8
Unknown_Area_Type
  10
382361.000
  20
4742118.000
  0
VERTEX
  8
Unknown_Area_Type
  10
382620.000
  20
4741993.708
  0
VERTEX
  8
Unknown_Area_Type
  10
383106.854
  20
4741760.070
  0
VERTEX
  8
Unknown_Area_Type
  10
383107.000
  20
4741760.000
  0
VERTEX
  8
Unknown_Area_Type
  10
383046.622
  20
4738790.000
  0
VERTEX
  8
Unknown_Area_Type
  10
383039.914
  20
4738460.000
  0
VERTEX
  8
Unknown_Area_Type
  10
383023.000
  20
4737628.000
  0
VERTEX
  8
Unknown_Area_Type
  10
383022.862
  20
4737627.949
  0
VERTEX
  8
Unknown_Area_Type
  10
382540.000
  20
4737450.421
  0
SEQEND
  8
Unknown_Area_Type
  0
POLYLINE
  8
Unknown_Area_Type
  70
1
  66
1
  0
VERTEX
  8
Unknown_Area_Type
  10
377703.500
  20
4737820.000
  0
VERTEX
  8
Unknown_Area_Type
  10
377001.500
  20
4737585.000
  0
VERTEX
  8
Unknown_Area_Type
  10
377001.173
  20
4737585.058
  0
VERTEX
  8
Unknown_Area_Type
  10
377000.986
  20
4737585.091
  0
VERTEX
  8
Unknown_Area_Type
  10
376407.903
  20
4737690.323
  0
VERTEX
  8
Unknown_Area_Type
  10
375730.000
  20
4737810.605
  0
VERTEX
  8
Unknown_Area_Type
  10
375602.784
  20
4737833.177
  0
VERTEX
  8
Unknown_Area_Type
  10
375620.249
  20
4738801.699
  0
VERTEX
  8
Unknown_Area_Type
  10
375661.984
  20
4741115.189
  0
VERTEX
  8
Unknown_Area_Type
  10
375679.128
  20
4742065.131
  0
VERTEX
  8
Unknown_Area_Type
  10
375810.000
  20
4742075.455
  0
VERTEX
  8
Unknown_Area_Type
  10
375950.660
  20
4742086.551
  0
VERTEX
  8
Unknown_Area_Type
  10
377439.500
  20
4742204.000
  0
VERTEX
  8
Unknown_Area_Type
  10
377446.000
  20
4742204.500
  0
VERTEX
  8
Unknown_Area_Type
  10
377447.353
  20
4742204.292
  0
VERTEX
  8
Unknown_Area_Type
  10
377451.420
  20
4742203.666
  0
VERTEX
  8
Unknown_Area_Type
  10
377452.500
  20
4742203.500
  0
VERTEX
  8
Unknown_Area_Type
  10
377891.800
  20
4741945.411
  0
VERTEX
  8
Unknown_Area_Type
  10
377892.500
  20
4741945.000
  0
VERTEX
  8
Unknown_Area_Type
  10
377754.479
  20
4738910.000
  0
VERTEX
  8
Unknown_Area_Type
  10
377739.471
  20
4738580.000
  0
VERTEX
  8
Unknown_Area_Type
  10
377705.000
  20
4737822.000
  0
VERTEX
  8
Unknown_Area_Type
  10
377704.540
  20
4737821.387
  0
VERTEX
  8
Unknown_Area_Type
  10
377703.830
  20
4737820.440
  0
VERTEX
  8
Unknown_Area_Type
  10
377703.500
  20
4737820.000
  0
SEQEND
  8
Unknown_Area_Type
  0
POLYLINE
  8
Unknown_Area_Type
  70
1
  66
1
  0
VERTEX
  8
Unknown_Area_Type
  10
380387.500
  20
4737724.500
  0
VERTEX
  8
Unknown_Area_Type
  10
379674.000
  20
4737463.500
  0
VERTEX
  8
Unknown_Area_Type
  10
379673.331
  20
4737463.621
  0
VERTEX
  8
Unknown_Area_Type
  10
379028.747
  20
4737580.461
  0
VERTEX
  8
Unknown_Area_Type
  10
378170.670
  20
4737736.000
  0
VERTEX
  8
Unknown_Area_Type
  10
377704.500
  20
4737820.500
  0
VERTEX
  8
Unknown_Area_Type
  10
377704.540
  20
4737821.387
  0
VERTEX
  8
Unknown_Area_Type
  10
377739.119
  20
4738580.000
  0
VERTEX
  8
Unknown_Area_Type
  10
377754.161
  20
4738910.000
  0
VERTEX
  8
Unknown_Area_Type
  10
377892.500
  20
4741945.000
  0
VERTEX
  8
Unknown_Area_Type
  10
377893.990
  20
4741945.168
  0
VERTEX
  8
Unknown_Area_Type
  10
378163.500
  20
4741975.500
  0
VERTEX
  8
Unknown_Area_Type
  10
378168.000
  20
4741976.000
  0
VERTEX
  8
Unknown_Area_Type
  10
379695.656
  20
4742146.920
  0
VERTEX
  8
Unknown_Area_Type
  10
379892.584
  20
4742168.954
  0
VERTEX
  8
Unknown_Area_Type
  10
379893.000
  20
4742169.000
  0
VERTEX
  8
Unknown_Area_Type
  10
380498.000
  20
4741835.500
  0
VERTEX
  8
Unknown_Area_Type
  10
380497.987
  20
4741835.007
  0
VERTEX
  8
Unknown_Area_Type
  10
380419.365
  20
4738910.000
  0
VERTEX
  8
Unknown_Area_Type
  10
380410.497
  20
4738580.000
  0
VERTEX
  8
Unknown_Area_Type
  10
380387.500
  20
4737724.500
  0
SEQEND
  8
Unknown_Area_Type
  0
POLYLINE
  8
Unknown_Area_Type
  70
1
  66
1
  0
VERTEX
  8
Unknown_Area_Type
  10
387534.897
  20
4724836.956
  0
VERTEX
  8
Unknown_Area_Type
  10
388408.500
  20
4724740.500
  0
VERTEX
  8
Unknown_Area_Type
  10
388409.520
  20
4724740.500
  0
VERTEX
  8
Unknown_Area_Type
  10
388412.000
  20
4724740.500
  0
VERTEX
  8
Unknown_Area_Type
  10
388850.000
  20
4724692.202
  0
VERTEX
  8
Unknown_Area_Type
  10
388857.075
  20
4724691.422
  0
VERTEX
  8
Unknown_Area_Type
  10
388853.799
  20
4724691.475
  0
VERTEX
  8
Unknown_Area_Type
  10
387255.569
  20
4724717.475
  0
VERTEX
  8
Unknown_Area_Type
  10
387254.790
  20
4724717.487
  0
VERTEX
  8
Unknown_Area_Type
  10
387534.500
  20
4724837.000
  0
VERTEX
  8
Unknown_Area_Type
  10
387534.897
  20
4724836.956
  0
SEQEND
  8
Unknown_Area_Type
  0
POLYLINE
  8
Unknown_Area_Type
  70
1
  66
1
  0
VERTEX
  8
Unknown_Area_Type
  10
382667.157
  20
4724910.000
  0
VERTEX
  8
Unknown_Area_Type
  10
383276.789
  20
4724783.352
  0
VERTEX
  8
Unknown_Area_Type
  10
383274.128
  20
4724783.397
  0
VERTEX
  8
Unknown_Area_Type
  10
382199.341
  20
4724801.411
  0
VERTEX
  8
Unknown_Area_Type
  10
381672.504
  20
4724810.501
  0
VERTEX
  8
Unknown_Area_Type
  10
381671.186
  20
4724810.524
  0
VERTEX
  8
Unknown_Area_Type
  10
382090.000
  20
4724943.168
  0
VERTEX
  8
Unknown_Area_Type
  10
382250.500
  20
4724994.000
  0
VERTEX
  8
Unknown_Area_Type
  10
382253.680
  20
4724994.424
  0
VERTEX
  8
Unknown_Area_Type
  10
382256.477
  20
4724994.797
  0
VERTEX
  8
Unknown_Area_Type
  10
382258.000
  20
4724995.000
  0
VERTEX
  8
Unknown_Area_Type
  10
382300.000
  20
4724986.275
  0
VERTEX
  8
Unknown_Area_Type
  10
382380.000
  20
4724969.655
  0
VERTEX
  8
Unknown_Area_Type
  10
382667.157
  20
4724910.000
  0
SEQEND
  8
Unknown_Area_Type
  0
POLYLINE
  8
Unknown_Area_Type
  70
1
  66
1
  0
VERTEX
  8
Unknown_Area_Type
  10
380061.167
  20
4724958.333
  0
VERTEX
  8
Unknown_Area_Type
  10
380521.865
  20
4724830.354
  0
VERTEX
  8
Unknown_Area_Type
  10
378784.767
  20
4724860.326
  0
VERTEX
  8
Unknown_Area_Type
  10
378663.744
  20
4724862.473
  0
VERTEX
  8
Unknown_Area_Type
  10
378662.534
  20
4724862.495
  0
VERTEX
  8
Unknown_Area_Type
  10
379230.137
  20
4725030.000
  0
VERTEX
  8
Unknown_Area_Type
  10
379270.793
  20
4725041.998
  0
VERTEX
  8
Unknown_Area_Type
  10
379507.758
  20
4725111.929
  0
VERTEX
  8
Unknown_Area_Type
  10
379508.000
  20
4725112.000
  0
VERTEX
  8
Unknown_Area_Type
  10
379803.182
  20
4725030.000
  0
VERTEX
  8
Unknown_Area_Type
  10
380061.167
  20
4724958.333
  0
SEQEND
  8
Unknown_Area_Type
  0
POLYLINE
  8
Unknown_Area_Type
  70
1
  66
1
  0
VERTEX
  8
Unknown_Area_Type
  10
385012.363
  20
4724910.000
  0
VERTEX
  8
Unknown_Area_Type
  10
386006.796
  20
4724737.789
  0
VERTEX
  8
Unknown_Area_Type
  10
386005.367
  20
4724737.812
  0
VERTEX
  8
Unknown_Area_Type
  10
385613.910
  20
4724744.180
  0
VERTEX
  8
Unknown_Area_Type
  10
384401.768
  20
4724764.497
  0
VERTEX
  8
Unknown_Area_Type
  10
384401.314
  20
4724764.504
  0
VERTEX
  8
Unknown_Area_Type
  10
384797.627
  20
4724910.000
  0
VERTEX
  8
Unknown_Area_Type
  10
384863.000
  20
4724934.000
  0
VERTEX
  8
Unknown_Area_Type
  10
384864.702
  20
4724934.341
  0
VERTEX
  8
Unknown_Area_Type
  10
384867.062
  20
4724934.813
  0
VERTEX
  8
Unknown_Area_Type
  10
384868.000
  20
4724935.000
  0
VERTEX
  8
Unknown_Area_Type
  10
385012.363
  20
4724910.000
  0
SEQEND
  8
Unknown_Area_Type
  0
POLYLINE
  8
Unknown_Area_Type
  70
1
  66
1
  0
VERTEX
  8
Unknown_Area_Type
  10
377314.423
  20
4725030.000
  0
VERTEX
  8
Unknown_Area_Type
  10
377892.821
  20
4724876.155
  0
VERTEX
  8
Unknown_Area_Type
  10
377890.932
  20
4724876.189
  0
VERTEX
  8
Unknown_Area_Type
  10
375861.852
  20
4724912.199
  0
VERTEX
  8
Unknown_Area_Type
  10
375861.495
  20
4724912.205
  0
VERTEX
  8
Unknown_Area_Type
  10
376121.000
  20
4724989.500
  0
VERTEX
  8
Unknown_Area_Type
  10
376123.000
  20
4724990.000
  0
VERTEX
  8
Unknown_Area_Type
  10
376257.439
  20
4725030.000
  0
VERTEX
  8
Unknown_Area_Type
  10
376751.500
  20
4725177.000
  0
VERTEX
  8
Unknown_Area_Type
  10
376754.889
  20
4725177.521
  0
VERTEX
  8
Unknown_Area_Type
  10
376757.050
  20
4725177.854
  0
VERTEX
  8
Unknown_Area_Type
  10
376758.000
  20
4725178.000
  0
VERTEX
  8
Unknown_Area_Type
  10
377314.423
  20
4725030.000
  0
SEQEND
  8
Unknown_Area_Type
  0
POLYLINE
  8
Unknown_Area_Type
  70
1
  66
1
  0
VERTEX
  8
Unknown_Area_Type
  10
390214.000
  20
4724747.500
  0
VERTEX
  8
Unknown_Area_Type
  10
391261.373
  20
4724653.411
  0
VERTEX
  8
Unknown_Area_Type
  10
391260.539
  20
4724653.424
  0
VERTEX
  8
Unknown_Area_Type
  10
390055.837
  20
4724672.428
  0
VERTEX
  8
Unknown_Area_Type
  10
390054.963
  20
4724672.442
  0
VERTEX
  8
Unknown_Area_Type
  10
390207.500
  20
4724745.500
  0
VERTEX
  8
Unknown_Area_Type
  10
390209.809
  20
4724746.210
  0
VERTEX
  8
Unknown_Area_Type
  10
390213.661
  20
4724747.396
  0
VERTEX
  8
Unknown_Area_Type
  10
390214.000
  20
4724747.500
  0
SEQEND
  8
Unknown_Area_Type
  0
POLYLINE
  8
Unknown_Area_Type
  70
1
  66
1
  0
VERTEX
  8
Unknown_Area_Type
  10
376444.651
  20
4733779.186
  0
VERTEX
  8
Unknown_Area_Type
  10
376444.000
  20
4733779.000
  0
VERTEX
  8
Unknown_Area_Type
  10
376122.055
  20
4733849.889
  0
VERTEX
  8
Unknown_Area_Type
  10
375667.397
  20
4733950.000
  0
VERTEX
  8
Unknown_Area_Type
  10
375640.000
  20
4733956.033
  0
VERTEX
  8
Unknown_Area_Type
  10
375533.312
  20
4733979.524
  0
VERTEX
  8
Unknown_Area_Type
  10
375536.829
  20
4734174.742
  0
VERTEX
  8
Unknown_Area_Type
  10
375578.531
  20
4736488.217
  0
VERTEX
  8
Unknown_Area_Type
  10
375602.782
  20
4737833.023
  0
VERTEX
  8
Unknown_Area_Type
  10
375730.000
  20
4737810.432
  0
VERTEX
  8
Unknown_Area_Type
  10
376121.000
  20
4737741.000
  0
VERTEX
  8
Unknown_Area_Type
  10
376124.000
  20
4737740.500
  0
VERTEX
  8
Unknown_Area_Type
  10
376407.903
  20
4737690.323
  0
VERTEX
  8
Unknown_Area_Type
  10
377001.000
  20
4737585.500
  0
VERTEX
  8
Unknown_Area_Type
  10
377000.986
  20
4737585.091
  0
VERTEX
  8
Unknown_Area_Type
  10
376996.696
  20
4737464.002
  0
VERTEX
  8
Unknown_Area_Type
  10
376883.897
  20
4734280.000
  0
VERTEX
  8
Unknown_Area_Type
  10
376880.000
  20
4734170.000
  0
VERTEX
  8
Unknown_Area_Type
  10
376879.502
  20
4734169.551
  0
VERTEX
  8
Unknown_Area_Type
  10
376857.126
  20
4734149.374
  0
VERTEX
  8
Unknown_Area_Type
  10
376636.026
  20
4733950.000
  0
VERTEX
  8
Unknown_Area_Type
  10
376447.500
  20
4733780.000
  0
VERTEX
  8
Unknown_Area_Type
  10
376446.100
  20
4733779.600
  0
VERTEX
  8
Unknown_Area_Type
  10
376444.651
  20
4733779.186
  0
SEQEND
  8
Unknown_Area_Type
  0
POLYLINE
  8
Unknown_Area_Type
  70
1
  66
1
  0
VERTEX
  8
Unknown_Area_Type
  10
377703.830
  20
4737820.440
  0
VERTEX
  8
Unknown_Area_Type
  10
378170.000
  20
4737736.000
  0
VERTEX
  8
Unknown_Area_Type
  10
378170.670
  20
4737736.000
  0
VERTEX
  8
Unknown_Area_Type
  10
378172.000
  20
4737736.000
  0
VERTEX
  8
Unknown_Area_Type
  10
379028.747
  20
4737580.461
  0
VERTEX
  8
Unknown_Area_Type
  10
379673.000
  20
4737463.500
  0
VERTEX
  8
Unknown_Area_Type
  10
379568.060
  20
4734280.000
  0
VERTEX
  8
Unknown_Area_Type
  10
379566.000
  20
4734217.500
  0
VERTEX
  8
Unknown_Area_Type
  10
379565.893
  20
4734217.400
  0
VERTEX
  8
Unknown_Area_Type
  10
379278.965
  20
4733950.000
  0
VERTEX
  8
Unknown_Area_Type
  10
379110.500
  20
4733793.000
  0
VERTEX
  8
Unknown_Area_Type
  10
379110.077
  20
4733793.071
  0
VERTEX
  8
Unknown_Area_Type
  10
379110.000
  20
4733793.084
  0
VERTEX
  8
Unknown_Area_Type
  10
378180.176
  20
4733950.000
  0
VERTEX
  8
Unknown_Area_Type
  10
378171.287
  20
4733951.500
  0
VERTEX
  8
Unknown_Area_Type
  10
376879.500
  20
4734169.500
  0
VERTEX
  8
Unknown_Area_Type
  10
376879.502
  20
4734169.551
  0
VERTEX
  8
Unknown_Area_Type
  10
376883.431
  20
4734280.000
  0
VERTEX
  8
Unknown_Area_Type
  10
376996.696
  20
4737464.002
  0
VERTEX
  8
Unknown_Area_Type
  10
377001.000
  20
4737585.000
  0
VERTEX
  8
Unknown_Area_Type
  10
377001.173
  20
4737585.058
  0
VERTEX
  8
Unknown_Area_Type
  10
377703.500
  20
4737820.500
  0
VERTEX
  8
Unknown_Area_Type
  10
377703.830
  20
4737820.440
  0
SEQEND
  8
Unknown_Area_Type
  0
POLYLINE
  8
Unknown_Area_Type
  70
1
  66
1
  0
VERTEX
  8
Unknown_Area_Type
  10
383022.862
  20
4737627.949
  0
VERTEX
  8
Unknown_Area_Type
  10
384315.000
  20
4737447.500
  0
VERTEX
  8
Unknown_Area_Type
  10
384316.000
  20
4737447.500
  0
VERTEX
  8
Unknown_Area_Type
  10
385107.000
  20
4737337.500
  0
VERTEX
  8
Unknown_Area_Type
  10
384990.851
  20
4734160.000
  0
VERTEX
  8
Unknown_Area_Type
  10
384988.000
  20
4734082.000
  0
VERTEX
  8
Unknown_Area_Type
  10
384987.515
  20
4734081.403
  0
VERTEX
  8
Unknown_Area_Type
  10
384985.323
  20
4734078.705
  0
VERTEX
  8
Unknown_Area_Type
  10
384981.500
  20
4734074.000
  0
VERTEX
  8
Unknown_Area_Type
  10
384759.417
  20
4733840.000
  0
VERTEX
  8
Unknown_Area_Type
  10
384571.500
  20
4733642.000
  0
VERTEX
  8
Unknown_Area_Type
  10
384571.488
  20
4733642.003
  0
VERTEX
  8
Unknown_Area_Type
  10
383731.333
  20
4733840.000
  0
VERTEX
  8
Unknown_Area_Type
  10
382540.000
  20
4734120.758
  0
VERTEX
  8
Unknown_Area_Type
  10
382460.000
  20
4734139.612
  0
VERTEX
  8
Unknown_Area_Type
  10
382373.487
  20
4734160.000
  0
VERTEX
  8
Unknown_Area_Type
  10
382286.903
  20
4734180.405
  0
VERTEX
  8
Unknown_Area_Type
  10
382286.518
  20
4734180.496
  0
VERTEX
  8
Unknown_Area_Type
  10
382286.500
  20
4734180.500
  0
VERTEX
  8
Unknown_Area_Type
  10
382290.054
  20
4734280.000
  0
VERTEX
  8
Unknown_Area_Type
  10
382401.482
  20
4737399.503
  0
VERTEX
  8
Unknown_Area_Type
  10
382401.500
  20
4737400.000
  0
VERTEX
  8
Unknown_Area_Type
  10
382540.000
  20
4737450.850
  0
VERTEX
  8
Unknown_Area_Type
  10
383022.500
  20
4737628.000
  0
VERTEX
  8
Unknown_Area_Type
  10
383022.862
  20
4737627.949
  0
SEQEND
  8
Unknown_Area_Type
  0
POLYLINE
  8
Unknown_Area_Type
  70
1
  66
1
  0
VERTEX
  8
Unknown_Area_Type
  10
385672.259
  20
4737558.905
  0
VERTEX
  8
Unknown_Area_Type
  10
386362.000
  20
4737473.000
  0
VERTEX
  8
Unknown_Area_Type
  10
386364.000
  20
4737473.000
  0
VERTEX
  8
Unknown_Area_Type
  10
387748.000
  20
4737301.000
  0
VERTEX
  8
Unknown_Area_Type
  10
387731.750
  20
4734160.000
  0
VERTEX
  8
Unknown_Area_Type
  10
387731.000
  20
4734015.000
  0
VERTEX
  8
Unknown_Area_Type
  10
387730.907
  20
4734014.907
  0
VERTEX
  8
Unknown_Area_Type
  10
387557.031
  20
4733840.000
  0
VERTEX
  8
Unknown_Area_Type
  10
387309.000
  20
4733590.500
  0
VERTEX
  8
Unknown_Area_Type
  10
387308.587
  20
4733590.587
  0
VERTEX
  8
Unknown_Area_Type
  10
386128.135
  20
4733840.000
  0
VERTEX
  8
Unknown_Area_Type
  10
384987.500
  20
4734081.000
  0
VERTEX
  8
Unknown_Area_Type
  10
384987.515
  20
4734081.403
  0
VERTEX
  8
Unknown_Area_Type
  10
384990.399
  20
4734160.000
  0
VERTEX
  8
Unknown_Area_Type
  10
385107.000
  20
4737337.500
  0
VERTEX
  8
Unknown_Area_Type
  10
385107.393
  20
4737337.654
  0
VERTEX
  8
Unknown_Area_Type
  10
385671.500
  20
4737559.000
  0
VERTEX
  8
Unknown_Area_Type
  10
385672.259
  20
4737558.905
  0
SEQEND
  8
Unknown_Area_Type
  0
POLYLINE
  8
Unknown_Area_Type
  70
1
  66
1
  0
VERTEX
  8
Unknown_Area_Type
  10
381764.511
  20
4733661.011
  0
VERTEX
  8
Unknown_Area_Type
  10
381764.500
  20
4733661.000
  0
VERTEX
  8
Unknown_Area_Type
  10
380622.781
  20
4733950.000
  0
VERTEX
  8
Unknown_Area_Type
  10
380219.150
  20
4734052.170
  0
VERTEX
  8
Unknown_Area_Type
  10
379566.000
  20
4734217.500
  0
VERTEX
  8
Unknown_Area_Type
  10
379568.060
  20
4734280.000
  0
VERTEX
  8
Unknown_Area_Type
  10
379673.000
  20
4737463.500
  0
VERTEX
  8
Unknown_Area_Type
  10
379673.331
  20
4737463.621
  0
VERTEX
  8
Unknown_Area_Type
  10
380218.000
  20
4737663.000
  0
VERTEX
  8
Unknown_Area_Type
  10
380219.500
  20
4737663.500
  0
VERTEX
  8
Unknown_Area_Type
  10
380386.000
  20
4737724.500
  0
VERTEX
  8
Unknown_Area_Type
  10
380387.500
  20
4737724.500
  0
VERTEX
  8
Unknown_Area_Type
  10
380390.500
  20
4737724.500
  0
VERTEX
  8
Unknown_Area_Type
  10
382250.000
  20
4737423.984
  0
VERTEX
  8
Unknown_Area_Type
  10
382401.482
  20
4737399.503
  0
VERTEX
  8
Unknown_Area_Type
  10
382401.500
  20
4737399.500
  0
VERTEX
  8
Unknown_Area_Type
  10
382290.072
  20
4734280.000
  0
VERTEX
  8
Unknown_Area_Type
  10
382286.518
  20
4734180.496
  0
VERTEX
  8
Unknown_Area_Type
  10
382286.501
  20
4734180.013
  0
VERTEX
  8
Unknown_Area_Type
  10
382286.500
  20
4734180.000
  0
VERTEX
  8
Unknown_Area_Type
  10
382267.111
  20
4734160.723
  0
VERTEX
  8
Unknown_Area_Type
  10
382266.384
  20
4734160.000
  0
VERTEX
  8
Unknown_Area_Type
  10
382250.000
  20
4734143.710
  0
VERTEX
  8
Unknown_Area_Type
  10
382175.019
  20
4734069.160
  0
VERTEX
  8
Unknown_Area_Type
  10
382170.000
  20
4734064.169
  0
VERTEX
  8
Unknown_Area_Type
  10
382055.171
  20
4733950.000
  0
VERTEX
  8
Unknown_Area_Type
  10
381764.511
  20
4733661.011
  0
SEQEND
  8
Unknown_Area_Type
  0
POLYLINE
  8
Unknown_Area_Type
  70
1
  66
1
  0
VERTEX
  8
Unknown_Area_Type
  10
392726.700
  20
4733402.667
  0
VERTEX
  8
Unknown_Area_Type
  10
392726.500
  20
4733402.500
  0
VERTEX
  8
Unknown_Area_Type
  10
391312.211
  20
4733730.000
  0
VERTEX
  8
Unknown_Area_Type
  10
390455.000
  20
4733928.500
  0
VERTEX
  8
Unknown_Area_Type
  10
390456.263
  20
4734050.000
  0
VERTEX
  8
Unknown_Area_Type
  10
390490.000
  20
4737295.500
  0
VERTEX
  8
Unknown_Area_Type
  10
390490.196
  20
4737295.584
  0
VERTEX
  8
Unknown_Area_Type
  10
390975.500
  20
4737504.000
  0
VERTEX
  8
Unknown_Area_Type
  10
390976.315
  20
4737503.921
  0
VERTEX
  8
Unknown_Area_Type
  10
393232.500
  20
4737284.500
  0
VERTEX
  8
Unknown_Area_Type
  10
393187.500
  20
4734682.500
  0
VERTEX
  8
Unknown_Area_Type
  10
393187.500
  20
4734674.000
  0
VERTEX
  8
Unknown_Area_Type
  10
393182.429
  20
4734379.536
  0
VERTEX
  8
Unknown_Area_Type
  10
393176.753
  20
4734050.000
  0
VERTEX
  8
Unknown_Area_Type
  10
393172.009
  20
4733774.498
  0
VERTEX
  8
Unknown_Area_Type
  10
393172.004
  20
4733774.251
  0
VERTEX
  8
Unknown_Area_Type
  10
393172.000
  20
4733774.000
  0
VERTEX
  8
Unknown_Area_Type
  10
393119.236
  20
4733730.000
  0
VERTEX
  8
Unknown_Area_Type
  10
392726.700
  20
4733402.667
  0
SEQEND
  8
Unknown_Area_Type
  0
POLYLINE
  8
Unknown_Area_Type
  70
1
  66
1
  0
VERTEX
  8
Unknown_Area_Type
  10
390245.498
  20
4733730.000
  0
VERTEX
  8
Unknown_Area_Type
  10
389998.000
  20
4733495.500
  0
VERTEX
  8
Unknown_Area_Type
  10
389997.972
  20
4733495.506
  0
VERTEX
  8
Unknown_Area_Type
  10
389280.000
  20
4733660.035
  0
VERTEX
  8
Unknown_Area_Type
  10
389000.000
  20
4733724.199
  0
VERTEX
  8
Unknown_Area_Type
  10
388494.667
  20
4733840.000
  0
VERTEX
  8
Unknown_Area_Type
  10
388411.100
  20
4733859.150
  0
VERTEX
  8
Unknown_Area_Type
  10
387731.000
  20
4734015.000
  0
VERTEX
  8
Unknown_Area_Type
  10
387731.750
  20
4734160.000
  0
VERTEX
  8
Unknown_Area_Type
  10
387748.000
  20
4737301.000
  0
VERTEX
  8
Unknown_Area_Type
  10
387748.354
  20
4737301.142
  0
VERTEX
  8
Unknown_Area_Type
  10
388301.500
  20
4737524.000
  0
VERTEX
  8
Unknown_Area_Type
  10
388302.500
  20
4737524.500
  0
VERTEX
  8
Unknown_Area_Type
  10
388302.897
  20
4737524.458
  0
VERTEX
  8
Unknown_Area_Type
  10
388303.004
  20
4737524.447
  0
VERTEX
  8
Unknown_Area_Type
  10
389070.000
  20
4737444.154
  0
VERTEX
  8
Unknown_Area_Type
  10
389360.000
  20
4737413.795
  0
VERTEX
  8
Unknown_Area_Type
  10
390076.225
  20
4737338.816
  0
VERTEX
  8
Unknown_Area_Type
  10
390490.000
  20
4737295.500
  0
VERTEX
  8
Unknown_Area_Type
  10
390456.263
  20
4734050.000
  0
VERTEX
  8
Unknown_Area_Type
  10
390455.000
  20
4733928.500
  0
VERTEX
  8
Unknown_Area_Type
  10
390454.902
  20
4733928.407
  0
VERTEX
  8
Unknown_Area_Type
  10
390454.050
  20
4733927.600
  0
VERTEX
  8
Unknown_Area_Type
  10
390410.626
  20
4733886.456
  0
VERTEX
  8
Unknown_Area_Type
  10
390245.498
  20
4733730.000
  0
SEQEND
  8
Unknown_Area_Type
  0
POLYLINE
  8
Unknown_Area_Type
  70
1
  66
1
  0
VERTEX
  8
Unknown_Area_Type
  10
395879.500
  20
4733985.000
  0
VERTEX
  8
Unknown_Area_Type
  10
395879.500
  20
4733974.500
  0
VERTEX
  8
Unknown_Area_Type
  10
395884.500
  20
4733970.000
  0
VERTEX
  8
Unknown_Area_Type
  10
395884.500
  20
4733955.000
  0
VERTEX
  8
Unknown_Area_Type
  10
395880.000
  20
4733950.500
  0
VERTEX
  8
Unknown_Area_Type
  10
395875.000
  20
4733950.500
  0
VERTEX
  8
Unknown_Area_Type
  10
395873.500
  20
4733951.500
  0
VERTEX
  8
Unknown_Area_Type
  10
395865.500
  20
4733960.000
  0
VERTEX
  8
Unknown_Area_Type
  10
395865.500
  20
4733965.500
  0
VERTEX
  8
Unknown_Area_Type
  10
395860.500
  20
4733970.000
  0
VERTEX
  8
Unknown_Area_Type
  10
395860.500
  20
4733975.500
  0
VERTEX
  8
Unknown_Area_Type
  10
395857.500
  20
4733978.000
  0
VERTEX
  8
Unknown_Area_Type
  10
395856.500
  20
4733977.000
  0
VERTEX
  8
Unknown_Area_Type
  10
395855.081
  20
4733940.000
  0
VERTEX
  8
Unknown_Area_Type
  10
395847.026
  20
4733730.000
  0
VERTEX
  8
Unknown_Area_Type
  10
395842.500
  20
4733612.000
  0
VERTEX
  8
Unknown_Area_Type
  10
395842.308
  20
4733611.846
  0
VERTEX
  8
Unknown_Area_Type
  10
395820.000
  20
4733593.964
  0
VERTEX
  8
Unknown_Area_Type
  10
395550.179
  20
4733377.676
  0
VERTEX
  8
Unknown_Area_Type
  10
395404.112
  20
4733260.590
  0
VERTEX
  8
Unknown_Area_Type
  10
395404.000
  20
4733260.500
  0
VERTEX
  8
Unknown_Area_Type
  10
393365.237
  20
4733730.000
  0
VERTEX
  8
Unknown_Area_Type
  10
393172.520
  20
4733774.380
  0
VERTEX
  8
Unknown_Area_Type
  10
393172.009
  20
4733774.498
  0
VERTEX
  8
Unknown_Area_Type
  10
393172.000
  20
4733774.500
  0
VERTEX
  8
Unknown_Area_Type
  10
393176.749
  20
4734050.000
  0
VERTEX
  8
Unknown_Area_Type
  10
393182.429
  20
4734379.536
  0
VERTEX
  8
Unknown_Area_Type
  10
393232.500
  20
4737284.500
  0
VERTEX
  8
Unknown_Area_Type
  10
393232.593
  20
4737284.540
  0
VERTEX
  8
Unknown_Area_Type
  10
393690.000
  20
4737479.000
  0
VERTEX
  8
Unknown_Area_Type
  10
393690.402
  20
4737478.958
  0
VERTEX
  8
Unknown_Area_Type
  10
394551.000
  20
4737390.000
  0
VERTEX
  8
Unknown_Area_Type
  10
394556.000
  20
4737389.500
  0
VERTEX
  8
Unknown_Area_Type
  10
395654.500
  20
4737276.500
  0
VERTEX
  8
Unknown_Area_Type
  10
395654.510
  20
4737276.496
  0
VERTEX
  8
Unknown_Area_Type
  10
395890.000
  20
4737193.931
  0
VERTEX
  8
Unknown_Area_Type
  10
395977.986
  20
4737163.082
  0
VERTEX
  8
Unknown_Area_Type
  10
395982.500
  20
4737161.500
  0
VERTEX
  8
Unknown_Area_Type
  10
395890.000
  20
4734823.909
  0
VERTEX
  8
Unknown_Area_Type
  10
395859.376
  20
4734050.000
  0
VERTEX
  8
Unknown_Area_Type
  10
395859.000
  20
4734040.500
  0
VERTEX
  8
Unknown_Area_Type
  10
395859.500
  20
4734024.500
  0
VERTEX
  8
Unknown_Area_Type
  10
395864.500
  20
4734020.000
  0
VERTEX
  8
Unknown_Area_Type
  10
395864.500
  20
4734004.500
  0
VERTEX
  8
Unknown_Area_Type
  10
395873.500
  20
4733996.500
  0
VERTEX
  8
Unknown_Area_Type
  10
395874.500
  20
4733995.000
  0
VERTEX
  8
Unknown_Area_Type
  10
395874.500
  20
4733989.500
  0
VERTEX
  8
Unknown_Area_Type
  10
395879.500
  20
4733985.000
  0
SEQEND
  8
Unknown_Area_Type
  0
POLYLINE
  8
Unknown_Area_Type
  70
1
  66
1
  0
VERTEX
  8
Unknown_Area_Type
  10
400953.932
  20
4732988.108
  0
VERTEX
  8
Unknown_Area_Type
  10
400953.500
  20
4732988.000
  0
VERTEX
  8
Unknown_Area_Type
  10
399342.500
  20
4733294.333
  0
VERTEX
  8
Unknown_Area_Type
  10
398537.000
  20
4733447.500
  0
VERTEX
  8
Unknown_Area_Type
  10
398547.844
  20
4733630.000
  0
VERTEX
  8
Unknown_Area_Type
  10
398566.264
  20
4733940.000
  0
VERTEX
  8
Unknown_Area_Type
  10
398651.500
  20
4735374.500
  0
VERTEX
  8
Unknown_Area_Type
  10
398651.500
  20
4735376.224
  0
VERTEX
  8
Unknown_Area_Type
  10
398651.500
  20
4735383.000
  0
VERTEX
  8
Unknown_Area_Type
  10
398755.970
  20
4737136.503
  0
VERTEX
  8
Unknown_Area_Type
  10
398755.987
  20
4737136.784
  0
VERTEX
  8
Unknown_Area_Type
  10
398756.000
  20
4737137.000
  0
VERTEX
  8
Unknown_Area_Type
  10
398778.979
  20
4737146.290
  0
VERTEX
  8
Unknown_Area_Type
  10
398779.435
  20
4737146.474
  0
VERTEX
  8
Unknown_Area_Type
  10
398779.500
  20
4737146.500
  0
VERTEX
  8
Unknown_Area_Type
  10
399195.824
  20
4737219.338
  0
VERTEX
  8
Unknown_Area_Type
  10
399342.131
  20
4737244.935
  0
VERTEX
  8
Unknown_Area_Type
  10
399342.500
  20
4737245.000
  0
VERTEX
  8
Unknown_Area_Type
  10
400712.833
  20
4737104.667
  0
VERTEX
  8
Unknown_Area_Type
  10
401398.000
  20
4737034.500
  0
VERTEX
  8
Unknown_Area_Type
  10
401358.482
  20
4733940.000
  0
VERTEX
  8
Unknown_Area_Type
  10
401354.523
  20
4733630.000
  0
VERTEX
  8
Unknown_Area_Type
  10
401350.506
  20
4733315.499
  0
VERTEX
  8
Unknown_Area_Type
  10
401350.500
  20
4733315.000
  0
VERTEX
  8
Unknown_Area_Type
  10
400955.500
  20
4732988.500
  0
VERTEX
  8
Unknown_Area_Type
  10
400954.483
  20
4732988.246
  0
VERTEX
  8
Unknown_Area_Type
  10
400953.932
  20
4732988.108
  0
SEQEND
  8
Unknown_Area_Type
  0
POLYLINE
  8
Unknown_Area_Type
  70
1
  66
1
  0
VERTEX
  8
Unknown_Area_Type
  10
379230.223
  20
4725030.000
  0
VERTEX
  8
Unknown_Area_Type
  10
378663.744
  20
4724862.473
  0
VERTEX
  8
Unknown_Area_Type
  10
378662.534
  20
4724862.495
  0
VERTEX
  8
Unknown_Area_Type
  10
377892.821
  20
4724876.155
  0
VERTEX
  8
Unknown_Area_Type
  10
377890.932
  20
4724876.189
  0
VERTEX
  8
Unknown_Area_Type
  10
377312.794
  20
4725030.000
  0
VERTEX
  8
Unknown_Area_Type
  10
376757.050
  20
4725177.854
  0
VERTEX
  8
Unknown_Area_Type
  10
376756.500
  20
4725178.000
  0
VERTEX
  8
Unknown_Area_Type
  10
376763.500
  20
4729067.000
  0
VERTEX
  8
Unknown_Area_Type
  10
376764.029
  20
4729067.338
  0
VERTEX
  8
Unknown_Area_Type
  10
377159.240
  20
4729320.000
  0
VERTEX
  8
Unknown_Area_Type
  10
377675.421
  20
4729650.000
  0
VERTEX
  8
Unknown_Area_Type
  10
378414.500
  20
4730122.500
  0
VERTEX
  8
Unknown_Area_Type
  10
379101.000
  20
4730160.500
  0
VERTEX
  8
Unknown_Area_Type
  10
379110.500
  20
4730161.000
  0
VERTEX
  8
Unknown_Area_Type
  10
379110.936
  20
4730160.913
  0
VERTEX
  8
Unknown_Area_Type
  10
379114.291
  20
4730160.242
  0
VERTEX
  8
Unknown_Area_Type
  10
379115.500
  20
4730160.000
  0
VERTEX
  8
Unknown_Area_Type
  10
379559.000
  20
4729972.500
  0
VERTEX
  8
Unknown_Area_Type
  10
379558.995
  20
4729972.002
  0
VERTEX
  8
Unknown_Area_Type
  10
379555.583
  20
4729650.000
  0
VERTEX
  8
Unknown_Area_Type
  10
379552.086
  20
4729320.000
  0
VERTEX
  8
Unknown_Area_Type
  10
379507.500
  20
4725112.000
  0
VERTEX
  8
Unknown_Area_Type
  10
379270.793
  20
4725041.998
  0
VERTEX
  8
Unknown_Area_Type
  10
379230.223
  20
4725030.000
  0
SEQEND
  8
Unknown_Area_Type
  0
POLYLINE
  8
Unknown_Area_Type
  70
1
  66
1
  0
VERTEX
  8
Unknown_Area_Type
  10
398651.500
  20
4735376.224
  0
VERTEX
  8
Unknown_Area_Type
  10
398566.238
  20
4733940.000
  0
VERTEX
  8
Unknown_Area_Type
  10
398547.834
  20
4733630.000
  0
VERTEX
  8
Unknown_Area_Type
  10
398537.000
  20
4733447.500
  0
VERTEX
  8
Unknown_Area_Type
  10
398536.906
  20
4733447.423
  0
VERTEX
  8
Unknown_Area_Type
  10
398536.149
  20
4733446.797
  0
VERTEX
  8
Unknown_Area_Type
  10
398423.770
  20
4733354.040
  0
VERTEX
  8
Unknown_Area_Type
  10
398159.000
  20
4733135.500
  0
VERTEX
  8
Unknown_Area_Type
  10
398158.600
  20
4733135.582
  0
VERTEX
  8
Unknown_Area_Type
  10
398158.478
  20
4733135.607
  0
VERTEX
  8
Unknown_Area_Type
  10
396603.323
  20
4733455.500
  0
VERTEX
  8
Unknown_Area_Type
  10
396529.735
  20
4733470.637
  0
VERTEX
  8
Unknown_Area_Type
  10
396100.000
  20
4733559.033
  0
VERTEX
  8
Unknown_Area_Type
  10
395854.603
  20
4733609.510
  0
VERTEX
  8
Unknown_Area_Type
  10
395842.500
  20
4733612.000
  0
VERTEX
  8
Unknown_Area_Type
  10
395847.026
  20
4733730.000
  0
VERTEX
  8
Unknown_Area_Type
  10
395855.081
  20
4733940.000
  0
VERTEX
  8
Unknown_Area_Type
  10
395856.500
  20
4733977.000
  0
VERTEX
  8
Unknown_Area_Type
  10
395857.500
  20
4733978.000
  0
VERTEX
  8
Unknown_Area_Type
  10
395860.500
  20
4733975.500
  0
VERTEX
  8
Unknown_Area_Type
  10
395860.500
  20
4733970.000
  0
VERTEX
  8
Unknown_Area_Type
  10
395865.500
  20
4733965.500
  0
VERTEX
  8
Unknown_Area_Type
  10
395865.500
  20
4733960.000
  0
VERTEX
  8
Unknown_Area_Type
  10
395873.500
  20
4733951.500
  0
VERTEX
  8
Unknown_Area_Type
  10
395875.000
  20
4733950.500
  0
VERTEX
  8
Unknown_Area_Type
  10
395880.000
  20
4733950.500
  0
VERTEX
  8
Unknown_Area_Type
  10
395884.500
  20
4733955.000
  0
VERTEX
  8
Unknown_Area_Type
  10
395884.500
  20
4733970.000
  0
VERTEX
  8
Unknown_Area_Type
  10
395879.500
  20
4733974.500
  0
VERTEX
  8
Unknown_Area_Type
  10
395879.500
  20
4733985.000
  0
VERTEX
  8
Unknown_Area_Type
  10
395874.500
  20
4733989.500
  0
VERTEX
  8
Unknown_Area_Type
  10
395874.500
  20
4733995.000
  0
VERTEX
  8
Unknown_Area_Type
  10
395873.500
  20
4733996.500
  0
VERTEX
  8
Unknown_Area_Type
  10
395864.500
  20
4734004.500
  0
VERTEX
  8
Unknown_Area_Type
  10
395864.500
  20
4734020.000
  0
VERTEX
  8
Unknown_Area_Type
  10
395859.500
  20
4734024.500
  0
VERTEX
  8
Unknown_Area_Type
  10
395859.000
  20
4734040.500
  0
VERTEX
  8
Unknown_Area_Type
  10
395859.376
  20
4734050.000
  0
VERTEX
  8
Unknown_Area_Type
  10
395890.000
  20
4734823.909
  0
VERTEX
  8
Unknown_Area_Type
  10
395982.500
  20
4737161.500
  0
VERTEX
  8
Unknown_Area_Type
  10
395983.412
  20
4737161.655
  0
VERTEX
  8
Unknown_Area_Type
  10
396170.000
  20
4737193.282
  0
VERTEX
  8
Unknown_Area_Type
  10
396599.000
  20
4737266.000
  0
VERTEX
  8
Unknown_Area_Type
  10
396602.000
  20
4737266.500
  0
VERTEX
  8
Unknown_Area_Type
  10
396954.000
  20
4737326.000
  0
VERTEX
  8
Unknown_Area_Type
  10
396957.000
  20
4737326.000
  0
VERTEX
  8
Unknown_Area_Type
  10
396961.500
  20
4737326.000
  0
VERTEX
  8
Unknown_Area_Type
  10
398754.850
  20
4737136.621
  0
VERTEX
  8
Unknown_Area_Type
  10
398755.970
  20
4737136.503
  0
VERTEX
  8
Unknown_Area_Type
  10
398756.000
  20
4737136.500
  0
VERTEX
  8
Unknown_Area_Type
  10
398651.500
  20
4735376.224
  0
SEQEND
  8
Unknown_Area_Type
  0
POLYLINE
  8
Unknown_Area_Type
  70
1
  66
1
  0
VERTEX
  8
Unknown_Area_Type
  10
376258.354
  20
4725030.000
  0
VERTEX
  8
Unknown_Area_Type
  10
375861.852
  20
4724912.199
  0
VERTEX
  8
Unknown_Area_Type
  10
375861.495
  20
4724912.205
  0
VERTEX
  8
Unknown_Area_Type
  10
375370.188
  20
4724920.924
  0
VERTEX
  8
Unknown_Area_Type
  10
375411.824
  20
4727234.367
  0
VERTEX
  8
Unknown_Area_Type
  10
375447.502
  20
4729216.055
  0
VERTEX
  8
Unknown_Area_Type
  10
375447.508
  20
4729216.381
  0
VERTEX
  8
Unknown_Area_Type
  10
375560.000
  20
4729203.612
  0
VERTEX
  8
Unknown_Area_Type
  10
376762.608
  20
4729067.101
  0
VERTEX
  8
Unknown_Area_Type
  10
376763.500
  20
4729067.000
  0
VERTEX
  8
Unknown_Area_Type
  10
376756.500
  20
4725178.000
  0
VERTEX
  8
Unknown_Area_Type
  10
376754.889
  20
4725177.521
  0
VERTEX
  8
Unknown_Area_Type
  10
376258.354
  20
4725030.000
  0
SEQEND
  8
Unknown_Area_Type
  0
POLYLINE
  8
Unknown_Area_Type
  70
1
  66
1
  0
VERTEX
  8
Unknown_Area_Type
  10
376762.608
  20
4729067.101
  0
VERTEX
  8
Unknown_Area_Type
  10
376762.000
  20
4729067.000
  0
VERTEX
  8
Unknown_Area_Type
  10
375560.000
  20
4729203.299
  0
VERTEX
  8
Unknown_Area_Type
  10
375447.502
  20
4729216.055
  0
VERTEX
  8
Unknown_Area_Type
  10
375447.508
  20
4729216.381
  0
VERTEX
  8
Unknown_Area_Type
  10
375453.476
  20
4729547.818
  0
VERTEX
  8
Unknown_Area_Type
  10
375495.144
  20
4731861.276
  0
VERTEX
  8
Unknown_Area_Type
  10
375496.152
  20
4731917.226
  0
VERTEX
  8
Unknown_Area_Type
  10
375496.157
  20
4731917.501
  0
VERTEX
  8
Unknown_Area_Type
  10
375640.000
  20
4731976.272
  0
VERTEX
  8
Unknown_Area_Type
  10
376121.500
  20
4732173.000
  0
VERTEX
  8
Unknown_Area_Type
  10
376122.500
  20
4732173.500
  0
VERTEX
  8
Unknown_Area_Type
  10
376357.882
  20
4732269.090
  0
VERTEX
  8
Unknown_Area_Type
  10
376449.634
  20
4732306.351
  0
VERTEX
  8
Unknown_Area_Type
  10
376450.000
  20
4732306.500
  0
VERTEX
  8
Unknown_Area_Type
  10
378414.500
  20
4730122.500
  0
VERTEX
  8
Unknown_Area_Type
  10
377675.743
  20
4729650.000
  0
VERTEX
  8
Unknown_Area_Type
  10
377159.786
  20
4729320.000
  0
VERTEX
  8
Unknown_Area_Type
  10
376765.000
  20
4729067.500
  0
VERTEX
  8
Unknown_Area_Type
  10
376764.029
  20
4729067.338
  0
VERTEX
  8
Unknown_Area_Type
  10
376762.608
  20
4729067.101
  0
SEQEND
  8
Unknown_Area_Type
  0
POLYLINE
  8
Unknown_Area_Type
  70
1
  66
1
  0
VERTEX
  8
Unknown_Area_Type
  10
382090.000
  20
4724942.625
  0
VERTEX
  8
Unknown_Area_Type
  10
381672.504
  20
4724810.501
  0
VERTEX
  8
Unknown_Area_Type
  10
381671.186
  20
4724810.524
  0
VERTEX
  8
Unknown_Area_Type
  10
380522.309
  20
4724830.346
  0
VERTEX
  8
Unknown_Area_Type
  10
380061.167
  20
4724958.333
  0
VERTEX
  8
Unknown_Area_Type
  10
379802.949
  20
4725030.000
  0
VERTEX
  8
Unknown_Area_Type
  10
379507.758
  20
4725111.929
  0
VERTEX
  8
Unknown_Area_Type
  10
379507.500
  20
4725112.000
  0
VERTEX
  8
Unknown_Area_Type
  10
379552.091
  20
4729320.000
  0
VERTEX
  8
Unknown_Area_Type
  10
379555.588
  20
4729650.000
  0
VERTEX
  8
Unknown_Area_Type
  10
379559.000
  20
4729972.000
  0
VERTEX
  8
Unknown_Area_Type
  10
380212.000
  20
4730037.500
  0
VERTEX
  8
Unknown_Area_Type
  10
380217.000
  20
4730038.000
  0
VERTEX
  8
Unknown_Area_Type
  10
381518.988
  20
4730167.398
  0
VERTEX
  8
Unknown_Area_Type
  10
381841.198
  20
4730199.420
  0
VERTEX
  8
Unknown_Area_Type
  10
381842.000
  20
4730199.500
  0
VERTEX
  8
Unknown_Area_Type
  10
382170.000
  20
4730067.415
  0
VERTEX
  8
Unknown_Area_Type
  10
382286.337
  20
4730020.566
  0
VERTEX
  8
Unknown_Area_Type
  10
382286.500
  20
4730020.500
  0
VERTEX
  8
Unknown_Area_Type
  10
382284.214
  20
4729650.000
  0
VERTEX
  8
Unknown_Area_Type
  10
382283.474
  20
4729530.000
  0
VERTEX
  8
Unknown_Area_Type
  10
382282.179
  20
4729320.000
  0
VERTEX
  8
Unknown_Area_Type
  10
382281.500
  20
4729210.000
  0
VERTEX
  8
Unknown_Area_Type
  10
382267.500
  20
4726940.355
  0
VERTEX
  8
Unknown_Area_Type
  10
382255.716
  20
4725030.000
  0
VERTEX
  8
Unknown_Area_Type
  10
382255.500
  20
4724995.000
  0
VERTEX
  8
Unknown_Area_Type
  10
382253.680
  20
4724994.424
  0
VERTEX
  8
Unknown_Area_Type
  10
382090.000
  20
4724942.625
  0
SEQEND
  8
Unknown_Area_Type
  0
POLYLINE
  8
Unknown_Area_Type
  70
1
  66
1
  0
VERTEX
  8
Unknown_Area_Type
  10
387534.897
  20
4724836.956
  0
VERTEX
  8
Unknown_Area_Type
  10
387255.569
  20
4724717.475
  0
VERTEX
  8
Unknown_Area_Type
  10
387254.790
  20
4724717.487
  0
VERTEX
  8
Unknown_Area_Type
  10
386006.796
  20
4724737.789
  0
VERTEX
  8
Unknown_Area_Type
  10
386005.367
  20
4724737.812
  0
VERTEX
  8
Unknown_Area_Type
  10
385009.674
  20
4724910.000
  0
VERTEX
  8
Unknown_Area_Type
  10
384868.000
  20
4724934.500
  0
VERTEX
  8
Unknown_Area_Type
  10
384867.062
  20
4724934.813
  0
VERTEX
  8
Unknown_Area_Type
  10
384866.500
  20
4724935.000
  0
VERTEX
  8
Unknown_Area_Type
  10
384866.500
  20
4724937.000
  0
VERTEX
  8
Unknown_Area_Type
  10
385025.896
  20
4729210.000
  0
VERTEX
  8
Unknown_Area_Type
  10
385037.833
  20
4729530.000
  0
VERTEX
  8
Unknown_Area_Type
  10
385053.500
  20
4729950.000
  0
VERTEX
  8
Unknown_Area_Type
  10
385055.294
  20
4729950.121
  0
VERTEX
  8
Unknown_Area_Type
  10
387128.500
  20
4730089.500
  0
VERTEX
  8
Unknown_Area_Type
  10
387136.000
  20
4730090.000
  0
VERTEX
  8
Unknown_Area_Type
  10
387136.261
  20
4730089.891
  0
VERTEX
  8
Unknown_Area_Type
  10
387294.489
  20
4730023.632
  0
VERTEX
  8
Unknown_Area_Type
  10
387754.500
  20
4729831.000
  0
VERTEX
  8
Unknown_Area_Type
  10
387759.000
  20
4729829.000
  0
VERTEX
  8
Unknown_Area_Type
  10
387759.082
  20
4729828.506
  0
VERTEX
  8
Unknown_Area_Type
  10
387759.411
  20
4729826.531
  0
VERTEX
  8
Unknown_Area_Type
  10
387759.500
  20
4729826.000
  0
VERTEX
  8
Unknown_Area_Type
  10
387746.180
  20
4729530.000
  0
VERTEX
  8
Unknown_Area_Type
  10
387731.781
  20
4729210.000
  0
VERTEX
  8
Unknown_Area_Type
  10
387538.284
  20
4724910.000
  0
VERTEX
  8
Unknown_Area_Type
  10
387535.000
  20
4724837.000
  0
VERTEX
  8
Unknown_Area_Type
  10
387534.897
  20
4724836.956
  0
SEQEND
  8
Unknown_Area_Type
  0
POLYLINE
  8
Unknown_Area_Type
  70
1
  66
1
  0
VERTEX
  8
Unknown_Area_Type
  10
384798.359
  20
4724910.000
  0
VERTEX
  8
Unknown_Area_Type
  10
384401.768
  20
4724764.497
  0
VERTEX
  8
Unknown_Area_Type
  10
384401.314
  20
4724764.504
  0
VERTEX
  8
Unknown_Area_Type
  10
383276.789
  20
4724783.352
  0
VERTEX
  8
Unknown_Area_Type
  10
383274.128
  20
4724783.397
  0
VERTEX
  8
Unknown_Area_Type
  10
382664.678
  20
4724910.000
  0
VERTEX
  8
Unknown_Area_Type
  10
382380.000
  20
4724969.137
  0
VERTEX
  8
Unknown_Area_Type
  10
382300.000
  20
4724985.756
  0
VERTEX
  8
Unknown_Area_Type
  10
382256.477
  20
4724994.797
  0
VERTEX
  8
Unknown_Area_Type
  10
382255.500
  20
4724995.000
  0
VERTEX
  8
Unknown_Area_Type
  10
382255.720
  20
4725030.000
  0
VERTEX
  8
Unknown_Area_Type
  10
382267.500
  20
4726906.500
  0
VERTEX
  8
Unknown_Area_Type
  10
382267.500
  20
4726940.355
  0
VERTEX
  8
Unknown_Area_Type
  10
382267.500
  20
4726987.500
  0
VERTEX
  8
Unknown_Area_Type
  10
382281.423
  20
4729210.000
  0
VERTEX
  8
Unknown_Area_Type
  10
382282.112
  20
4729320.000
  0
VERTEX
  8
Unknown_Area_Type
  10
382283.427
  20
4729530.000
  0
VERTEX
  8
Unknown_Area_Type
  10
382284.179
  20
4729650.000
  0
VERTEX
  8
Unknown_Area_Type
  10
382286.500
  20
4730020.500
  0
VERTEX
  8
Unknown_Area_Type
  10
382460.000
  20
4730034.082
  0
VERTEX
  8
Unknown_Area_Type
  10
384489.577
  20
4730192.967
  0
VERTEX
  8
Unknown_Area_Type
  10
384490.000
  20
4730193.000
  0
VERTEX
  8
Unknown_Area_Type
  10
385052.594
  20
4729950.391
  0
VERTEX
  8
Unknown_Area_Type
  10
385053.500
  20
4729950.000
  0
VERTEX
  8
Unknown_Area_Type
  10
385037.839
  20
4729530.000
  0
VERTEX
  8
Unknown_Area_Type
  10
385025.907
  20
4729210.000
  0
VERTEX
  8
Unknown_Area_Type
  10
384866.500
  20
4724935.000
  0
VERTEX
  8
Unknown_Area_Type
  10
384864.702
  20
4724934.341
  0
VERTEX
  8
Unknown_Area_Type
  10
384798.359
  20
4724910.000
  0
SEQEND
  8
Unknown_Area_Type
  0
POLYLINE
  8
Unknown_Area_Type
  70
1
  66
1
  0
VERTEX
  8
Unknown_Area_Type
  10
395558.829
  20
4724790.000
  0
VERTEX
  8
Unknown_Area_Type
  10
395548.052
  20
4724587.323
  0
VERTEX
  8
Unknown_Area_Type
  10
392891.473
  20
4724627.918
  0
VERTEX
  8
Unknown_Area_Type
  10
392891.468
  20
4724627.919
  0
VERTEX
  8
Unknown_Area_Type
  10
392900.544
  20
4724790.000
  0
VERTEX
  8
Unknown_Area_Type
  10
393141.911
  20
4729100.000
  0
VERTEX
  8
Unknown_Area_Type
  10
393159.832
  20
4729420.000
  0
VERTEX
  8
Unknown_Area_Type
  10
393163.500
  20
4729485.500
  0
VERTEX
  8
Unknown_Area_Type
  10
393163.959
  20
4729485.776
  0
VERTEX
  8
Unknown_Area_Type
  10
393165.379
  20
4729486.627
  0
VERTEX
  8
Unknown_Area_Type
  10
393166.000
  20
4729487.000
  0
VERTEX
  8
Unknown_Area_Type
  10
393180.500
  20
4729488.000
  0
VERTEX
  8
Unknown_Area_Type
  10
395149.000
  20
4729621.500
  0
VERTEX
  8
Unknown_Area_Type
  10
395156.000
  20
4729622.000
  0
VERTEX
  8
Unknown_Area_Type
  10
395162.000
  20
4729622.000
  0
VERTEX
  8
Unknown_Area_Type
  10
395162.500
  20
4729622.000
  0
VERTEX
  8
Unknown_Area_Type
  10
395169.500
  20
4729619.000
  0
VERTEX
  8
Unknown_Area_Type
  10
395611.644
  20
4729420.000
  0
VERTEX
  8
Unknown_Area_Type
  10
395800.500
  20
4729335.000
  0
VERTEX
  8
Unknown_Area_Type
  10
395799.171
  20
4729310.000
  0
VERTEX
  8
Unknown_Area_Type
  10
395788.005
  20
4729100.000
  0
VERTEX
  8
Unknown_Area_Type
  10
395750.000
  20
4728385.268
  0
VERTEX
  8
Unknown_Area_Type
  10
395558.829
  20
4724790.000
  0
SEQEND
  8
Unknown_Area_Type
  0
POLYLINE
  8
Unknown_Area_Type
  70
1
  66
1
  0
VERTEX
  8
Unknown_Area_Type
  10
389545.000
  20
4729871.000
  0
VERTEX
  8
Unknown_Area_Type
  10
389544.500
  20
4729871.000
  0
VERTEX
  8
Unknown_Area_Type
  10
389540.500
  20
4729875.500
  0
VERTEX
  8
Unknown_Area_Type
  10
389540.977
  20
4729885.036
  0
VERTEX
  8
Unknown_Area_Type
  10
389541.000
  20
4729885.500
  0
VERTEX
  8
Unknown_Area_Type
  10
389542.853
  20
4729887.147
  0
VERTEX
  8
Unknown_Area_Type
  10
389545.500
  20
4729889.500
  0
VERTEX
  8
Unknown_Area_Type
  10
389554.500
  20
4729889.500
  0
VERTEX
  8
Unknown_Area_Type
  10
389555.500
  20
4729889.000
  0
VERTEX
  8
Unknown_Area_Type
  10
389559.500
  20
4729884.500
  0
VERTEX
  8
Unknown_Area_Type
  10
389559.000
  20
4729879.500
  0
VERTEX
  8
Unknown_Area_Type
  10
389550.500
  20
4729871.000
  0
VERTEX
  8
Unknown_Area_Type
  10
389545.000
  20
4729871.000
  0
SEQEND
  8
Unknown_Area_Type
  0
POLYLINE
  8
Unknown_Area_Type
  70
1
  66
1
  0
VERTEX
  8
Unknown_Area_Type
  10
390209.809
  20
4724746.210
  0
VERTEX
  8
Unknown_Area_Type
  10
390055.837
  20
4724672.428
  0
VERTEX
  8
Unknown_Area_Type
  10
390054.963
  20
4724672.442
  0
VERTEX
  8
Unknown_Area_Type
  10
389028.474
  20
4724688.634
  0
VERTEX
  8
Unknown_Area_Type
  10
388857.075
  20
4724691.422
  0
VERTEX
  8
Unknown_Area_Type
  10
388853.799
  20
4724691.475
  0
VERTEX
  8
Unknown_Area_Type
  10
388850.000
  20
4724691.895
  0
VERTEX
  8
Unknown_Area_Type
  10
388409.520
  20
4724740.500
  0
VERTEX
  8
Unknown_Area_Type
  10
387535.000
  20
4724837.000
  0
VERTEX
  8
Unknown_Area_Type
  10
387538.284
  20
4724910.000
  0
VERTEX
  8
Unknown_Area_Type
  10
387731.682
  20
4729210.000
  0
VERTEX
  8
Unknown_Area_Type
  10
387746.075
  20
4729530.000
  0
VERTEX
  8
Unknown_Area_Type
  10
387759.411
  20
4729826.531
  0
VERTEX
  8
Unknown_Area_Type
  10
387759.500
  20
4729828.500
  0
VERTEX
  8
Unknown_Area_Type
  10
389000.000
  20
4729912.720
  0
VERTEX
  8
Unknown_Area_Type
  10
389280.000
  20
4729931.730
  0
VERTEX
  8
Unknown_Area_Type
  10
389799.500
  20
4729967.000
  0
VERTEX
  8
Unknown_Area_Type
  10
389799.527
  20
4729966.988
  0
VERTEX
  8
Unknown_Area_Type
  10
390452.757
  20
4729683.212
  0
VERTEX
  8
Unknown_Area_Type
  10
390459.000
  20
4729680.500
  0
VERTEX
  8
Unknown_Area_Type
  10
390460.000
  20
4729680.000
  0
VERTEX
  8
Unknown_Area_Type
  10
390461.744
  20
4729679.315
  0
VERTEX
  8
Unknown_Area_Type
  10
390474.000
  20
4729674.500
  0
VERTEX
  8
Unknown_Area_Type
  10
390474.000
  20
4729674.000
  0
VERTEX
  8
Unknown_Area_Type
  10
390474.000
  20
4729666.500
  0
VERTEX
  8
Unknown_Area_Type
  10
390460.896
  20
4729420.000
  0
VERTEX
  8
Unknown_Area_Type
  10
390443.884
  20
4729100.000
  0
VERTEX
  8
Unknown_Area_Type
  10
390214.759
  20
4724790.000
  0
VERTEX
  8
Unknown_Area_Type
  10
390212.500
  20
4724747.500
  0
VERTEX
  8
Unknown_Area_Type
  10
390209.809
  20
4724746.210
  0
SEQEND
  8
Unknown_Area_Type
  0
POLYLINE
  8
Unknown_Area_Type
  70
1
  66
1
  0
VERTEX
  8
Unknown_Area_Type
  10
398217.297
  20
4724690.000
  0
VERTEX
  8
Unknown_Area_Type
  10
398209.416
  20
4724547.813
  0
VERTEX
  8
Unknown_Area_Type
  10
395857.587
  20
4724582.592
  0
VERTEX
  8
Unknown_Area_Type
  10
395548.078
  20
4724587.322
  0
VERTEX
  8
Unknown_Area_Type
  10
395558.854
  20
4724790.000
  0
VERTEX
  8
Unknown_Area_Type
  10
395750.000
  20
4728385.170
  0
VERTEX
  8
Unknown_Area_Type
  10
395788.005
  20
4729100.000
  0
VERTEX
  8
Unknown_Area_Type
  10
395799.171
  20
4729310.000
  0
VERTEX
  8
Unknown_Area_Type
  10
395800.500
  20
4729335.000
  0
VERTEX
  8
Unknown_Area_Type
  10
395820.000
  20
4729336.057
  0
VERTEX
  8
Unknown_Area_Type
  10
396030.000
  20
4729347.445
  0
VERTEX
  8
Unknown_Area_Type
  10
396100.000
  20
4729351.240
  0
VERTEX
  8
Unknown_Area_Type
  10
396593.500
  20
4729378.000
  0
VERTEX
  8
Unknown_Area_Type
  10
396602.500
  20
4729378.500
  0
VERTEX
  8
Unknown_Area_Type
  10
397816.461
  20
4729443.839
  0
VERTEX
  8
Unknown_Area_Type
  10
397948.601
  20
4729450.952
  0
VERTEX
  8
Unknown_Area_Type
  10
397949.500
  20
4729451.000
  0
VERTEX
  8
Unknown_Area_Type
  10
398245.200
  20
4729310.000
  0
VERTEX
  8
Unknown_Area_Type
  10
398467.470
  20
4729204.014
  0
VERTEX
  8
Unknown_Area_Type
  10
398467.500
  20
4729204.000
  0
VERTEX
  8
Unknown_Area_Type
  10
398456.747
  20
4729010.000
  0
VERTEX
  8
Unknown_Area_Type
  10
398217.297
  20
4724690.000
  0
SEQEND
  8
Unknown_Area_Type
  0
POLYLINE
  8
Unknown_Area_Type
  70
1
  66
1
  0
VERTEX
  8
Unknown_Area_Type
  10
392900.565
  20
4724790.000
  0
VERTEX
  8
Unknown_Area_Type
  10
392891.473
  20
4724627.918
  0
VERTEX
  8
Unknown_Area_Type
  10
392891.468
  20
4724627.919
  0
VERTEX
  8
Unknown_Area_Type
  10
392443.033
  20
4724634.771
  0
VERTEX
  8
Unknown_Area_Type
  10
391261.373
  20
4724653.411
  0
VERTEX
  8
Unknown_Area_Type
  10
391260.539
  20
4724653.424
  0
VERTEX
  8
Unknown_Area_Type
  10
390213.661
  20
4724747.396
  0
VERTEX
  8
Unknown_Area_Type
  10
390212.500
  20
4724747.500
  0
VERTEX
  8
Unknown_Area_Type
  10
390214.759
  20
4724790.000
  0
VERTEX
  8
Unknown_Area_Type
  10
390443.872
  20
4729100.000
  0
VERTEX
  8
Unknown_Area_Type
  10
390459.500
  20
4729394.000
  0
VERTEX
  8
Unknown_Area_Type
  10
390459.500
  20
4729403.500
  0
VERTEX
  8
Unknown_Area_Type
  10
390460.378
  20
4729420.000
  0
VERTEX
  8
Unknown_Area_Type
  10
390473.500
  20
4729666.500
  0
VERTEX
  8
Unknown_Area_Type
  10
390474.000
  20
4729674.000
  0
VERTEX
  8
Unknown_Area_Type
  10
390476.000
  20
4729674.500
  0
VERTEX
  8
Unknown_Area_Type
  10
392393.000
  20
4729813.000
  0
VERTEX
  8
Unknown_Area_Type
  10
392395.725
  20
4729812.727
  0
VERTEX
  8
Unknown_Area_Type
  10
392401.486
  20
4729812.151
  0
VERTEX
  8
Unknown_Area_Type
  10
392403.000
  20
4729812.000
  0
VERTEX
  8
Unknown_Area_Type
  10
393163.932
  20
4729486.529
  0
VERTEX
  8
Unknown_Area_Type
  10
393164.000
  20
4729486.500
  0
VERTEX
  8
Unknown_Area_Type
  10
393163.959
  20
4729485.776
  0
VERTEX
  8
Unknown_Area_Type
  10
393160.270
  20
4729420.000
  0
VERTEX
  8
Unknown_Area_Type
  10
393142.320
  20
4729100.000
  0
VERTEX
  8
Unknown_Area_Type
  10
392900.565
  20
4724790.000
  0
SEQEND
  8
Unknown_Area_Type
  0
POLYLINE
  8
Unknown_Area_Type
  70
1
  66
1
  0
VERTEX
  8
Unknown_Area_Type
  10
402816.786
  20
4733737.001
  0
VERTEX
  8
Unknown_Area_Type
  10
402807.184
  20
4733054.454
  0
VERTEX
  8
Unknown_Area_Type
  10
402650.000
  20
4733082.623
  0
VERTEX
  8
Unknown_Area_Type
  10
401350.506
  20
4733315.499
  0
VERTEX
  8
Unknown_Area_Type
  10
401350.500
  20
4733315.500
  0
VERTEX
  8
Unknown_Area_Type
  10
401354.517
  20
4733630.000
  0
VERTEX
  8
Unknown_Area_Type
  10
401358.476
  20
4733940.000
  0
VERTEX
  8
Unknown_Area_Type
  10
401398.000
  20
4737034.500
  0
VERTEX
  8
Unknown_Area_Type
  10
401398.098
  20
4737034.541
  0
VERTEX
  8
Unknown_Area_Type
  10
402042.967
  20
4737305.147
  0
VERTEX
  8
Unknown_Area_Type
  10
402043.993
  20
4737305.578
  0
VERTEX
  8
Unknown_Area_Type
  10
402045.000
  20
4737306.000
  0
VERTEX
  8
Unknown_Area_Type
  10
402868.846
  20
4737435.637
  0
VERTEX
  8
Unknown_Area_Type
  10
402868.841
  20
4737435.288
  0
VERTEX
  8
Unknown_Area_Type
  10
402849.344
  20
4736050.449
  0
VERTEX
  8
Unknown_Area_Type
  10
402816.786
  20
4733737.001
  0
SEQEND
  8
Unknown_Area_Type
  0
POLYLINE
  8
Unknown_Area_Type
  70
1
  66
1
  0
VERTEX
  8
Unknown_Area_Type
  10
400870.103
  20
4724690.000
  0
VERTEX
  8
Unknown_Area_Type
  10
400861.599
  20
4724509.376
  0
VERTEX
  8
Unknown_Area_Type
  10
399272.137
  20
4724532.097
  0
VERTEX
  8
Unknown_Area_Type
  10
398209.416
  20
4724547.813
  0
VERTEX
  8
Unknown_Area_Type
  10
398217.297
  20
4724690.000
  0
VERTEX
  8
Unknown_Area_Type
  10
398456.747
  20
4729010.000
  0
VERTEX
  8
Unknown_Area_Type
  10
398467.500
  20
4729204.000
  0
VERTEX
  8
Unknown_Area_Type
  10
398653.198
  20
4729209.750
  0
VERTEX
  8
Unknown_Area_Type
  10
400696.000
  20
4729273.000
  0
VERTEX
  8
Unknown_Area_Type
  10
400700.000
  20
4729273.000
  0
VERTEX
  8
Unknown_Area_Type
  10
400701.500
  20
4729273.000
  0
VERTEX
  8
Unknown_Area_Type
  10
400702.000
  20
4729273.000
  0
VERTEX
  8
Unknown_Area_Type
  10
401077.000
  20
4729084.500
  0
VERTEX
  8
Unknown_Area_Type
  10
401073.493
  20
4729010.000
  0
VERTEX
  8
Unknown_Area_Type
  10
400870.103
  20
4724690.000
  0
SEQEND
  8
Unknown_Area_Type
  0
POLYLINE
  8
Unknown_Area_Type
  70
1
  66
1
  0
VERTEX
  8
Unknown_Area_Type
  10
401077.000
  20
4729084.500
  0
VERTEX
  8
Unknown_Area_Type
  10
402606.000
  20
4729081.500
  0
VERTEX
  8
Unknown_Area_Type
  10
402650.000
  20
4729081.500
  0
VERTEX
  8
Unknown_Area_Type
  10
402682.823
  20
4729081.500
  0
VERTEX
  8
Unknown_Area_Type
  10
402748.000
  20
4729081.500
  0
VERTEX
  8
Unknown_Area_Type
  10
402751.306
  20
4729081.493
  0
VERTEX
  8
Unknown_Area_Type
  10
402751.304
  20
4729081.372
  0
VERTEX
  8
Unknown_Area_Type
  10
402719.189
  20
4726796.703
  0
VERTEX
  8
Unknown_Area_Type
  10
402686.682
  20
4724483.286
  0
VERTEX
  8
Unknown_Area_Type
  10
400861.621
  20
4724509.376
  0
VERTEX
  8
Unknown_Area_Type
  10
400870.124
  20
4724690.000
  0
VERTEX
  8
Unknown_Area_Type
  10
401073.493
  20
4729010.000
  0
VERTEX
  8
Unknown_Area_Type
  10
401077.000
  20
4729084.500
  0
SEQEND
  8
Unknown_Area_Type
  0
POLYLINE
  8
Unknown_Area_Type
  70
1
  66
1
  0
VERTEX
  8
Unknown_Area_Type
  10
395229.732
  20
4742184.922
  0
VERTEX
  8
Unknown_Area_Type
  10
393718.500
  20
4741743.000
  0
VERTEX
  8
Unknown_Area_Type
  10
393718.497
  20
4741743.001
  0
VERTEX
  8
Unknown_Area_Type
  10
392577.823
  20
4742185.487
  0
VERTEX
  8
Unknown_Area_Type
  10
392576.500
  20
4742186.000
  0
VERTEX
  8
Unknown_Area_Type
  10
392583.419
  20
4742990.000
  0
VERTEX
  8
Unknown_Area_Type
  10
392584.750
  20
4743144.712
  0
VERTEX
  8
Unknown_Area_Type
  10
392730.870
  20
4743142.400
  0
VERTEX
  8
Unknown_Area_Type
  10
395204.912
  20
4743104.474
  0
VERTEX
  8
Unknown_Area_Type
  10
395204.922
  20
4743104.474
  0
VERTEX
  8
Unknown_Area_Type
  10
395208.044
  20
4742990.000
  0
VERTEX
  8
Unknown_Area_Type
  10
395230.000
  20
4742185.000
  0
VERTEX
  8
Unknown_Area_Type
  10
395229.987
  20
4742184.996
  0
VERTEX
  8
Unknown_Area_Type
  10
395229.732
  20
4742184.922
  0
SEQEND
  8
Unknown_Area_Type
  0
POLYLINE
  8
Unknown_Area_Type
  70
1
  66
1
  0
VERTEX
  8
Unknown_Area_Type
  10
387434.682
  20
4742160.925
  0
VERTEX
  8
Unknown_Area_Type
  10
385702.000
  20
4741754.000
  0
VERTEX
  8
Unknown_Area_Type
  10
385701.827
  20
4741754.077
  0
VERTEX
  8
Unknown_Area_Type
  10
385701.498
  20
4741754.224
  0
VERTEX
  8
Unknown_Area_Type
  10
384894.500
  20
4742113.500
  0
VERTEX
  8
Unknown_Area_Type
  10
384892.000
  20
4742115.000
  0
VERTEX
  8
Unknown_Area_Type
  10
384891.629
  20
4742129.468
  0
VERTEX
  8
Unknown_Area_Type
  10
384891.500
  20
4742134.500
  0
VERTEX
  8
Unknown_Area_Type
  10
384867.818
  20
4743090.000
  0
VERTEX
  8
Unknown_Area_Type
  10
384863.366
  20
4743269.626
  0
VERTEX
  8
Unknown_Area_Type
  10
384863.368
  20
4743269.626
  0
VERTEX
  8
Unknown_Area_Type
  10
385920.030
  20
4743251.860
  0
VERTEX
  8
Unknown_Area_Type
  10
387403.334
  20
4743227.654
  0
VERTEX
  8
Unknown_Area_Type
  10
387403.344
  20
4743227.654
  0
VERTEX
  8
Unknown_Area_Type
  10
387407.429
  20
4743090.000
  0
VERTEX
  8
Unknown_Area_Type
  10
387435.000
  20
4742161.000
  0
VERTEX
  8
Unknown_Area_Type
  10
387434.985
  20
4742160.997
  0
VERTEX
  8
Unknown_Area_Type
  10
387434.682
  20
4742160.925
  0
SEQEND
  8
Unknown_Area_Type
  0
POLYLINE
  8
Unknown_Area_Type
  70
1
  66
1
  0
VERTEX
  8
Unknown_Area_Type
  10
389150.000
  20
4741983.506
  0
VERTEX
  8
Unknown_Area_Type
  10
388338.000
  20
4741789.000
  0
VERTEX
  8
Unknown_Area_Type
  10
388337.629
  20
4741789.153
  0
VERTEX
  8
Unknown_Area_Type
  10
387810.875
  20
4742005.863
  0
VERTEX
  8
Unknown_Area_Type
  10
387435.000
  20
4742160.500
  0
VERTEX
  8
Unknown_Area_Type
  10
387434.991
  20
4742160.798
  0
VERTEX
  8
Unknown_Area_Type
  10
387434.985
  20
4742160.997
  0
VERTEX
  8
Unknown_Area_Type
  10
387407.418
  20
4743090.000
  0
VERTEX
  8
Unknown_Area_Type
  10
387403.334
  20
4743227.654
  0
VERTEX
  8
Unknown_Area_Type
  10
387403.344
  20
4743227.654
  0
VERTEX
  8
Unknown_Area_Type
  10
389325.452
  20
4743196.288
  0
VERTEX
  8
Unknown_Area_Type
  10
389981.263
  20
4743185.910
  0
VERTEX
  8
Unknown_Area_Type
  10
389981.547
  20
4743185.905
  0
VERTEX
  8
Unknown_Area_Type
  10
389982.789
  20
4742990.000
  0
VERTEX
  8
Unknown_Area_Type
  10
389987.500
  20
4742247.500
  0
VERTEX
  8
Unknown_Area_Type
  10
389987.281
  20
4742219.675
  0
VERTEX
  8
Unknown_Area_Type
  10
389987.002
  20
4742184.261
  0
VERTEX
  8
Unknown_Area_Type
  10
389987.000
  20
4742184.000
  0
VERTEX
  8
Unknown_Area_Type
  10
389430.000
  20
4742050.577
  0
VERTEX
  8
Unknown_Area_Type
  10
389150.000
  20
4741983.506
  0
SEQEND
  8
Unknown_Area_Type
  0
POLYLINE
  8
Unknown_Area_Type
  70
1
  66
1
  0
VERTEX
  8
Unknown_Area_Type
  10
392575.883
  20
4742185.839
  0
VERTEX
  8
Unknown_Area_Type
  10
390987.500
  20
4741772.500
  0
VERTEX
  8
Unknown_Area_Type
  10
389987.684
  20
4742184.424
  0
VERTEX
  8
Unknown_Area_Type
  10
389987.500
  20
4742184.500
  0
VERTEX
  8
Unknown_Area_Type
  10
389987.281
  20
4742219.675
  0
VERTEX
  8
Unknown_Area_Type
  10
389982.483
  20
4742990.000
  0
VERTEX
  8
Unknown_Area_Type
  10
389981.263
  20
4743185.910
  0
VERTEX
  8
Unknown_Area_Type
  10
389981.547
  20
4743185.905
  0
VERTEX
  8
Unknown_Area_Type
  10
392584.750
  20
4743144.712
  0
VERTEX
  8
Unknown_Area_Type
  10
392583.419
  20
4742990.000
  0
VERTEX
  8
Unknown_Area_Type
  10
392576.500
  20
4742186.000
  0
VERTEX
  8
Unknown_Area_Type
  10
392575.883
  20
4742185.839
  0
SEQEND
  8
Unknown_Area_Type
  0
POLYLINE
  8
Unknown_Area_Type
  70
1
  66
1
  0
VERTEX
  8
Unknown_Area_Type
  10
383106.854
  20
4741760.070
  0
VERTEX
  8
Unknown_Area_Type
  10
383106.500
  20
4741760.000
  0
VERTEX
  8
Unknown_Area_Type
  10
382620.000
  20
4741993.351
  0
VERTEX
  8
Unknown_Area_Type
  10
382359.318
  20
4742118.388
  0
VERTEX
  8
Unknown_Area_Type
  10
382357.000
  20
4742119.500
  0
VERTEX
  8
Unknown_Area_Type
  10
382381.517
  20
4743200.000
  0
VERTEX
  8
Unknown_Area_Type
  10
382384.044
  20
4743311.377
  0
VERTEX
  8
Unknown_Area_Type
  10
382514.603
  20
4743309.117
  0
VERTEX
  8
Unknown_Area_Type
  10
384863.366
  20
4743269.626
  0
VERTEX
  8
Unknown_Area_Type
  10
384863.368
  20
4743269.626
  0
VERTEX
  8
Unknown_Area_Type
  10
384867.821
  20
4743090.000
  0
VERTEX
  8
Unknown_Area_Type
  10
384891.629
  20
4742129.468
  0
VERTEX
  8
Unknown_Area_Type
  10
384891.988
  20
4742114.997
  0
VERTEX
  8
Unknown_Area_Type
  10
384892.000
  20
4742114.500
  0
VERTEX
  8
Unknown_Area_Type
  10
383404.021
  20
4741819.071
  0
VERTEX
  8
Unknown_Area_Type
  10
383106.854
  20
4741760.070
  0
SEQEND
  8
Unknown_Area_Type
  0
POLYLINE
  8
Unknown_Area_Type
  70
1
  66
1
  0
VERTEX
  8
Unknown_Area_Type
  10
379695.656
  20
4742146.920
  0
VERTEX
  8
Unknown_Area_Type
  10
377895.500
  20
4741945.000
  0
VERTEX
  8
Unknown_Area_Type
  10
377893.990
  20
4741945.168
  0
VERTEX
  8
Unknown_Area_Type
  10
377891.800
  20
4741945.411
  0
VERTEX
  8
Unknown_Area_Type
  10
377891.000
  20
4741945.500
  0
VERTEX
  8
Unknown_Area_Type
  10
377451.420
  20
4742203.666
  0
VERTEX
  8
Unknown_Area_Type
  10
377450.000
  20
4742204.500
  0
VERTEX
  8
Unknown_Area_Type
  10
377450.896
  20
4743200.000
  0
VERTEX
  8
Unknown_Area_Type
  10
377451.073
  20
4743397.578
  0
VERTEX
  8
Unknown_Area_Type
  10
379109.172
  20
4743368.059
  0
VERTEX
  8
Unknown_Area_Type
  10
379925.964
  20
4743353.922
  0
VERTEX
  8
Unknown_Area_Type
  10
379921.617
  20
4743200.000
  0
VERTEX
  8
Unknown_Area_Type
  10
379892.500
  20
4742169.000
  0
VERTEX
  8
Unknown_Area_Type
  10
379695.656
  20
4742146.920
  0
SEQEND
  8
Unknown_Area_Type
  0
POLYLINE
  8
Unknown_Area_Type
  70
1
  66
1
  0
VERTEX
  8
Unknown_Area_Type
  10
397931.848
  20
4742215.186
  0
VERTEX
  8
Unknown_Area_Type
  10
397146.000
  20
4741968.000
  0
VERTEX
  8
Unknown_Area_Type
  10
397144.626
  20
4741968.040
  0
VERTEX
  8
Unknown_Area_Type
  10
396251.888
  20
4741993.693
  0
VERTEX
  8
Unknown_Area_Type
  10
396240.000
  20
4741994.035
  0
VERTEX
  8
Unknown_Area_Type
  10
395960.000
  20
4742002.080
  0
VERTEX
  8
Unknown_Area_Type
  10
395754.000
  20
4742008.000
  0
VERTEX
  8
Unknown_Area_Type
  10
395752.565
  20
4742008.483
  0
VERTEX
  8
Unknown_Area_Type
  10
395572.374
  20
4742069.177
  0
VERTEX
  8
Unknown_Area_Type
  10
395230.000
  20
4742184.500
  0
VERTEX
  8
Unknown_Area_Type
  10
395229.991
  20
4742184.834
  0
VERTEX
  8
Unknown_Area_Type
  10
395229.987
  20
4742184.996
  0
VERTEX
  8
Unknown_Area_Type
  10
395208.034
  20
4742990.000
  0
VERTEX
  8
Unknown_Area_Type
  10
395204.912
  20
4743104.474
  0
VERTEX
  8
Unknown_Area_Type
  10
395204.922
  20
4743104.474
  0
VERTEX
  8
Unknown_Area_Type
  10
396136.283
  20
4743090.197
  0
VERTEX
  8
Unknown_Area_Type
  10
399312.528
  20
4743043.078
  0
VERTEX
  8
Unknown_Area_Type
  10
399312.799
  20
4743043.074
  0
VERTEX
  8
Unknown_Area_Type
  10
398077.500
  20
4742261.000
  0
VERTEX
  8
Unknown_Area_Type
  10
398075.517
  20
4742260.376
  0
VERTEX
  8
Unknown_Area_Type
  10
397931.848
  20
4742215.186
  0
SEQEND
  8
Unknown_Area_Type
  0
POLYLINE
  8
Unknown_Area_Type
  70
1
  66
1
  0
VERTEX
  8
Unknown_Area_Type
  10
375810.000
  20
4742075.486
  0
VERTEX
  8
Unknown_Area_Type
  10
375679.129
  20
4742065.190
  0
VERTEX
  8
Unknown_Area_Type
  10
375703.736
  20
4743428.686
  0
VERTEX
  8
Unknown_Area_Type
  10
377451.073
  20
4743397.578
  0
VERTEX
  8
Unknown_Area_Type
  10
377450.896
  20
4743200.000
  0
VERTEX
  8
Unknown_Area_Type
  10
377450.000
  20
4742204.500
  0
VERTEX
  8
Unknown_Area_Type
  10
377447.353
  20
4742204.292
  0
VERTEX
  8
Unknown_Area_Type
  10
375950.660
  20
4742086.551
  0
VERTEX
  8
Unknown_Area_Type
  10
375810.000
  20
4742075.486
  0
SEQEND
  8
Unknown_Area_Type
  0
POLYLINE
  8
Unknown_Area_Type
  70
1
  66
1
  0
VERTEX
  8
Unknown_Area_Type
  10
402650.000
  20
4733082.232
  0
VERTEX
  8
Unknown_Area_Type
  10
402746.000
  20
4733065.000
  0
VERTEX
  8
Unknown_Area_Type
  10
402748.000
  20
4733065.000
  0
VERTEX
  8
Unknown_Area_Type
  10
402807.183
  20
4733054.392
  0
VERTEX
  8
Unknown_Area_Type
  10
402784.241
  20
4731423.560
  0
VERTEX
  8
Unknown_Area_Type
  10
402751.708
  20
4729110.127
  0
VERTEX
  8
Unknown_Area_Type
  10
402751.306
  20
4729081.493
  0
VERTEX
  8
Unknown_Area_Type
  10
402751.304
  20
4729081.372
  0
VERTEX
  8
Unknown_Area_Type
  10
402682.823
  20
4729081.500
  0
VERTEX
  8
Unknown_Area_Type
  10
402650.000
  20
4729081.561
  0
VERTEX
  8
Unknown_Area_Type
  10
401077.000
  20
4729084.500
  0
VERTEX
  8
Unknown_Area_Type
  10
401076.500
  20
4729084.500
  0
VERTEX
  8
Unknown_Area_Type
  10
400701.500
  20
4729273.000
  0
VERTEX
  8
Unknown_Area_Type
  10
400704.020
  20
4729310.000
  0
VERTEX
  8
Unknown_Area_Type
  10
400954.466
  20
4732988.006
  0
VERTEX
  8
Unknown_Area_Type
  10
400954.483
  20
4732988.246
  0
VERTEX
  8
Unknown_Area_Type
  10
400954.500
  20
4732988.500
  0
VERTEX
  8
Unknown_Area_Type
  10
401350.500
  20
4733315.500
  0
VERTEX
  8
Unknown_Area_Type
  10
401350.506
  20
4733315.499
  0
VERTEX
  8
Unknown_Area_Type
  10
402650.000
  20
4733082.232
  0
SEQEND
  8
Unknown_Area_Type
  0
POLYLINE
  8
Unknown_Area_Type
  70
1
  66
1
  0
VERTEX
  8
Unknown_Area_Type
  10
382330.000
  20
4742115.368
  0
VERTEX
  8
Unknown_Area_Type
  10
380498.000
  20
4741835.000
  0
VERTEX
  8
Unknown_Area_Type
  10
380497.987
  20
4741835.007
  0
VERTEX
  8
Unknown_Area_Type
  10
379892.584
  20
4742168.954
  0
VERTEX
  8
Unknown_Area_Type
  10
379892.500
  20
4742169.000
  0
VERTEX
  8
Unknown_Area_Type
  10
379921.617
  20
4743200.000
  0
VERTEX
  8
Unknown_Area_Type
  10
379925.964
  20
4743353.922
  0
VERTEX
  8
Unknown_Area_Type
  10
382384.044
  20
4743311.377
  0
VERTEX
  8
Unknown_Area_Type
  10
382381.517
  20
4743200.000
  0
VERTEX
  8
Unknown_Area_Type
  10
382357.000
  20
4742119.500
  0
VERTEX
  8
Unknown_Area_Type
  10
382355.497
  20
4742119.270
  0
VERTEX
  8
Unknown_Area_Type
  10
382330.000
  20
4742115.368
  0
SEQEND
  8
Unknown_Area_Type
  0
POLYLINE
  8
Unknown_Area_Type
  70
1
  66
1
  0
VERTEX
  8
Unknown_Area_Type
  10
396529.735
  20
4733470.637
  0
VERTEX
  8
Unknown_Area_Type
  10
396603.000
  20
4733455.500
  0
VERTEX
  8
Unknown_Area_Type
  10
396603.323
  20
4733455.500
  0
VERTEX
  8
Unknown_Area_Type
  10
396604.000
  20
4733455.500
  0
VERTEX
  8
Unknown_Area_Type
  10
398158.500
  20
4733136.000
  0
VERTEX
  8
Unknown_Area_Type
  10
398158.478
  20
4733135.607
  0
VERTEX
  8
Unknown_Area_Type
  10
397948.500
  20
4729451.000
  0
VERTEX
  8
Unknown_Area_Type
  10
397816.461
  20
4729443.839
  0
VERTEX
  8
Unknown_Area_Type
  10
396100.000
  20
4729350.754
  0
VERTEX
  8
Unknown_Area_Type
  10
396030.000
  20
4729346.958
  0
VERTEX
  8
Unknown_Area_Type
  10
395820.000
  20
4729335.569
  0
VERTEX
  8
Unknown_Area_Type
  10
395809.500
  20
4729335.000
  0
VERTEX
  8
Unknown_Area_Type
  10
395800.500
  20
4729335.000
  0
VERTEX
  8
Unknown_Area_Type
  10
395799.500
  20
4729335.000
  0
VERTEX
  8
Unknown_Area_Type
  10
395797.000
  20
4729336.000
  0
VERTEX
  8
Unknown_Area_Type
  10
395610.497
  20
4729420.000
  0
VERTEX
  8
Unknown_Area_Type
  10
395162.000
  20
4729622.000
  0
VERTEX
  8
Unknown_Area_Type
  10
395404.500
  20
4733260.500
  0
VERTEX
  8
Unknown_Area_Type
  10
395550.179
  20
4733377.676
  0
VERTEX
  8
Unknown_Area_Type
  10
395820.000
  20
4733594.706
  0
VERTEX
  8
Unknown_Area_Type
  10
395841.500
  20
4733612.000
  0
VERTEX
  8
Unknown_Area_Type
  10
395842.308
  20
4733611.846
  0
VERTEX
  8
Unknown_Area_Type
  10
395854.603
  20
4733609.510
  0
VERTEX
  8
Unknown_Area_Type
  10
395891.500
  20
4733602.500
  0
VERTEX
  8
Unknown_Area_Type
  10
396100.000
  20
4733559.423
  0
VERTEX
  8
Unknown_Area_Type
  10
396529.735
  20
4733470.637
  0
SEQEND
  8
Unknown_Area_Type
  0
POLYLINE
  8
Unknown_Area_Type
  70
1
  66
1
  0
VERTEX
  8
Unknown_Area_Type
  10
398467.470
  20
4729204.014
  0
VERTEX
  8
Unknown_Area_Type
  10
398467.000
  20
4729204.000
  0
VERTEX
  8
Unknown_Area_Type
  10
398244.486
  20
4729310.000
  0
VERTEX
  8
Unknown_Area_Type
  10
397948.601
  20
4729450.952
  0
VERTEX
  8
Unknown_Area_Type
  10
397948.500
  20
4729451.000
  0
VERTEX
  8
Unknown_Area_Type
  10
398158.500
  20
4733135.500
  0
VERTEX
  8
Unknown_Area_Type
  10
398158.600
  20
4733135.582
  0
VERTEX
  8
Unknown_Area_Type
  10
398423.770
  20
4733354.040
  0
VERTEX
  8
Unknown_Area_Type
  10
398536.000
  20
4733446.500
  0
VERTEX
  8
Unknown_Area_Type
  10
398536.149
  20
4733446.797
  0
VERTEX
  8
Unknown_Area_Type
  10
398536.500
  20
4733447.500
  0
VERTEX
  8
Unknown_Area_Type
  10
398536.906
  20
4733447.423
  0
VERTEX
  8
Unknown_Area_Type
  10
399342.500
  20
4733294.333
  0
VERTEX
  8
Unknown_Area_Type
  10
400953.932
  20
4732988.108
  0
VERTEX
  8
Unknown_Area_Type
  10
400954.466
  20
4732988.006
  0
VERTEX
  8
Unknown_Area_Type
  10
400954.500
  20
4732988.000
  0
VERTEX
  8
Unknown_Area_Type
  10
400704.020
  20
4729310.000
  0
VERTEX
  8
Unknown_Area_Type
  10
400701.500
  20
4729273.000
  0
VERTEX
  8
Unknown_Area_Type
  10
398653.198
  20
4729209.750
  0
VERTEX
  8
Unknown_Area_Type
  10
398467.470
  20
4729204.014
  0
SEQEND
  8
Unknown_Area_Type
  0
POLYLINE
  8
Unknown_Area_Type
  70
1
  66
1
  0
VERTEX
  8
Unknown_Area_Type
  10
393163.932
  20
4729486.529
  0
VERTEX
  8
Unknown_Area_Type
  10
393163.500
  20
4729486.500
  0
VERTEX
  8
Unknown_Area_Type
  10
392401.486
  20
4729812.151
  0
VERTEX
  8
Unknown_Area_Type
  10
392399.500
  20
4729813.000
  0
VERTEX
  8
Unknown_Area_Type
  10
392507.500
  20
4730997.500
  0
VERTEX
  8
Unknown_Area_Type
  10
392507.500
  20
4730998.523
  0
VERTEX
  8
Unknown_Area_Type
  10
392507.500
  20
4731003.000
  0
VERTEX
  8
Unknown_Area_Type
  10
392726.000
  20
4733401.500
  0
VERTEX
  8
Unknown_Area_Type
  10
392726.482
  20
4733402.304
  0
VERTEX
  8
Unknown_Area_Type
  10
392726.700
  20
4733402.667
  0
VERTEX
  8
Unknown_Area_Type
  10
392727.500
  20
4733404.000
  0
VERTEX
  8
Unknown_Area_Type
  10
392746.000
  20
4733419.500
  0
VERTEX
  8
Unknown_Area_Type
  10
393118.250
  20
4733730.000
  0
VERTEX
  8
Unknown_Area_Type
  10
393171.000
  20
4733774.000
  0
VERTEX
  8
Unknown_Area_Type
  10
393172.004
  20
4733774.251
  0
VERTEX
  8
Unknown_Area_Type
  10
393172.520
  20
4733774.380
  0
VERTEX
  8
Unknown_Area_Type
  10
393173.000
  20
4733774.500
  0
VERTEX
  8
Unknown_Area_Type
  10
393193.000
  20
4733770.000
  0
VERTEX
  8
Unknown_Area_Type
  10
393366.621
  20
4733730.000
  0
VERTEX
  8
Unknown_Area_Type
  10
395404.112
  20
4733260.590
  0
VERTEX
  8
Unknown_Area_Type
  10
395404.500
  20
4733260.500
  0
VERTEX
  8
Unknown_Area_Type
  10
395162.000
  20
4729622.000
  0
VERTEX
  8
Unknown_Area_Type
  10
393165.379
  20
4729486.627
  0
VERTEX
  8
Unknown_Area_Type
  10
393163.932
  20
4729486.529
  0
SEQEND
  8
Unknown_Area_Type
  0
POLYLINE
  8
Unknown_Area_Type
  70
1
  66
1
  0
VERTEX
  8
Unknown_Area_Type
  10
392395.725
  20
4729812.727
  0
VERTEX
  8
Unknown_Area_Type
  10
390474.000
  20
4729674.000
  0
VERTEX
  8
Unknown_Area_Type
  10
390461.744
  20
4729679.315
  0
VERTEX
  8
Unknown_Area_Type
  10
390452.757
  20
4729683.212
  0
VERTEX
  8
Unknown_Area_Type
  10
389799.500
  20
4729966.500
  0
VERTEX
  8
Unknown_Area_Type
  10
389799.527
  20
4729966.988
  0
VERTEX
  8
Unknown_Area_Type
  10
389898.660
  20
4731729.652
  0
VERTEX
  8
Unknown_Area_Type
  10
389997.972
  20
4733495.506
  0
VERTEX
  8
Unknown_Area_Type
  10
389998.000
  20
4733496.000
  0
VERTEX
  8
Unknown_Area_Type
  10
390245.286
  20
4733730.000
  0
VERTEX
  8
Unknown_Area_Type
  10
390410.626
  20
4733886.456
  0
VERTEX
  8
Unknown_Area_Type
  10
390454.000
  20
4733927.500
  0
VERTEX
  8
Unknown_Area_Type
  10
390454.050
  20
4733927.600
  0
VERTEX
  8
Unknown_Area_Type
  10
390454.500
  20
4733928.500
  0
VERTEX
  8
Unknown_Area_Type
  10
390454.902
  20
4733928.407
  0
VERTEX
  8
Unknown_Area_Type
  10
391311.899
  20
4733730.000
  0
VERTEX
  8
Unknown_Area_Type
  10
392726.500
  20
4733402.500
  0
VERTEX
  8
Unknown_Area_Type
  10
392726.482
  20
4733402.304
  0
VERTEX
  8
Unknown_Area_Type
  10
392507.500
  20
4730998.523
  0
VERTEX
  8
Unknown_Area_Type
  10
392399.500
  20
4729813.000
  0
VERTEX
  8
Unknown_Area_Type
  10
392395.725
  20
4729812.727
  0
SEQEND
  8
Unknown_Area_Type
  0
POLYLINE
  8
Unknown_Area_Type
  70
1
  66
1
  0
VERTEX
  8
Unknown_Area_Type
  10
396251.888
  20
4741993.693
  0
VERTEX
  8
Unknown_Area_Type
  10
396596.000
  20
4741983.500
  0
VERTEX
  8
Unknown_Area_Type
  10
396604.000
  20
4741983.500
  0
VERTEX
  8
Unknown_Area_Type
  10
397144.500
  20
4741968.000
  0
VERTEX
  8
Unknown_Area_Type
  10
397007.248
  20
4738570.000
  0
VERTEX
  8
Unknown_Area_Type
  10
396994.726
  20
4738260.000
  0
VERTEX
  8
Unknown_Area_Type
  10
396957.000
  20
4737326.000
  0
VERTEX
  8
Unknown_Area_Type
  10
396170.000
  20
4737192.946
  0
VERTEX
  8
Unknown_Area_Type
  10
395984.000
  20
4737161.500
  0
VERTEX
  8
Unknown_Area_Type
  10
395983.412
  20
4737161.655
  0
VERTEX
  8
Unknown_Area_Type
  10
395977.986
  20
4737163.082
  0
VERTEX
  8
Unknown_Area_Type
  10
395974.500
  20
4737164.000
  0
VERTEX
  8
Unknown_Area_Type
  10
395890.000
  20
4737193.575
  0
VERTEX
  8
Unknown_Area_Type
  10
395654.500
  20
4737276.000
  0
VERTEX
  8
Unknown_Area_Type
  10
395654.510
  20
4737276.496
  0
VERTEX
  8
Unknown_Area_Type
  10
395676.833
  20
4738360.000
  0
VERTEX
  8
Unknown_Area_Type
  10
395683.220
  20
4738670.000
  0
VERTEX
  8
Unknown_Area_Type
  10
395752.000
  20
4742008.500
  0
VERTEX
  8
Unknown_Area_Type
  10
395752.565
  20
4742008.483
  0
VERTEX
  8
Unknown_Area_Type
  10
395960.000
  20
4742002.339
  0
VERTEX
  8
Unknown_Area_Type
  10
396240.000
  20
4741994.045
  0
VERTEX
  8
Unknown_Area_Type
  10
396251.888
  20
4741993.693
  0
SEQEND
  8
Unknown_Area_Type
  0
POLYLINE
  8
Unknown_Area_Type
  70
1
  66
1
  0
VERTEX
  8
Unknown_Area_Type
  10
399195.824
  20
4737219.338
  0
VERTEX
  8
Unknown_Area_Type
  10
398779.500
  20
4737146.000
  0
VERTEX
  8
Unknown_Area_Type
  10
398779.435
  20
4737146.474
  0
VERTEX
  8
Unknown_Area_Type
  10
398626.160
  20
4738260.000
  0
VERTEX
  8
Unknown_Area_Type
  10
398583.490
  20
4738570.000
  0
VERTEX
  8
Unknown_Area_Type
  10
398447.203
  20
4739560.112
  0
VERTEX
  8
Unknown_Area_Type
  10
398077.387
  20
4742246.793
  0
VERTEX
  8
Unknown_Area_Type
  10
398075.517
  20
4742260.376
  0
VERTEX
  8
Unknown_Area_Type
  10
398075.500
  20
4742260.500
  0
VERTEX
  8
Unknown_Area_Type
  10
399312.528
  20
4743043.078
  0
VERTEX
  8
Unknown_Area_Type
  10
399312.799
  20
4743043.074
  0
VERTEX
  8
Unknown_Area_Type
  10
399541.692
  20
4743039.678
  0
VERTEX
  8
Unknown_Area_Type
  10
400239.904
  20
4743029.666
  0
VERTEX
  8
Unknown_Area_Type
  10
400239.991
  20
4743029.664
  0
VERTEX
  8
Unknown_Area_Type
  10
400244.500
  20
4742960.500
  0
VERTEX
  8
Unknown_Area_Type
  10
400244.431
  20
4742960.063
  0
VERTEX
  8
Unknown_Area_Type
  10
400244.334
  20
4742959.450
  0
VERTEX
  8
Unknown_Area_Type
  10
399550.839
  20
4738570.000
  0
VERTEX
  8
Unknown_Area_Type
  10
399501.861
  20
4738260.000
  0
VERTEX
  8
Unknown_Area_Type
  10
399341.500
  20
4737245.000
  0
VERTEX
  8
Unknown_Area_Type
  10
399195.824
  20
4737219.338
  0
SEQEND
  8
Unknown_Area_Type
  0
POLYLINE
  8
Unknown_Area_Type
  70
1
  66
1
  0
VERTEX
  8
Unknown_Area_Type
  10
402043.993
  20
4737305.578
  0
VERTEX
  8
Unknown_Area_Type
  10
402043.500
  20
4737305.500
  0
VERTEX
  8
Unknown_Area_Type
  10
402041.474
  20
4737311.867
  0
VERTEX
  8
Unknown_Area_Type
  10
401739.769
  20
4738260.000
  0
VERTEX
  8
Unknown_Area_Type
  10
401641.123
  20
4738570.000
  0
VERTEX
  8
Unknown_Area_Type
  10
400414.269
  20
4742425.487
  0
VERTEX
  8
Unknown_Area_Type
  10
400244.500
  20
4742959.000
  0
VERTEX
  8
Unknown_Area_Type
  10
400244.431
  20
4742960.063
  0
VERTEX
  8
Unknown_Area_Type
  10
400239.904
  20
4743029.666
  0
VERTEX
  8
Unknown_Area_Type
  10
400239.991
  20
4743029.664
  0
VERTEX
  8
Unknown_Area_Type
  10
402947.096
  20
4742990.844
  0
VERTEX
  8
Unknown_Area_Type
  10
402914.499
  20
4740677.371
  0
VERTEX
  8
Unknown_Area_Type
  10
402881.915
  20
4738363.906
  0
VERTEX
  8
Unknown_Area_Type
  10
402868.846
  20
4737435.637
  0
VERTEX
  8
Unknown_Area_Type
  10
402868.841
  20
4737435.288
  0
VERTEX
  8
Unknown_Area_Type
  10
402043.993
  20
4737305.578
  0
SEQEND
  8
Unknown_Area_Type
  0
POLYLINE
  8
Unknown_Area_Type
  70
1
  66
1
  0
VERTEX
  8
Unknown_Area_Type
  10
386126.660
  20
4733840.000
  0
VERTEX
  8
Unknown_Area_Type
  10
386363.000
  20
4733790.000
  0
VERTEX
  8
Unknown_Area_Type
  10
386364.000
  20
4733790.000
  0
VERTEX
  8
Unknown_Area_Type
  10
387308.500
  20
4733590.500
  0
VERTEX
  8
Unknown_Area_Type
  10
387137.000
  20
4730091.000
  0
VERTEX
  8
Unknown_Area_Type
  10
387136.513
  20
4730090.270
  0
VERTEX
  8
Unknown_Area_Type
  10
387136.261
  20
4730089.891
  0
VERTEX
  8
Unknown_Area_Type
  10
387136.000
  20
4730089.500
  0
VERTEX
  8
Unknown_Area_Type
  10
385056.500
  20
4729950.000
  0
VERTEX
  8
Unknown_Area_Type
  10
385055.294
  20
4729950.121
  0
VERTEX
  8
Unknown_Area_Type
  10
385052.594
  20
4729950.391
  0
VERTEX
  8
Unknown_Area_Type
  10
385051.500
  20
4729950.500
  0
VERTEX
  8
Unknown_Area_Type
  10
384489.577
  20
4730192.967
  0
VERTEX
  8
Unknown_Area_Type
  10
384489.500
  20
4730193.000
  0
VERTEX
  8
Unknown_Area_Type
  10
384571.488
  20
4733642.003
  0
VERTEX
  8
Unknown_Area_Type
  10
384571.500
  20
4733642.500
  0
VERTEX
  8
Unknown_Area_Type
  10
384758.866
  20
4733840.000
  0
VERTEX
  8
Unknown_Area_Type
  10
384985.323
  20
4734078.705
  0
VERTEX
  8
Unknown_Area_Type
  10
384987.500
  20
4734081.000
  0
VERTEX
  8
Unknown_Area_Type
  10
386126.660
  20
4733840.000
  0
SEQEND
  8
Unknown_Area_Type
  0
POLYLINE
  8
Unknown_Area_Type
  70
1
  66
1
  0
VERTEX
  8
Unknown_Area_Type
  10
389550.500
  20
4729871.000
  0
VERTEX
  8
Unknown_Area_Type
  10
389545.500
  20
4729870.500
  0
VERTEX
  8
Unknown_Area_Type
  10
389545.000
  20
4729871.000
  0
VERTEX
  8
Unknown_Area_Type
  10
389540.500
  20
4729875.500
  0
VERTEX
  8
Unknown_Area_Type
  10
389540.500
  20
4729884.500
  0
VERTEX
  8
Unknown_Area_Type
  10
389540.977
  20
4729885.036
  0
VERTEX
  8
Unknown_Area_Type
  10
389542.853
  20
4729887.147
  0
VERTEX
  8
Unknown_Area_Type
  10
389544.500
  20
4729889.000
  0
VERTEX
  8
Unknown_Area_Type
  10
389545.500
  20
4729889.500
  0
VERTEX
  8
Unknown_Area_Type
  10
389554.500
  20
4729889.500
  0
VERTEX
  8
Unknown_Area_Type
  10
389559.500
  20
4729884.500
  0
VERTEX
  8
Unknown_Area_Type
  10
389559.000
  20
4729879.500
  0
VERTEX
  8
Unknown_Area_Type
  10
389550.500
  20
4729871.000
  0
SEQEND
  8
Unknown_Area_Type
  0
POLYLINE
  8
Unknown_Area_Type
  70
1
  66
1
  0
VERTEX
  8
Unknown_Area_Type
  10
387759.082
  20
4729828.506
  0
VERTEX
  8
Unknown_Area_Type
  10
387759.000
  20
4729828.500
  0
VERTEX
  8
Unknown_Area_Type
  10
387294.489
  20
4730023.632
  0
VERTEX
  8
Unknown_Area_Type
  10
387136.500
  20
4730090.000
  0
VERTEX
  8
Unknown_Area_Type
  10
387136.513
  20
4730090.270
  0
VERTEX
  8
Unknown_Area_Type
  10
387308.500
  20
4733590.500
  0
VERTEX
  8
Unknown_Area_Type
  10
387308.587
  20
4733590.587
  0
VERTEX
  8
Unknown_Area_Type
  10
387556.531
  20
4733840.000
  0
VERTEX
  8
Unknown_Area_Type
  10
387730.500
  20
4734015.000
  0
VERTEX
  8
Unknown_Area_Type
  10
387730.907
  20
4734014.907
  0
VERTEX
  8
Unknown_Area_Type
  10
388409.000
  20
4733859.500
  0
VERTEX
  8
Unknown_Area_Type
  10
388411.100
  20
4733859.150
  0
VERTEX
  8
Unknown_Area_Type
  10
388412.000
  20
4733859.000
  0
VERTEX
  8
Unknown_Area_Type
  10
388494.900
  20
4733840.000
  0
VERTEX
  8
Unknown_Area_Type
  10
389000.000
  20
4733724.235
  0
VERTEX
  8
Unknown_Area_Type
  10
389280.000
  20
4733660.060
  0
VERTEX
  8
Unknown_Area_Type
  10
389997.972
  20
4733495.506
  0
VERTEX
  8
Unknown_Area_Type
  10
389998.000
  20
4733495.500
  0
VERTEX
  8
Unknown_Area_Type
  10
389898.660
  20
4731729.652
  0
VERTEX
  8
Unknown_Area_Type
  10
389799.500
  20
4729967.000
  0
VERTEX
  8
Unknown_Area_Type
  10
389280.000
  20
4729931.739
  0
VERTEX
  8
Unknown_Area_Type
  10
389000.000
  20
4729912.734
  0
VERTEX
  8
Unknown_Area_Type
  10
387759.082
  20
4729828.506
  0
SEQEND
  8
Unknown_Area_Type
  0
POLYLINE
  8
Unknown_Area_Type
  70
1
  66
1
  0
VERTEX
  8
Unknown_Area_Type
  10
382286.337
  20
4730020.566
  0
VERTEX
  8
Unknown_Area_Type
  10
382285.500
  20
4730020.500
  0
VERTEX
  8
Unknown_Area_Type
  10
382170.000
  20
4730067.012
  0
VERTEX
  8
Unknown_Area_Type
  10
381841.198
  20
4730199.420
  0
VERTEX
  8
Unknown_Area_Type
  10
381841.000
  20
4730199.500
  0
VERTEX
  8
Unknown_Area_Type
  10
381764.511
  20
4733661.011
  0
VERTEX
  8
Unknown_Area_Type
  10
381764.500
  20
4733661.500
  0
VERTEX
  8
Unknown_Area_Type
  10
382055.023
  20
4733950.000
  0
VERTEX
  8
Unknown_Area_Type
  10
382170.000
  20
4734064.176
  0
VERTEX
  8
Unknown_Area_Type
  10
382175.019
  20
4734069.160
  0
VERTEX
  8
Unknown_Area_Type
  10
382250.000
  20
4734143.618
  0
VERTEX
  8
Unknown_Area_Type
  10
382266.497
  20
4734160.000
  0
VERTEX
  8
Unknown_Area_Type
  10
382267.000
  20
4734160.500
  0
VERTEX
  8
Unknown_Area_Type
  10
382267.111
  20
4734160.723
  0
VERTEX
  8
Unknown_Area_Type
  10
382267.500
  20
4734161.500
  0
VERTEX
  8
Unknown_Area_Type
  10
382286.501
  20
4734180.013
  0
VERTEX
  8
Unknown_Area_Type
  10
382286.903
  20
4734180.405
  0
VERTEX
  8
Unknown_Area_Type
  10
382287.000
  20
4734180.500
  0
VERTEX
  8
Unknown_Area_Type
  10
382373.968
  20
4734160.000
  0
VERTEX
  8
Unknown_Area_Type
  10
382460.000
  20
4734139.721
  0
VERTEX
  8
Unknown_Area_Type
  10
382540.000
  20
4734120.863
  0
VERTEX
  8
Unknown_Area_Type
  10
383731.517
  20
4733840.000
  0
VERTEX
  8
Unknown_Area_Type
  10
384571.488
  20
4733642.003
  0
VERTEX
  8
Unknown_Area_Type
  10
384571.500
  20
4733642.000
  0
VERTEX
  8
Unknown_Area_Type
  10
384489.500
  20
4730193.000
  0
VERTEX
  8
Unknown_Area_Type
  10
382460.000
  20
4730034.158
  0
VERTEX
  8
Unknown_Area_Type
  10
382286.337
  20
4730020.566
  0
SEQEND
  8
Unknown_Area_Type
  0
POLYLINE
  8
Unknown_Area_Type
  70
1
  66
1
  0
VERTEX
  8
Unknown_Area_Type
  10
375640.000
  20
4731975.962
  0
VERTEX
  8
Unknown_Area_Type
  10
375496.152
  20
4731917.226
  0
VERTEX
  8
Unknown_Area_Type
  10
375496.157
  20
4731917.501
  0
VERTEX
  8
Unknown_Area_Type
  10
375533.311
  20
4733979.482
  0
VERTEX
  8
Unknown_Area_Type
  10
375640.000
  20
4733955.996
  0
VERTEX
  8
Unknown_Area_Type
  10
375667.235
  20
4733950.000
  0
VERTEX
  8
Unknown_Area_Type
  10
376121.500
  20
4733850.000
  0
VERTEX
  8
Unknown_Area_Type
  10
376122.055
  20
4733849.889
  0
VERTEX
  8
Unknown_Area_Type
  10
376124.000
  20
4733849.500
  0
VERTEX
  8
Unknown_Area_Type
  10
376444.651
  20
4733779.186
  0
VERTEX
  8
Unknown_Area_Type
  10
376445.500
  20
4733779.000
  0
VERTEX
  8
Unknown_Area_Type
  10
376449.500
  20
4732306.500
  0
VERTEX
  8
Unknown_Area_Type
  10
376357.882
  20
4732269.090
  0
VERTEX
  8
Unknown_Area_Type
  10
375640.000
  20
4731975.962
  0
SEQEND
  8
Unknown_Area_Type
  0
POLYLINE
  8
Unknown_Area_Type
  70
1
  66
1
  0
VERTEX
  8
Unknown_Area_Type
  10
376879.500
  20
4734169.500
  0
VERTEX
  8
Unknown_Area_Type
  10
378170.500
  20
4733951.500
  0
VERTEX
  8
Unknown_Area_Type
  10
378171.287
  20
4733951.500
  0
VERTEX
  8
Unknown_Area_Type
  10
378172.000
  20
4733951.500
  0
VERTEX
  8
Unknown_Area_Type
  10
378180.905
  20
4733950.000
  0
VERTEX
  8
Unknown_Area_Type
  10
379110.000
  20
4733793.500
  0
VERTEX
  8
Unknown_Area_Type
  10
379110.000
  20
4733793.084
  0
VERTEX
  8
Unknown_Area_Type
  10
379110.000
  20
4733793.000
  0
VERTEX
  8
Unknown_Area_Type
  10
379112.500
  20
4730161.000
  0
VERTEX
  8
Unknown_Area_Type
  10
379110.936
  20
4730160.913
  0
VERTEX
  8
Unknown_Area_Type
  10
378422.500
  20
4730122.500
  0
VERTEX
  8
Unknown_Area_Type
  10
378414.500
  20
4730122.500
  0
VERTEX
  8
Unknown_Area_Type
  10
378414.000
  20
4730122.500
  0
VERTEX
  8
Unknown_Area_Type
  10
378412.500
  20
4730124.000
  0
VERTEX
  8
Unknown_Area_Type
  10
376449.634
  20
4732306.351
  0
VERTEX
  8
Unknown_Area_Type
  10
376449.500
  20
4732306.500
  0
VERTEX
  8
Unknown_Area_Type
  10
376445.500
  20
4733775.000
  0
VERTEX
  8
Unknown_Area_Type
  10
376445.500
  20
4733779.000
  0
VERTEX
  8
Unknown_Area_Type
  10
376446.100
  20
4733779.600
  0
VERTEX
  8
Unknown_Area_Type
  10
376446.500
  20
4733780.000
  0
VERTEX
  8
Unknown_Area_Type
  10
376635.486
  20
4733950.000
  0
VERTEX
  8
Unknown_Area_Type
  10
376857.126
  20
4734149.374
  0
VERTEX
  8
Unknown_Area_Type
  10
376879.500
  20
4734169.500
  0
SEQEND
  8
Unknown_Area_Type
  0
POLYLINE
  8
Unknown_Area_Type
  70
1
  66
1
  0
VERTEX
  8
Unknown_Area_Type
  10
381518.988
  20
4730167.398
  0
VERTEX
  8
Unknown_Area_Type
  10
379559.000
  20
4729972.000
  0
VERTEX
  8
Unknown_Area_Type
  10
379558.995
  20
4729972.002
  0
VERTEX
  8
Unknown_Area_Type
  10
379114.291
  20
4730160.242
  0
VERTEX
  8
Unknown_Area_Type
  10
379112.500
  20
4730161.000
  0
VERTEX
  8
Unknown_Area_Type
  10
379110.000
  20
4733793.000
  0
VERTEX
  8
Unknown_Area_Type
  10
379110.077
  20
4733793.071
  0
VERTEX
  8
Unknown_Area_Type
  10
379278.465
  20
4733950.000
  0
VERTEX
  8
Unknown_Area_Type
  10
379565.500
  20
4734217.500
  0
VERTEX
  8
Unknown_Area_Type
  10
379565.893
  20
4734217.400
  0
VERTEX
  8
Unknown_Area_Type
  10
380217.500
  20
4734052.500
  0
VERTEX
  8
Unknown_Area_Type
  10
380219.150
  20
4734052.170
  0
VERTEX
  8
Unknown_Area_Type
  10
380220.000
  20
4734052.000
  0
VERTEX
  8
Unknown_Area_Type
  10
380622.913
  20
4733950.000
  0
VERTEX
  8
Unknown_Area_Type
  10
381764.500
  20
4733661.000
  0
VERTEX
  8
Unknown_Area_Type
  10
381841.000
  20
4730199.500
  0
VERTEX
  8
Unknown_Area_Type
  10
381518.988
  20
4730167.398
  0
SEQEND
  8
Unknown_Area_Type
  0
ENDSEC
  0
EOF
