  0
SECTION
  2
HEADER
  9
$ACADVER
  1
AC1009
  9
$LUNITS
  70
2
  9
$LIMMIN
  10
348053.344
  20
4724920.924
  9
$LIMMAX
  10
375703.736
  20
4743974.368
  9
$EXTMIN
  10
348053.344
  20
4724920.924
  9
$EXTMAX
  10
375703.736
  20
4743974.368
  999
Created by Global Mapper
  999
Projection: UTM
  999
Datum: ETRS89
  999
Ground Units: meters
  999
ZONE: 30
  0
ENDSEC
  0
SECTION
  2
TABLES
  0
ENDSEC
  0
SECTION
  2
BLOCKS
  0
BLOCK
  8
FeatureAttribs
  70
0
  2
FEATURE
  3
FEATURE
  10
0.00000000
  20
0.00000000
  0
ATTDEF
  8
FeatureAttribs
  70
0
  1
 
  2
NAME
  3
NAME
  10
0.00000000
  20
0.00000000
  40
1.00000000
  0
ENDBLK
  0
ENDSEC
  0
SECTION
  2
ENTITIES
  0
POLYLINE
  8
Unknown_Area_Type
  70
1
  66
1
  0
VERTEX
  8
Unknown_Area_Type
  10
359312.817
  20
4738268.318
  0
VERTEX
  8
Unknown_Area_Type
  10
358629.500
  20
4738046.000
  0
VERTEX
  8
Unknown_Area_Type
  10
358628.839
  20
4738046.110
  0
VERTEX
  8
Unknown_Area_Type
  10
356865.503
  20
4738339.500
  0
VERTEX
  8
Unknown_Area_Type
  10
356865.500
  20
4738339.500
  0
VERTEX
  8
Unknown_Area_Type
  10
356868.880
  20
4738960.000
  0
VERTEX
  8
Unknown_Area_Type
  10
356870.785
  20
4739310.000
  0
VERTEX
  8
Unknown_Area_Type
  10
356887.500
  20
4742380.000
  0
VERTEX
  8
Unknown_Area_Type
  10
358582.500
  20
4742651.500
  0
VERTEX
  8
Unknown_Area_Type
  10
358585.500
  20
4742652.000
  0
VERTEX
  8
Unknown_Area_Type
  10
358585.624
  20
4742651.940
  0
VERTEX
  8
Unknown_Area_Type
  10
358586.013
  20
4742651.750
  0
VERTEX
  8
Unknown_Area_Type
  10
359448.500
  20
4742230.500
  0
VERTEX
  8
Unknown_Area_Type
  10
359367.980
  20
4739310.000
  0
VERTEX
  8
Unknown_Area_Type
  10
359358.331
  20
4738960.000
  0
VERTEX
  8
Unknown_Area_Type
  10
359339.500
  20
4738277.000
  0
VERTEX
  8
Unknown_Area_Type
  10
359339.009
  20
4738276.840
  0
VERTEX
  8
Unknown_Area_Type
  10
359312.817
  20
4738268.318
  0
SEQEND
  8
Unknown_Area_Type
  0
POLYLINE
  8
Unknown_Area_Type
  70
1
  66
1
  0
VERTEX
  8
Unknown_Area_Type
  10
365673.622
  20
4742444.830
  0
VERTEX
  8
Unknown_Area_Type
  10
365883.000
  20
4742387.500
  0
VERTEX
  8
Unknown_Area_Type
  10
365883.833
  20
4742387.500
  0
VERTEX
  8
Unknown_Area_Type
  10
365884.000
  20
4742387.500
  0
VERTEX
  8
Unknown_Area_Type
  10
366242.077
  20
4742289.332
  0
VERTEX
  8
Unknown_Area_Type
  10
367317.500
  20
4741994.500
  0
VERTEX
  8
Unknown_Area_Type
  10
367242.478
  20
4739170.000
  0
VERTEX
  8
Unknown_Area_Type
  10
367233.181
  20
4738820.000
  0
VERTEX
  8
Unknown_Area_Type
  10
367215.000
  20
4738135.500
  0
VERTEX
  8
Unknown_Area_Type
  10
367214.846
  20
4738135.446
  0
VERTEX
  8
Unknown_Area_Type
  10
366543.000
  20
4737897.500
  0
VERTEX
  8
Unknown_Area_Type
  10
366542.698
  20
4737897.547
  0
VERTEX
  8
Unknown_Area_Type
  10
365943.414
  20
4737990.752
  0
VERTEX
  8
Unknown_Area_Type
  10
365883.951
  20
4738000.000
  0
VERTEX
  8
Unknown_Area_Type
  10
364598.000
  20
4738200.000
  0
VERTEX
  8
Unknown_Area_Type
  10
364612.278
  20
4738820.000
  0
VERTEX
  8
Unknown_Area_Type
  10
364620.338
  20
4739170.000
  0
VERTEX
  8
Unknown_Area_Type
  10
364685.500
  20
4741999.500
  0
VERTEX
  8
Unknown_Area_Type
  10
364685.941
  20
4741999.699
  0
VERTEX
  8
Unknown_Area_Type
  10
365673.000
  20
4742445.000
  0
VERTEX
  8
Unknown_Area_Type
  10
365673.622
  20
4742444.830
  0
SEQEND
  8
Unknown_Area_Type
  0
POLYLINE
  8
Unknown_Area_Type
  70
1
  66
1
  0
VERTEX
  8
Unknown_Area_Type
  10
369000.000
  20
4742229.615
  0
VERTEX
  8
Unknown_Area_Type
  10
369979.000
  20
4742033.500
  0
VERTEX
  8
Unknown_Area_Type
  10
369980.000
  20
4742033.500
  0
VERTEX
  8
Unknown_Area_Type
  10
369988.500
  20
4742032.000
  0
VERTEX
  8
Unknown_Area_Type
  10
369988.500
  20
4742024.000
  0
VERTEX
  8
Unknown_Area_Type
  10
369979.500
  20
4741781.276
  0
VERTEX
  8
Unknown_Area_Type
  10
369976.509
  20
4741700.624
  0
VERTEX
  8
Unknown_Area_Type
  10
369877.485
  20
4739030.000
  0
VERTEX
  8
Unknown_Area_Type
  10
369865.249
  20
4738700.000
  0
VERTEX
  8
Unknown_Area_Type
  10
369841.500
  20
4738059.500
  0
VERTEX
  8
Unknown_Area_Type
  10
369841.026
  20
4738059.204
  0
VERTEX
  8
Unknown_Area_Type
  10
369839.765
  20
4738058.416
  0
VERTEX
  8
Unknown_Area_Type
  10
369837.500
  20
4738057.000
  0
VERTEX
  8
Unknown_Area_Type
  10
369192.500
  20
4737826.000
  0
VERTEX
  8
Unknown_Area_Type
  10
369191.804
  20
4737826.109
  0
VERTEX
  8
Unknown_Area_Type
  10
368910.000
  20
4737870.214
  0
VERTEX
  8
Unknown_Area_Type
  10
368610.000
  20
4737917.167
  0
VERTEX
  8
Unknown_Area_Type
  10
367215.000
  20
4738135.500
  0
VERTEX
  8
Unknown_Area_Type
  10
367233.181
  20
4738820.000
  0
VERTEX
  8
Unknown_Area_Type
  10
367242.478
  20
4739170.000
  0
VERTEX
  8
Unknown_Area_Type
  10
367317.500
  20
4741994.500
  0
VERTEX
  8
Unknown_Area_Type
  10
367317.673
  20
4741994.590
  0
VERTEX
  8
Unknown_Area_Type
  10
368112.000
  20
4742407.500
  0
VERTEX
  8
Unknown_Area_Type
  10
368112.361
  20
4742407.428
  0
VERTEX
  8
Unknown_Area_Type
  10
368700.000
  20
4742289.711
  0
VERTEX
  8
Unknown_Area_Type
  10
369000.000
  20
4742229.615
  0
SEQEND
  8
Unknown_Area_Type
  0
POLYLINE
  8
Unknown_Area_Type
  70
1
  66
1
  0
VERTEX
  8
Unknown_Area_Type
  10
363885.000
  20
4737949.500
  0
VERTEX
  8
Unknown_Area_Type
  10
363882.000
  20
4737949.500
  0
VERTEX
  8
Unknown_Area_Type
  10
362090.000
  20
4738212.370
  0
VERTEX
  8
Unknown_Area_Type
  10
361963.000
  20
4738231.000
  0
VERTEX
  8
Unknown_Area_Type
  10
361962.277
  20
4738231.241
  0
VERTEX
  8
Unknown_Area_Type
  10
361961.500
  20
4738231.500
  0
VERTEX
  8
Unknown_Area_Type
  10
361961.500
  20
4738237.000
  0
VERTEX
  8
Unknown_Area_Type
  10
361975.141
  20
4738820.000
  0
VERTEX
  8
Unknown_Area_Type
  10
361978.417
  20
4738960.000
  0
VERTEX
  8
Unknown_Area_Type
  10
361983.330
  20
4739170.000
  0
VERTEX
  8
Unknown_Area_Type
  10
361986.606
  20
4739310.000
  0
VERTEX
  8
Unknown_Area_Type
  10
362051.500
  20
4742083.500
  0
VERTEX
  8
Unknown_Area_Type
  10
362052.276
  20
4742083.796
  0
VERTEX
  8
Unknown_Area_Type
  10
362190.000
  20
4742136.336
  0
VERTEX
  8
Unknown_Area_Type
  10
363207.500
  20
4742524.500
  0
VERTEX
  8
Unknown_Area_Type
  10
363208.516
  20
4742524.315
  0
VERTEX
  8
Unknown_Area_Type
  10
363210.572
  20
4742523.942
  0
VERTEX
  8
Unknown_Area_Type
  10
363213.000
  20
4742523.500
  0
VERTEX
  8
Unknown_Area_Type
  10
363524.434
  20
4742412.417
  0
VERTEX
  8
Unknown_Area_Type
  10
363834.000
  20
4742302.000
  0
VERTEX
  8
Unknown_Area_Type
  10
363836.000
  20
4742301.500
  0
VERTEX
  8
Unknown_Area_Type
  10
364685.500
  20
4741999.500
  0
VERTEX
  8
Unknown_Area_Type
  10
364620.338
  20
4739170.000
  0
VERTEX
  8
Unknown_Area_Type
  10
364612.278
  20
4738820.000
  0
VERTEX
  8
Unknown_Area_Type
  10
364598.000
  20
4738200.000
  0
VERTEX
  8
Unknown_Area_Type
  10
364597.694
  20
4738199.892
  0
VERTEX
  8
Unknown_Area_Type
  10
363892.500
  20
4737951.500
  0
VERTEX
  8
Unknown_Area_Type
  10
363886.500
  20
4737949.500
  0
VERTEX
  8
Unknown_Area_Type
  10
363885.000
  20
4737949.500
  0
SEQEND
  8
Unknown_Area_Type
  0
POLYLINE
  8
Unknown_Area_Type
  70
1
  66
1
  0
VERTEX
  8
Unknown_Area_Type
  10
352195.938
  20
4742693.967
  0
VERTEX
  8
Unknown_Area_Type
  10
353583.000
  20
4742645.000
  0
VERTEX
  8
Unknown_Area_Type
  10
353585.667
  20
4742645.000
  0
VERTEX
  8
Unknown_Area_Type
  10
353596.000
  20
4742645.000
  0
VERTEX
  8
Unknown_Area_Type
  10
354280.500
  20
4742620.518
  0
VERTEX
  8
Unknown_Area_Type
  10
354281.000
  20
4742620.500
  0
VERTEX
  8
Unknown_Area_Type
  10
354401.459
  20
4742543.526
  0
VERTEX
  8
Unknown_Area_Type
  10
354401.500
  20
4742543.500
  0
VERTEX
  8
Unknown_Area_Type
  10
354384.742
  20
4739450.000
  0
VERTEX
  8
Unknown_Area_Type
  10
354382.846
  20
4739100.000
  0
VERTEX
  8
Unknown_Area_Type
  10
354379.000
  20
4738390.000
  0
VERTEX
  8
Unknown_Area_Type
  10
353455.500
  20
4738115.000
  0
VERTEX
  8
Unknown_Area_Type
  10
353455.381
  20
4738115.025
  0
VERTEX
  8
Unknown_Area_Type
  10
351818.247
  20
4738453.139
  0
VERTEX
  8
Unknown_Area_Type
  10
351816.500
  20
4738453.500
  0
VERTEX
  8
Unknown_Area_Type
  10
351826.109
  20
4739100.000
  0
VERTEX
  8
Unknown_Area_Type
  10
351831.311
  20
4739450.000
  0
VERTEX
  8
Unknown_Area_Type
  10
351877.000
  20
4742524.000
  0
VERTEX
  8
Unknown_Area_Type
  10
351877.240
  20
4742524.128
  0
VERTEX
  8
Unknown_Area_Type
  10
352195.000
  20
4742694.000
  0
VERTEX
  8
Unknown_Area_Type
  10
352195.938
  20
4742693.967
  0
SEQEND
  8
Unknown_Area_Type
  0
POLYLINE
  8
Unknown_Area_Type
  70
1
  66
1
  0
VERTEX
  8
Unknown_Area_Type
  10
356865.500
  20
4738339.000
  0
VERTEX
  8
Unknown_Area_Type
  10
356041.000
  20
4738082.000
  0
VERTEX
  8
Unknown_Area_Type
  10
356040.373
  20
4738082.116
  0
VERTEX
  8
Unknown_Area_Type
  10
355487.116
  20
4738184.645
  0
VERTEX
  8
Unknown_Area_Type
  10
355280.000
  20
4738223.028
  0
VERTEX
  8
Unknown_Area_Type
  10
354970.000
  20
4738280.477
  0
VERTEX
  8
Unknown_Area_Type
  10
354379.000
  20
4738390.000
  0
VERTEX
  8
Unknown_Area_Type
  10
354382.846
  20
4739100.000
  0
VERTEX
  8
Unknown_Area_Type
  10
354384.742
  20
4739450.000
  0
VERTEX
  8
Unknown_Area_Type
  10
354401.500
  20
4742543.500
  0
VERTEX
  8
Unknown_Area_Type
  10
354585.866
  20
4742554.191
  0
VERTEX
  8
Unknown_Area_Type
  10
355070.000
  20
4742582.266
  0
VERTEX
  8
Unknown_Area_Type
  10
355380.000
  20
4742600.243
  0
VERTEX
  8
Unknown_Area_Type
  10
356376.000
  20
4742658.000
  0
VERTEX
  8
Unknown_Area_Type
  10
356384.500
  20
4742658.500
  0
VERTEX
  8
Unknown_Area_Type
  10
356386.013
  20
4742658.298
  0
VERTEX
  8
Unknown_Area_Type
  10
356391.060
  20
4742657.625
  0
VERTEX
  8
Unknown_Area_Type
  10
356392.000
  20
4742657.500
  0
VERTEX
  8
Unknown_Area_Type
  10
356887.500
  20
4742380.000
  0
VERTEX
  8
Unknown_Area_Type
  10
356870.785
  20
4739310.000
  0
VERTEX
  8
Unknown_Area_Type
  10
356868.880
  20
4738960.000
  0
VERTEX
  8
Unknown_Area_Type
  10
356865.503
  20
4738339.500
  0
VERTEX
  8
Unknown_Area_Type
  10
356865.500
  20
4738339.000
  0
SEQEND
  8
Unknown_Area_Type
  0
POLYLINE
  8
Unknown_Area_Type
  70
1
  66
1
  0
VERTEX
  8
Unknown_Area_Type
  10
361790.000
  20
4738169.286
  0
VERTEX
  8
Unknown_Area_Type
  10
361231.000
  20
4737966.500
  0
VERTEX
  8
Unknown_Area_Type
  10
361230.311
  20
4737966.613
  0
VERTEX
  8
Unknown_Area_Type
  10
360564.438
  20
4738075.715
  0
VERTEX
  8
Unknown_Area_Type
  10
359738.761
  20
4738211.000
  0
VERTEX
  8
Unknown_Area_Type
  10
359339.000
  20
4738276.500
  0
VERTEX
  8
Unknown_Area_Type
  10
359339.009
  20
4738276.840
  0
VERTEX
  8
Unknown_Area_Type
  10
359357.929
  20
4738960.000
  0
VERTEX
  8
Unknown_Area_Type
  10
359367.621
  20
4739310.000
  0
VERTEX
  8
Unknown_Area_Type
  10
359448.500
  20
4742230.500
  0
VERTEX
  8
Unknown_Area_Type
  10
359737.000
  20
4742309.000
  0
VERTEX
  8
Unknown_Area_Type
  10
359739.000
  20
4742309.500
  0
VERTEX
  8
Unknown_Area_Type
  10
360658.610
  20
4742558.835
  0
VERTEX
  8
Unknown_Area_Type
  10
360820.891
  20
4742602.835
  0
VERTEX
  8
Unknown_Area_Type
  10
360821.500
  20
4742603.000
  0
VERTEX
  8
Unknown_Area_Type
  10
361880.000
  20
4742155.934
  0
VERTEX
  8
Unknown_Area_Type
  10
362051.217
  20
4742083.619
  0
VERTEX
  8
Unknown_Area_Type
  10
362051.500
  20
4742083.500
  0
VERTEX
  8
Unknown_Area_Type
  10
361986.698
  20
4739310.000
  0
VERTEX
  8
Unknown_Area_Type
  10
361983.427
  20
4739170.000
  0
VERTEX
  8
Unknown_Area_Type
  10
361978.521
  20
4738960.000
  0
VERTEX
  8
Unknown_Area_Type
  10
361975.250
  20
4738820.000
  0
VERTEX
  8
Unknown_Area_Type
  10
361961.500
  20
4738231.500
  0
VERTEX
  8
Unknown_Area_Type
  10
361849.888
  20
4738191.011
  0
VERTEX
  8
Unknown_Area_Type
  10
361790.000
  20
4738169.286
  0
SEQEND
  8
Unknown_Area_Type
  0
POLYLINE
  8
Unknown_Area_Type
  70
1
  66
1
  0
VERTEX
  8
Unknown_Area_Type
  10
372524.000
  20
4738007.500
  0
VERTEX
  8
Unknown_Area_Type
  10
371767.500
  20
4737751.000
  0
VERTEX
  8
Unknown_Area_Type
  10
371766.820
  20
4737751.109
  0
VERTEX
  8
Unknown_Area_Type
  10
370942.889
  20
4737882.621
  0
VERTEX
  8
Unknown_Area_Type
  10
369978.831
  20
4738036.500
  0
VERTEX
  8
Unknown_Area_Type
  10
369841.000
  20
4738058.500
  0
VERTEX
  8
Unknown_Area_Type
  10
369841.026
  20
4738059.204
  0
VERTEX
  8
Unknown_Area_Type
  10
369864.868
  20
4738700.000
  0
VERTEX
  8
Unknown_Area_Type
  10
369877.146
  20
4739030.000
  0
VERTEX
  8
Unknown_Area_Type
  10
369976.509
  20
4741700.624
  0
VERTEX
  8
Unknown_Area_Type
  10
369979.500
  20
4741781.000
  0
VERTEX
  8
Unknown_Area_Type
  10
369979.500
  20
4741781.276
  0
VERTEX
  8
Unknown_Area_Type
  10
369979.500
  20
4741794.500
  0
VERTEX
  8
Unknown_Area_Type
  10
369988.500
  20
4742032.000
  0
VERTEX
  8
Unknown_Area_Type
  10
369988.630
  20
4742032.074
  0
VERTEX
  8
Unknown_Area_Type
  10
370498.500
  20
4742321.000
  0
VERTEX
  8
Unknown_Area_Type
  10
370499.346
  20
4742320.909
  0
VERTEX
  8
Unknown_Area_Type
  10
370505.533
  20
4742320.246
  0
VERTEX
  8
Unknown_Area_Type
  10
371579.172
  20
4742205.124
  0
VERTEX
  8
Unknown_Area_Type
  10
372657.500
  20
4742089.500
  0
VERTEX
  8
Unknown_Area_Type
  10
372557.440
  20
4739030.000
  0
VERTEX
  8
Unknown_Area_Type
  10
372546.648
  20
4738700.000
  0
VERTEX
  8
Unknown_Area_Type
  10
372524.000
  20
4738007.500
  0
SEQEND
  8
Unknown_Area_Type
  0
POLYLINE
  8
Unknown_Area_Type
  70
1
  66
1
  0
VERTEX
  8
Unknown_Area_Type
  10
375135.825
  20
4737915.942
  0
VERTEX
  8
Unknown_Area_Type
  10
374374.500
  20
4737665.000
  0
VERTEX
  8
Unknown_Area_Type
  10
374373.860
  20
4737665.118
  0
VERTEX
  8
Unknown_Area_Type
  10
373845.786
  20
4737762.857
  0
VERTEX
  8
Unknown_Area_Type
  10
372524.000
  20
4738007.500
  0
VERTEX
  8
Unknown_Area_Type
  10
372546.648
  20
4738700.000
  0
VERTEX
  8
Unknown_Area_Type
  10
372557.440
  20
4739030.000
  0
VERTEX
  8
Unknown_Area_Type
  10
372657.500
  20
4742089.500
  0
VERTEX
  8
Unknown_Area_Type
  10
372657.646
  20
4742089.591
  0
VERTEX
  8
Unknown_Area_Type
  10
372743.500
  20
4742143.500
  0
VERTEX
  8
Unknown_Area_Type
  10
372745.754
  20
4742144.345
  0
VERTEX
  8
Unknown_Area_Type
  10
372746.177
  20
4742144.504
  0
VERTEX
  8
Unknown_Area_Type
  10
372747.500
  20
4742145.000
  0
VERTEX
  8
Unknown_Area_Type
  10
374998.000
  20
4742193.500
  0
VERTEX
  8
Unknown_Area_Type
  10
375021.500
  20
4742194.000
  0
VERTEX
  8
Unknown_Area_Type
  10
375030.501
  20
4742194.000
  0
VERTEX
  8
Unknown_Area_Type
  10
375032.500
  20
4742193.000
  0
VERTEX
  8
Unknown_Area_Type
  10
375283.701
  20
4742035.315
  0
VERTEX
  8
Unknown_Area_Type
  10
375285.000
  20
4742034.500
  0
VERTEX
  8
Unknown_Area_Type
  10
375284.983
  20
4742034.038
  0
VERTEX
  8
Unknown_Area_Type
  10
375176.303
  20
4739030.000
  0
VERTEX
  8
Unknown_Area_Type
  10
375164.364
  20
4738700.000
  0
VERTEX
  8
Unknown_Area_Type
  10
375136.000
  20
4737916.000
  0
VERTEX
  8
Unknown_Area_Type
  10
375135.825
  20
4737915.942
  0
SEQEND
  8
Unknown_Area_Type
  0
POLYLINE
  8
Unknown_Area_Type
  70
1
  66
1
  0
VERTEX
  8
Unknown_Area_Type
  10
375620.249
  20
4738801.699
  0
VERTEX
  8
Unknown_Area_Type
  10
375602.784
  20
4737833.177
  0
VERTEX
  8
Unknown_Area_Type
  10
375430.000
  20
4737863.835
  0
VERTEX
  8
Unknown_Area_Type
  10
375136.000
  20
4737916.000
  0
VERTEX
  8
Unknown_Area_Type
  10
375164.272
  20
4738700.000
  0
VERTEX
  8
Unknown_Area_Type
  10
375176.172
  20
4739030.000
  0
VERTEX
  8
Unknown_Area_Type
  10
375284.500
  20
4742034.000
  0
VERTEX
  8
Unknown_Area_Type
  10
375284.983
  20
4742034.038
  0
VERTEX
  8
Unknown_Area_Type
  10
375520.000
  20
4742052.578
  0
VERTEX
  8
Unknown_Area_Type
  10
375679.128
  20
4742065.131
  0
VERTEX
  8
Unknown_Area_Type
  10
375661.984
  20
4741115.189
  0
VERTEX
  8
Unknown_Area_Type
  10
375620.249
  20
4738801.699
  0
SEQEND
  8
Unknown_Area_Type
  0
POLYLINE
  8
Unknown_Area_Type
  70
1
  66
1
  0
VERTEX
  8
Unknown_Area_Type
  10
366868.000
  20
4725111.000
  0
VERTEX
  8
Unknown_Area_Type
  10
367917.500
  20
4725090.000
  0
VERTEX
  8
Unknown_Area_Type
  10
367929.293
  20
4725090.000
  0
VERTEX
  8
Unknown_Area_Type
  10
367932.000
  20
4725090.000
  0
VERTEX
  8
Unknown_Area_Type
  10
368350.000
  20
4725081.715
  0
VERTEX
  8
Unknown_Area_Type
  10
368440.000
  20
4725079.931
  0
VERTEX
  8
Unknown_Area_Type
  10
368650.000
  20
4725075.769
  0
VERTEX
  8
Unknown_Area_Type
  10
368730.000
  20
4725074.183
  0
VERTEX
  8
Unknown_Area_Type
  10
369546.500
  20
4725058.000
  0
VERTEX
  8
Unknown_Area_Type
  10
369546.525
  20
4725057.983
  0
VERTEX
  8
Unknown_Area_Type
  10
369590.710
  20
4725027.510
  0
VERTEX
  8
Unknown_Area_Type
  10
369590.029
  20
4725027.523
  0
VERTEX
  8
Unknown_Area_Type
  10
368541.013
  20
4725047.175
  0
VERTEX
  8
Unknown_Area_Type
  10
366866.785
  20
4725079.365
  0
VERTEX
  8
Unknown_Area_Type
  10
366868.000
  20
4725111.000
  0
SEQEND
  8
Unknown_Area_Type
  0
POLYLINE
  8
Unknown_Area_Type
  70
1
  66
1
  0
VERTEX
  8
Unknown_Area_Type
  10
374072.213
  20
4725250.516
  0
VERTEX
  8
Unknown_Area_Type
  10
374074.500
  20
4725249.500
  0
VERTEX
  8
Unknown_Area_Type
  10
374075.533
  20
4725249.500
  0
VERTEX
  8
Unknown_Area_Type
  10
374076.000
  20
4725249.500
  0
VERTEX
  8
Unknown_Area_Type
  10
374401.041
  20
4725150.000
  0
VERTEX
  8
Unknown_Area_Type
  10
375135.380
  20
4724925.207
  0
VERTEX
  8
Unknown_Area_Type
  10
375134.858
  20
4724925.217
  0
VERTEX
  8
Unknown_Area_Type
  10
373009.490
  20
4724963.984
  0
VERTEX
  8
Unknown_Area_Type
  10
373008.795
  20
4724963.997
  0
VERTEX
  8
Unknown_Area_Type
  10
373693.854
  20
4725150.000
  0
VERTEX
  8
Unknown_Area_Type
  10
374064.000
  20
4725250.500
  0
VERTEX
  8
Unknown_Area_Type
  10
374067.408
  20
4725251.068
  0
VERTEX
  8
Unknown_Area_Type
  10
374069.352
  20
4725251.392
  0
VERTEX
  8
Unknown_Area_Type
  10
374070.000
  20
4725251.500
  0
VERTEX
  8
Unknown_Area_Type
  10
374072.213
  20
4725250.516
  0
SEQEND
  8
Unknown_Area_Type
  0
POLYLINE
  8
Unknown_Area_Type
  70
1
  66
1
  0
VERTEX
  8
Unknown_Area_Type
  10
365128.969
  20
4725187.341
  0
VERTEX
  8
Unknown_Area_Type
  10
365874.000
  20
4725162.500
  0
VERTEX
  8
Unknown_Area_Type
  10
365883.818
  20
4725162.500
  0
VERTEX
  8
Unknown_Area_Type
  10
365884.000
  20
4725162.500
  0
VERTEX
  8
Unknown_Area_Type
  10
366841.000
  20
4725131.000
  0
VERTEX
  8
Unknown_Area_Type
  10
366841.014
  20
4725130.990
  0
VERTEX
  8
Unknown_Area_Type
  10
366868.000
  20
4725111.500
  0
VERTEX
  8
Unknown_Area_Type
  10
366867.981
  20
4725111.013
  0
VERTEX
  8
Unknown_Area_Type
  10
366866.766
  20
4725079.365
  0
VERTEX
  8
Unknown_Area_Type
  10
365126.417
  20
4725112.826
  0
VERTEX
  8
Unknown_Area_Type
  10
364004.046
  20
4725134.959
  0
VERTEX
  8
Unknown_Area_Type
  10
364004.024
  20
4725134.960
  0
VERTEX
  8
Unknown_Area_Type
  10
364005.478
  20
4725167.501
  0
VERTEX
  8
Unknown_Area_Type
  10
364005.500
  20
4725168.000
  0
VERTEX
  8
Unknown_Area_Type
  10
364090.000
  20
4725221.500
  0
VERTEX
  8
Unknown_Area_Type
  10
364091.000
  20
4725221.500
  0
VERTEX
  8
Unknown_Area_Type
  10
364104.500
  20
4725221.500
  0
VERTEX
  8
Unknown_Area_Type
  10
365128.969
  20
4725187.341
  0
SEQEND
  8
Unknown_Area_Type
  0
POLYLINE
  8
Unknown_Area_Type
  70
1
  66
1
  0
VERTEX
  8
Unknown_Area_Type
  10
358615.447
  20
4725411.467
  0
VERTEX
  8
Unknown_Area_Type
  10
359733.500
  20
4725328.000
  0
VERTEX
  8
Unknown_Area_Type
  10
359737.161
  20
4725328.000
  0
VERTEX
  8
Unknown_Area_Type
  10
359740.000
  20
4725328.000
  0
VERTEX
  8
Unknown_Area_Type
  10
361174.418
  20
4725221.006
  0
VERTEX
  8
Unknown_Area_Type
  10
361174.500
  20
4725221.000
  0
VERTEX
  8
Unknown_Area_Type
  10
361172.952
  20
4725191.054
  0
VERTEX
  8
Unknown_Area_Type
  10
361172.582
  20
4725191.062
  0
VERTEX
  8
Unknown_Area_Type
  10
358359.819
  20
4725247.917
  0
VERTEX
  8
Unknown_Area_Type
  10
358360.000
  20
4725252.000
  0
VERTEX
  8
Unknown_Area_Type
  10
358360.135
  20
4725252.085
  0
VERTEX
  8
Unknown_Area_Type
  10
358615.000
  20
4725411.500
  0
VERTEX
  8
Unknown_Area_Type
  10
358615.447
  20
4725411.467
  0
SEQEND
  8
Unknown_Area_Type
  0
POLYLINE
  8
Unknown_Area_Type
  70
1
  66
1
  0
VERTEX
  8
Unknown_Area_Type
  10
353093.345
  20
4725555.403
  0
VERTEX
  8
Unknown_Area_Type
  10
353592.500
  20
4725498.000
  0
VERTEX
  8
Unknown_Area_Type
  10
353594.118
  20
4725498.000
  0
VERTEX
  8
Unknown_Area_Type
  10
353596.000
  20
4725498.000
  0
VERTEX
  8
Unknown_Area_Type
  10
354680.000
  20
4725373.341
  0
VERTEX
  8
Unknown_Area_Type
  10
354780.000
  20
4725361.841
  0
VERTEX
  8
Unknown_Area_Type
  10
354990.000
  20
4725337.692
  0
VERTEX
  8
Unknown_Area_Type
  10
355080.000
  20
4725327.342
  0
VERTEX
  8
Unknown_Area_Type
  10
355131.432
  20
4725321.427
  0
VERTEX
  8
Unknown_Area_Type
  10
355202.404
  20
4725313.266
  0
VERTEX
  8
Unknown_Area_Type
  10
354882.592
  20
4725319.888
  0
VERTEX
  8
Unknown_Area_Type
  10
352787.969
  20
4725364.294
  0
VERTEX
  8
Unknown_Area_Type
  10
352787.492
  20
4725364.304
  0
VERTEX
  8
Unknown_Area_Type
  10
352787.500
  20
4725364.500
  0
VERTEX
  8
Unknown_Area_Type
  10
353092.500
  20
4725555.500
  0
VERTEX
  8
Unknown_Area_Type
  10
353093.345
  20
4725555.403
  0
SEQEND
  8
Unknown_Area_Type
  0
POLYLINE
  8
Unknown_Area_Type
  70
1
  66
1
  0
VERTEX
  8
Unknown_Area_Type
  10
350830.919
  20
4738156.626
  0
VERTEX
  8
Unknown_Area_Type
  10
350830.500
  20
4738156.500
  0
VERTEX
  8
Unknown_Area_Type
  10
349289.328
  20
4738491.904
  0
VERTEX
  8
Unknown_Area_Type
  10
348343.968
  20
4738697.641
  0
VERTEX
  8
Unknown_Area_Type
  10
348358.253
  20
4739347.319
  0
VERTEX
  8
Unknown_Area_Type
  10
348409.141
  20
4741660.839
  0
VERTEX
  8
Unknown_Area_Type
  10
348419.378
  20
4742126.068
  0
VERTEX
  8
Unknown_Area_Type
  10
348419.383
  20
4742126.280
  0
VERTEX
  8
Unknown_Area_Type
  10
349888.000
  20
4742859.000
  0
VERTEX
  8
Unknown_Area_Type
  10
349889.000
  20
4742859.500
  0
VERTEX
  8
Unknown_Area_Type
  10
349889.747
  20
4742859.374
  0
VERTEX
  8
Unknown_Area_Type
  10
351877.000
  20
4742524.000
  0
VERTEX
  8
Unknown_Area_Type
  10
351831.311
  20
4739450.000
  0
VERTEX
  8
Unknown_Area_Type
  10
351826.109
  20
4739100.000
  0
VERTEX
  8
Unknown_Area_Type
  10
351816.500
  20
4738453.500
  0
VERTEX
  8
Unknown_Area_Type
  10
351816.096
  20
4738453.378
  0
VERTEX
  8
Unknown_Area_Type
  10
351177.090
  20
4738260.899
  0
VERTEX
  8
Unknown_Area_Type
  10
350830.919
  20
4738156.626
  0
SEQEND
  8
Unknown_Area_Type
  0
POLYLINE
  8
Unknown_Area_Type
  70
1
  66
1
  0
VERTEX
  8
Unknown_Area_Type
  10
351019.763
  20
4725570.000
  0
VERTEX
  8
Unknown_Area_Type
  10
351547.000
  20
4725508.500
  0
VERTEX
  8
Unknown_Area_Type
  10
351548.000
  20
4725508.500
  0
VERTEX
  8
Unknown_Area_Type
  10
352784.316
  20
4725364.371
  0
VERTEX
  8
Unknown_Area_Type
  10
351467.971
  20
4725392.278
  0
VERTEX
  8
Unknown_Area_Type
  10
349988.953
  20
4725424.362
  0
VERTEX
  8
Unknown_Area_Type
  10
349988.939
  20
4725424.363
  0
VERTEX
  8
Unknown_Area_Type
  10
349988.986
  20
4725426.002
  0
VERTEX
  8
Unknown_Area_Type
  10
349988.995
  20
4725426.311
  0
VERTEX
  8
Unknown_Area_Type
  10
349989.000
  20
4725426.500
  0
VERTEX
  8
Unknown_Area_Type
  10
350216.988
  20
4725570.000
  0
VERTEX
  8
Unknown_Area_Type
  10
350342.500
  20
4725649.000
  0
VERTEX
  8
Unknown_Area_Type
  10
350342.514
  20
4725648.998
  0
VERTEX
  8
Unknown_Area_Type
  10
351019.763
  20
4725570.000
  0
SEQEND
  8
Unknown_Area_Type
  0
POLYLINE
  8
Unknown_Area_Type
  70
1
  66
1
  0
VERTEX
  8
Unknown_Area_Type
  10
364005.500
  20
4725167.500
  0
VERTEX
  8
Unknown_Area_Type
  10
364004.046
  20
4725134.959
  0
VERTEX
  8
Unknown_Area_Type
  10
364004.024
  20
4725134.960
  0
VERTEX
  8
Unknown_Area_Type
  10
361711.814
  20
4725180.162
  0
VERTEX
  8
Unknown_Area_Type
  10
361172.952
  20
4725191.054
  0
VERTEX
  8
Unknown_Area_Type
  10
361172.582
  20
4725191.062
  0
VERTEX
  8
Unknown_Area_Type
  10
361174.000
  20
4725218.500
  0
VERTEX
  8
Unknown_Area_Type
  10
361174.418
  20
4725221.006
  0
VERTEX
  8
Unknown_Area_Type
  10
361174.500
  20
4725221.500
  0
VERTEX
  8
Unknown_Area_Type
  10
361176.000
  20
4725222.500
  0
VERTEX
  8
Unknown_Area_Type
  10
361348.000
  20
4725330.000
  0
VERTEX
  8
Unknown_Area_Type
  10
361349.000
  20
4725330.500
  0
VERTEX
  8
Unknown_Area_Type
  10
361349.455
  20
4725330.472
  0
VERTEX
  8
Unknown_Area_Type
  10
361610.000
  20
4725314.485
  0
VERTEX
  8
Unknown_Area_Type
  10
361820.000
  20
4725301.600
  0
VERTEX
  8
Unknown_Area_Type
  10
361910.000
  20
4725296.078
  0
VERTEX
  8
Unknown_Area_Type
  10
362009.050
  20
4725290.000
  0
VERTEX
  8
Unknown_Area_Type
  10
364005.478
  20
4725167.501
  0
VERTEX
  8
Unknown_Area_Type
  10
364005.500
  20
4725167.500
  0
SEQEND
  8
Unknown_Area_Type
  0
POLYLINE
  8
Unknown_Area_Type
  70
1
  66
1
  0
VERTEX
  8
Unknown_Area_Type
  10
358360.000
  20
4725252.000
  0
VERTEX
  8
Unknown_Area_Type
  10
358359.819
  20
4725247.917
  0
VERTEX
  8
Unknown_Area_Type
  10
358297.206
  20
4725249.183
  0
VERTEX
  8
Unknown_Area_Type
  10
355588.436
  20
4725305.272
  0
VERTEX
  8
Unknown_Area_Type
  10
355587.679
  20
4725305.288
  0
VERTEX
  8
Unknown_Area_Type
  10
355642.000
  20
4725340.000
  0
VERTEX
  8
Unknown_Area_Type
  10
355643.000
  20
4725340.500
  0
VERTEX
  8
Unknown_Area_Type
  10
355767.966
  20
4725420.000
  0
VERTEX
  8
Unknown_Area_Type
  10
355883.500
  20
4725493.500
  0
VERTEX
  8
Unknown_Area_Type
  10
355885.500
  20
4725494.167
  0
VERTEX
  8
Unknown_Area_Type
  10
355886.273
  20
4725494.424
  0
VERTEX
  8
Unknown_Area_Type
  10
355886.500
  20
4725494.500
  0
VERTEX
  8
Unknown_Area_Type
  10
356646.400
  20
4725420.000
  0
VERTEX
  8
Unknown_Area_Type
  10
357123.250
  20
4725373.250
  0
VERTEX
  8
Unknown_Area_Type
  10
358360.000
  20
4725252.000
  0
SEQEND
  8
Unknown_Area_Type
  0
POLYLINE
  8
Unknown_Area_Type
  70
1
  66
1
  0
VERTEX
  8
Unknown_Area_Type
  10
352933.448
  20
4733584.978
  0
VERTEX
  8
Unknown_Area_Type
  10
351254.500
  20
4733374.000
  0
VERTEX
  8
Unknown_Area_Type
  10
350728.500
  20
4733640.500
  0
VERTEX
  8
Unknown_Area_Type
  10
350747.419
  20
4734470.000
  0
VERTEX
  8
Unknown_Area_Type
  10
350755.630
  20
4734830.000
  0
VERTEX
  8
Unknown_Area_Type
  10
350831.500
  20
4738156.500
  0
VERTEX
  8
Unknown_Area_Type
  10
351177.090
  20
4738260.899
  0
VERTEX
  8
Unknown_Area_Type
  10
351813.000
  20
4738453.000
  0
VERTEX
  8
Unknown_Area_Type
  10
351815.000
  20
4738453.500
  0
VERTEX
  8
Unknown_Area_Type
  10
351816.096
  20
4738453.378
  0
VERTEX
  8
Unknown_Area_Type
  10
351818.247
  20
4738453.139
  0
VERTEX
  8
Unknown_Area_Type
  10
351824.000
  20
4738452.500
  0
VERTEX
  8
Unknown_Area_Type
  10
353455.381
  20
4738115.025
  0
VERTEX
  8
Unknown_Area_Type
  10
353455.500
  20
4738115.000
  0
VERTEX
  8
Unknown_Area_Type
  10
353367.499
  20
4734830.000
  0
VERTEX
  8
Unknown_Area_Type
  10
353357.855
  20
4734470.000
  0
VERTEX
  8
Unknown_Area_Type
  10
353335.500
  20
4733635.500
  0
VERTEX
  8
Unknown_Area_Type
  10
352933.448
  20
4733584.978
  0
SEQEND
  8
Unknown_Area_Type
  0
POLYLINE
  8
Unknown_Area_Type
  70
1
  66
1
  0
VERTEX
  8
Unknown_Area_Type
  10
358105.761
  20
4733475.531
  0
VERTEX
  8
Unknown_Area_Type
  10
356962.000
  20
4733191.000
  0
VERTEX
  8
Unknown_Area_Type
  10
355913.708
  20
4733604.826
  0
VERTEX
  8
Unknown_Area_Type
  10
355912.000
  20
4733605.500
  0
VERTEX
  8
Unknown_Area_Type
  10
355932.716
  20
4734330.000
  0
VERTEX
  8
Unknown_Area_Type
  10
355942.724
  20
4734680.000
  0
VERTEX
  8
Unknown_Area_Type
  10
356040.000
  20
4738082.000
  0
VERTEX
  8
Unknown_Area_Type
  10
356040.373
  20
4738082.116
  0
VERTEX
  8
Unknown_Area_Type
  10
356865.500
  20
4738339.500
  0
VERTEX
  8
Unknown_Area_Type
  10
356865.503
  20
4738339.500
  0
VERTEX
  8
Unknown_Area_Type
  10
357688.500
  20
4738202.000
  0
VERTEX
  8
Unknown_Area_Type
  10
357692.000
  20
4738201.500
  0
VERTEX
  8
Unknown_Area_Type
  10
358628.500
  20
4738046.000
  0
VERTEX
  8
Unknown_Area_Type
  10
358519.471
  20
4734680.000
  0
VERTEX
  8
Unknown_Area_Type
  10
358508.134
  20
4734330.000
  0
VERTEX
  8
Unknown_Area_Type
  10
358483.500
  20
4733569.500
  0
VERTEX
  8
Unknown_Area_Type
  10
358105.761
  20
4733475.531
  0
SEQEND
  8
Unknown_Area_Type
  0
POLYLINE
  8
Unknown_Area_Type
  70
1
  66
1
  0
VERTEX
  8
Unknown_Area_Type
  10
359338.000
  20
4738276.500
  0
VERTEX
  8
Unknown_Area_Type
  10
359738.000
  20
4738211.000
  0
VERTEX
  8
Unknown_Area_Type
  10
359738.761
  20
4738211.000
  0
VERTEX
  8
Unknown_Area_Type
  10
359740.000
  20
4738211.000
  0
VERTEX
  8
Unknown_Area_Type
  10
360564.438
  20
4738075.715
  0
VERTEX
  8
Unknown_Area_Type
  10
361230.000
  20
4737966.500
  0
VERTEX
  8
Unknown_Area_Type
  10
361206.906
  20
4734680.000
  0
VERTEX
  8
Unknown_Area_Type
  10
361204.446
  20
4734330.000
  0
VERTEX
  8
Unknown_Area_Type
  10
361199.000
  20
4733555.000
  0
VERTEX
  8
Unknown_Area_Type
  10
359805.500
  20
4733116.500
  0
VERTEX
  8
Unknown_Area_Type
  10
359803.982
  20
4733116.652
  0
VERTEX
  8
Unknown_Area_Type
  10
359802.678
  20
4733116.782
  0
VERTEX
  8
Unknown_Area_Type
  10
359800.500
  20
4733117.000
  0
VERTEX
  8
Unknown_Area_Type
  10
358483.919
  20
4733569.356
  0
VERTEX
  8
Unknown_Area_Type
  10
358483.500
  20
4733569.500
  0
VERTEX
  8
Unknown_Area_Type
  10
358508.134
  20
4734330.000
  0
VERTEX
  8
Unknown_Area_Type
  10
358519.471
  20
4734680.000
  0
VERTEX
  8
Unknown_Area_Type
  10
358628.500
  20
4738046.000
  0
VERTEX
  8
Unknown_Area_Type
  10
358628.839
  20
4738046.110
  0
VERTEX
  8
Unknown_Area_Type
  10
359312.817
  20
4738268.318
  0
VERTEX
  8
Unknown_Area_Type
  10
359338.000
  20
4738276.500
  0
SEQEND
  8
Unknown_Area_Type
  0
POLYLINE
  8
Unknown_Area_Type
  70
1
  66
1
  0
VERTEX
  8
Unknown_Area_Type
  10
364597.694
  20
4738199.892
  0
VERTEX
  8
Unknown_Area_Type
  10
365881.500
  20
4738000.000
  0
VERTEX
  8
Unknown_Area_Type
  10
365883.951
  20
4738000.000
  0
VERTEX
  8
Unknown_Area_Type
  10
365884.000
  20
4738000.000
  0
VERTEX
  8
Unknown_Area_Type
  10
365943.414
  20
4737990.752
  0
VERTEX
  8
Unknown_Area_Type
  10
366542.500
  20
4737897.500
  0
VERTEX
  8
Unknown_Area_Type
  10
366542.494
  20
4737897.240
  0
VERTEX
  8
Unknown_Area_Type
  10
366458.647
  20
4734540.000
  0
VERTEX
  8
Unknown_Area_Type
  10
366450.156
  20
4734200.000
  0
VERTEX
  8
Unknown_Area_Type
  10
366431.000
  20
4733433.000
  0
VERTEX
  8
Unknown_Area_Type
  10
366199.821
  20
4733333.193
  0
VERTEX
  8
Unknown_Area_Type
  10
365640.000
  20
4733091.500
  0
VERTEX
  8
Unknown_Area_Type
  10
365638.500
  20
4733091.500
  0
VERTEX
  8
Unknown_Area_Type
  10
365636.000
  20
4733091.500
  0
VERTEX
  8
Unknown_Area_Type
  10
365600.000
  20
4733099.500
  0
VERTEX
  8
Unknown_Area_Type
  10
363886.727
  20
4733481.878
  0
VERTEX
  8
Unknown_Area_Type
  10
363870.500
  20
4733485.500
  0
VERTEX
  8
Unknown_Area_Type
  10
363872.821
  20
4734200.000
  0
VERTEX
  8
Unknown_Area_Type
  10
363873.925
  20
4734540.000
  0
VERTEX
  8
Unknown_Area_Type
  10
363885.000
  20
4737949.500
  0
VERTEX
  8
Unknown_Area_Type
  10
364597.000
  20
4738200.000
  0
VERTEX
  8
Unknown_Area_Type
  10
364597.694
  20
4738199.892
  0
SEQEND
  8
Unknown_Area_Type
  0
POLYLINE
  8
Unknown_Area_Type
  70
1
  66
1
  0
VERTEX
  8
Unknown_Area_Type
  10
367214.846
  20
4738135.446
  0
VERTEX
  8
Unknown_Area_Type
  10
367931.000
  20
4738023.000
  0
VERTEX
  8
Unknown_Area_Type
  10
367932.000
  20
4738023.000
  0
VERTEX
  8
Unknown_Area_Type
  10
368610.000
  20
4737916.953
  0
VERTEX
  8
Unknown_Area_Type
  10
368910.000
  20
4737870.030
  0
VERTEX
  8
Unknown_Area_Type
  10
369191.500
  20
4737826.000
  0
VERTEX
  8
Unknown_Area_Type
  10
369097.849
  20
4734410.000
  0
VERTEX
  8
Unknown_Area_Type
  10
369088.528
  20
4734070.000
  0
VERTEX
  8
Unknown_Area_Type
  10
369067.500
  20
4733303.000
  0
VERTEX
  8
Unknown_Area_Type
  10
369067.368
  20
4733302.930
  0
VERTEX
  8
Unknown_Area_Type
  10
368820.000
  20
4733171.890
  0
VERTEX
  8
Unknown_Area_Type
  10
368613.807
  20
4733062.662
  0
VERTEX
  8
Unknown_Area_Type
  10
368613.500
  20
4733062.500
  0
VERTEX
  8
Unknown_Area_Type
  10
368520.000
  20
4733078.373
  0
VERTEX
  8
Unknown_Area_Type
  10
367886.078
  20
4733185.987
  0
VERTEX
  8
Unknown_Area_Type
  10
366431.717
  20
4733432.878
  0
VERTEX
  8
Unknown_Area_Type
  10
366431.000
  20
4733433.000
  0
VERTEX
  8
Unknown_Area_Type
  10
366450.074
  20
4734200.000
  0
VERTEX
  8
Unknown_Area_Type
  10
366458.529
  20
4734540.000
  0
VERTEX
  8
Unknown_Area_Type
  10
366542.000
  20
4737896.500
  0
VERTEX
  8
Unknown_Area_Type
  10
366542.494
  20
4737897.240
  0
VERTEX
  8
Unknown_Area_Type
  10
366542.698
  20
4737897.547
  0
VERTEX
  8
Unknown_Area_Type
  10
366543.000
  20
4737898.000
  0
VERTEX
  8
Unknown_Area_Type
  10
366550.000
  20
4737900.500
  0
VERTEX
  8
Unknown_Area_Type
  10
367214.500
  20
4738135.500
  0
VERTEX
  8
Unknown_Area_Type
  10
367214.846
  20
4738135.446
  0
SEQEND
  8
Unknown_Area_Type
  0
POLYLINE
  8
Unknown_Area_Type
  70
1
  66
1
  0
VERTEX
  8
Unknown_Area_Type
  10
371536.500
  20
4729311.000
  0
VERTEX
  8
Unknown_Area_Type
  10
372025.000
  20
4729273.500
  0
VERTEX
  8
Unknown_Area_Type
  10
372028.000
  20
4729273.500
  0
VERTEX
  8
Unknown_Area_Type
  10
374048.500
  20
4729120.000
  0
VERTEX
  8
Unknown_Area_Type
  10
374069.000
  20
4725251.500
  0
VERTEX
  8
Unknown_Area_Type
  10
374067.408
  20
4725251.068
  0
VERTEX
  8
Unknown_Area_Type
  10
373694.967
  20
4725150.000
  0
VERTEX
  8
Unknown_Area_Type
  10
373009.490
  20
4724963.984
  0
VERTEX
  8
Unknown_Area_Type
  10
373008.795
  20
4724963.997
  0
VERTEX
  8
Unknown_Area_Type
  10
372313.304
  20
4724976.683
  0
VERTEX
  8
Unknown_Area_Type
  10
372313.117
  20
4724976.686
  0
VERTEX
  8
Unknown_Area_Type
  10
372277.337
  20
4725150.000
  0
VERTEX
  8
Unknown_Area_Type
  10
371433.500
  20
4729237.500
  0
VERTEX
  8
Unknown_Area_Type
  10
371469.750
  20
4729263.368
  0
VERTEX
  8
Unknown_Area_Type
  10
371536.360
  20
4729310.900
  0
VERTEX
  8
Unknown_Area_Type
  10
371536.500
  20
4729311.000
  0
SEQEND
  8
Unknown_Area_Type
  0
POLYLINE
  8
Unknown_Area_Type
  70
1
  66
1
  0
VERTEX
  8
Unknown_Area_Type
  10
354136.354
  20
4733267.067
  0
VERTEX
  8
Unknown_Area_Type
  10
354136.000
  20
4733267.000
  0
VERTEX
  8
Unknown_Area_Type
  10
353335.714
  20
4733635.401
  0
VERTEX
  8
Unknown_Area_Type
  10
353335.500
  20
4733635.500
  0
VERTEX
  8
Unknown_Area_Type
  10
353357.770
  20
4734470.000
  0
VERTEX
  8
Unknown_Area_Type
  10
353367.377
  20
4734830.000
  0
VERTEX
  8
Unknown_Area_Type
  10
353455.000
  20
4738113.500
  0
VERTEX
  8
Unknown_Area_Type
  10
353455.381
  20
4738115.025
  0
VERTEX
  8
Unknown_Area_Type
  10
353455.500
  20
4738115.500
  0
VERTEX
  8
Unknown_Area_Type
  10
353458.500
  20
4738116.500
  0
VERTEX
  8
Unknown_Area_Type
  10
353593.000
  20
4738156.500
  0
VERTEX
  8
Unknown_Area_Type
  10
353595.000
  20
4738157.000
  0
VERTEX
  8
Unknown_Area_Type
  10
354360.500
  20
4738385.000
  0
VERTEX
  8
Unknown_Area_Type
  10
354377.500
  20
4738390.000
  0
VERTEX
  8
Unknown_Area_Type
  10
354379.000
  20
4738390.000
  0
VERTEX
  8
Unknown_Area_Type
  10
354381.000
  20
4738390.000
  0
VERTEX
  8
Unknown_Area_Type
  10
354970.000
  20
4738280.650
  0
VERTEX
  8
Unknown_Area_Type
  10
355280.000
  20
4738223.097
  0
VERTEX
  8
Unknown_Area_Type
  10
355487.116
  20
4738184.645
  0
VERTEX
  8
Unknown_Area_Type
  10
356040.000
  20
4738082.000
  0
VERTEX
  8
Unknown_Area_Type
  10
355942.724
  20
4734680.000
  0
VERTEX
  8
Unknown_Area_Type
  10
355932.716
  20
4734330.000
  0
VERTEX
  8
Unknown_Area_Type
  10
355912.000
  20
4733605.500
  0
VERTEX
  8
Unknown_Area_Type
  10
355911.024
  20
4733605.314
  0
VERTEX
  8
Unknown_Area_Type
  10
355180.000
  20
4733465.983
  0
VERTEX
  8
Unknown_Area_Type
  10
354870.000
  20
4733406.898
  0
VERTEX
  8
Unknown_Area_Type
  10
354444.228
  20
4733325.747
  0
VERTEX
  8
Unknown_Area_Type
  10
354136.354
  20
4733267.067
  0
SEQEND
  8
Unknown_Area_Type
  0
POLYLINE
  8
Unknown_Area_Type
  70
1
  66
1
  0
VERTEX
  8
Unknown_Area_Type
  10
362729.267
  20
4733068.733
  0
VERTEX
  8
Unknown_Area_Type
  10
362728.500
  20
4733068.500
  0
VERTEX
  8
Unknown_Area_Type
  10
362015.823
  20
4733295.187
  0
VERTEX
  8
Unknown_Area_Type
  10
362000.000
  20
4733300.220
  0
VERTEX
  8
Unknown_Area_Type
  10
361700.000
  20
4733395.643
  0
VERTEX
  8
Unknown_Area_Type
  10
361661.541
  20
4733407.876
  0
VERTEX
  8
Unknown_Area_Type
  10
361199.000
  20
4733555.000
  0
VERTEX
  8
Unknown_Area_Type
  10
361204.446
  20
4734330.000
  0
VERTEX
  8
Unknown_Area_Type
  10
361206.906
  20
4734680.000
  0
VERTEX
  8
Unknown_Area_Type
  10
361230.000
  20
4737966.500
  0
VERTEX
  8
Unknown_Area_Type
  10
361230.311
  20
4737966.613
  0
VERTEX
  8
Unknown_Area_Type
  10
361786.000
  20
4738168.000
  0
VERTEX
  8
Unknown_Area_Type
  10
361787.000
  20
4738168.500
  0
VERTEX
  8
Unknown_Area_Type
  10
361790.000
  20
4738169.574
  0
VERTEX
  8
Unknown_Area_Type
  10
361849.888
  20
4738191.011
  0
VERTEX
  8
Unknown_Area_Type
  10
361962.277
  20
4738231.241
  0
VERTEX
  8
Unknown_Area_Type
  10
361963.000
  20
4738231.500
  0
VERTEX
  8
Unknown_Area_Type
  10
362090.000
  20
4738212.866
  0
VERTEX
  8
Unknown_Area_Type
  10
363885.000
  20
4737949.500
  0
VERTEX
  8
Unknown_Area_Type
  10
363873.925
  20
4734540.000
  0
VERTEX
  8
Unknown_Area_Type
  10
363872.821
  20
4734200.000
  0
VERTEX
  8
Unknown_Area_Type
  10
363870.500
  20
4733485.500
  0
VERTEX
  8
Unknown_Area_Type
  10
363869.963
  20
4733485.303
  0
VERTEX
  8
Unknown_Area_Type
  10
362745.000
  20
4733073.500
  0
VERTEX
  8
Unknown_Area_Type
  10
362737.219
  20
4733071.142
  0
VERTEX
  8
Unknown_Area_Type
  10
362729.267
  20
4733068.733
  0
SEQEND
  8
Unknown_Area_Type
  0
POLYLINE
  8
Unknown_Area_Type
  70
1
  66
1
  0
VERTEX
  8
Unknown_Area_Type
  10
369840.000
  20
4738058.500
  0
VERTEX
  8
Unknown_Area_Type
  10
369978.500
  20
4738036.500
  0
VERTEX
  8
Unknown_Area_Type
  10
369978.831
  20
4738036.500
  0
VERTEX
  8
Unknown_Area_Type
  10
369980.000
  20
4738036.500
  0
VERTEX
  8
Unknown_Area_Type
  10
370942.889
  20
4737882.621
  0
VERTEX
  8
Unknown_Area_Type
  10
371766.500
  20
4737751.000
  0
VERTEX
  8
Unknown_Area_Type
  10
371714.958
  20
4734410.000
  0
VERTEX
  8
Unknown_Area_Type
  10
371713.500
  20
4734315.500
  0
VERTEX
  8
Unknown_Area_Type
  10
371713.008
  20
4734315.008
  0
VERTEX
  8
Unknown_Area_Type
  10
371708.156
  20
4734310.156
  0
VERTEX
  8
Unknown_Area_Type
  10
371708.000
  20
4734310.000
  0
VERTEX
  8
Unknown_Area_Type
  10
371396.337
  20
4734070.000
  0
VERTEX
  8
Unknown_Area_Type
  10
370275.000
  20
4733206.500
  0
VERTEX
  8
Unknown_Area_Type
  10
370274.547
  20
4733206.536
  0
VERTEX
  8
Unknown_Area_Type
  10
370262.804
  20
4733207.475
  0
VERTEX
  8
Unknown_Area_Type
  10
370262.500
  20
4733207.499
  0
VERTEX
  8
Unknown_Area_Type
  10
369067.500
  20
4733303.000
  0
VERTEX
  8
Unknown_Area_Type
  10
369088.528
  20
4734070.000
  0
VERTEX
  8
Unknown_Area_Type
  10
369097.849
  20
4734410.000
  0
VERTEX
  8
Unknown_Area_Type
  10
369191.500
  20
4737826.000
  0
VERTEX
  8
Unknown_Area_Type
  10
369191.804
  20
4737826.109
  0
VERTEX
  8
Unknown_Area_Type
  10
369839.765
  20
4738058.416
  0
VERTEX
  8
Unknown_Area_Type
  10
369840.000
  20
4738058.500
  0
SEQEND
  8
Unknown_Area_Type
  0
POLYLINE
  8
Unknown_Area_Type
  70
1
  66
1
  0
VERTEX
  8
Unknown_Area_Type
  10
348898.714
  20
4725570.000
  0
VERTEX
  8
Unknown_Area_Type
  10
349496.500
  20
4725491.000
  0
VERTEX
  8
Unknown_Area_Type
  10
349496.635
  20
4725491.000
  0
VERTEX
  8
Unknown_Area_Type
  10
349500.000
  20
4725491.000
  0
VERTEX
  8
Unknown_Area_Type
  10
349988.587
  20
4725426.055
  0
VERTEX
  8
Unknown_Area_Type
  10
349988.986
  20
4725426.002
  0
VERTEX
  8
Unknown_Area_Type
  10
349989.000
  20
4725426.000
  0
VERTEX
  8
Unknown_Area_Type
  10
349988.953
  20
4725424.362
  0
VERTEX
  8
Unknown_Area_Type
  10
349988.939
  20
4725424.363
  0
VERTEX
  8
Unknown_Area_Type
  10
348053.344
  20
4725466.352
  0
VERTEX
  8
Unknown_Area_Type
  10
348058.056
  20
4725681.097
  0
VERTEX
  8
Unknown_Area_Type
  10
348898.714
  20
4725570.000
  0
SEQEND
  8
Unknown_Area_Type
  0
POLYLINE
  8
Unknown_Area_Type
  70
1
  66
1
  0
VERTEX
  8
Unknown_Area_Type
  10
374060.494
  20
4734070.000
  0
VERTEX
  8
Unknown_Area_Type
  10
373751.500
  20
4733815.500
  0
VERTEX
  8
Unknown_Area_Type
  10
373751.115
  20
4733815.594
  0
VERTEX
  8
Unknown_Area_Type
  10
372711.824
  20
4734070.000
  0
VERTEX
  8
Unknown_Area_Type
  10
371713.000
  20
4734314.500
  0
VERTEX
  8
Unknown_Area_Type
  10
371713.008
  20
4734315.008
  0
VERTEX
  8
Unknown_Area_Type
  10
371714.487
  20
4734410.000
  0
VERTEX
  8
Unknown_Area_Type
  10
371766.500
  20
4737751.000
  0
VERTEX
  8
Unknown_Area_Type
  10
371766.820
  20
4737751.109
  0
VERTEX
  8
Unknown_Area_Type
  10
372025.500
  20
4737839.000
  0
VERTEX
  8
Unknown_Area_Type
  10
372027.000
  20
4737839.500
  0
VERTEX
  8
Unknown_Area_Type
  10
372503.000
  20
4738001.000
  0
VERTEX
  8
Unknown_Area_Type
  10
372522.500
  20
4738007.500
  0
VERTEX
  8
Unknown_Area_Type
  10
372524.000
  20
4738007.500
  0
VERTEX
  8
Unknown_Area_Type
  10
372526.500
  20
4738007.500
  0
VERTEX
  8
Unknown_Area_Type
  10
373845.786
  20
4737762.857
  0
VERTEX
  8
Unknown_Area_Type
  10
374373.500
  20
4737665.000
  0
VERTEX
  8
Unknown_Area_Type
  10
374288.558
  20
4734410.000
  0
VERTEX
  8
Unknown_Area_Type
  10
374284.500
  20
4734254.500
  0
VERTEX
  8
Unknown_Area_Type
  10
374284.394
  20
4734254.413
  0
VERTEX
  8
Unknown_Area_Type
  10
374060.494
  20
4734070.000
  0
SEQEND
  8
Unknown_Area_Type
  0
POLYLINE
  8
Unknown_Area_Type
  70
1
  66
1
  0
VERTEX
  8
Unknown_Area_Type
  10
374375.866
  20
4729337.079
  0
VERTEX
  8
Unknown_Area_Type
  10
374049.000
  20
4729120.000
  0
VERTEX
  8
Unknown_Area_Type
  10
374048.551
  20
4729120.034
  0
VERTEX
  8
Unknown_Area_Type
  10
371536.500
  20
4729311.000
  0
VERTEX
  8
Unknown_Area_Type
  10
371536.502
  20
4729311.254
  0
VERTEX
  8
Unknown_Area_Type
  10
371537.390
  20
4729440.000
  0
VERTEX
  8
Unknown_Area_Type
  10
371539.735
  20
4729780.000
  0
VERTEX
  8
Unknown_Area_Type
  10
371551.895
  20
4731542.789
  0
VERTEX
  8
Unknown_Area_Type
  10
371552.000
  20
4731558.000
  0
VERTEX
  8
Unknown_Area_Type
  10
371552.334
  20
4731558.111
  0
VERTEX
  8
Unknown_Area_Type
  10
373729.500
  20
4732277.500
  0
VERTEX
  8
Unknown_Area_Type
  10
373729.699
  20
4732277.400
  0
VERTEX
  8
Unknown_Area_Type
  10
373730.363
  20
4732277.069
  0
VERTEX
  8
Unknown_Area_Type
  10
373731.500
  20
4732276.500
  0
VERTEX
  8
Unknown_Area_Type
  10
374075.500
  20
4731867.000
  0
VERTEX
  8
Unknown_Area_Type
  10
374075.899
  20
4731866.202
  0
VERTEX
  8
Unknown_Area_Type
  10
374076.000
  20
4731866.000
  0
VERTEX
  8
Unknown_Area_Type
  10
374122.618
  20
4731810.650
  0
VERTEX
  8
Unknown_Area_Type
  10
374407.000
  20
4731473.000
  0
VERTEX
  8
Unknown_Area_Type
  10
374406.993
  20
4731472.508
  0
VERTEX
  8
Unknown_Area_Type
  10
374382.821
  20
4729780.000
  0
VERTEX
  8
Unknown_Area_Type
  10
374377.964
  20
4729440.000
  0
VERTEX
  8
Unknown_Area_Type
  10
374376.500
  20
4729337.500
  0
VERTEX
  8
Unknown_Area_Type
  10
374375.866
  20
4729337.079
  0
SEQEND
  8
Unknown_Area_Type
  0
POLYLINE
  8
Unknown_Area_Type
  70
1
  66
1
  0
VERTEX
  8
Unknown_Area_Type
  10
356924.628
  20
4729468.839
  0
VERTEX
  8
Unknown_Area_Type
  10
355879.500
  20
4729016.000
  0
VERTEX
  8
Unknown_Area_Type
  10
355879.186
  20
4729016.080
  0
VERTEX
  8
Unknown_Area_Type
  10
355515.605
  20
4729109.199
  0
VERTEX
  8
Unknown_Area_Type
  10
355080.000
  20
4729220.763
  0
VERTEX
  8
Unknown_Area_Type
  10
354780.000
  20
4729297.598
  0
VERTEX
  8
Unknown_Area_Type
  10
354060.000
  20
4729482.000
  0
VERTEX
  8
Unknown_Area_Type
  10
354060.000
  20
4729501.500
  0
VERTEX
  8
Unknown_Area_Type
  10
354066.877
  20
4729840.000
  0
VERTEX
  8
Unknown_Area_Type
  10
354074.191
  20
4730200.000
  0
VERTEX
  8
Unknown_Area_Type
  10
354136.500
  20
4733267.000
  0
VERTEX
  8
Unknown_Area_Type
  10
354444.228
  20
4733325.747
  0
VERTEX
  8
Unknown_Area_Type
  10
354870.000
  20
4733407.030
  0
VERTEX
  8
Unknown_Area_Type
  10
355180.000
  20
4733466.211
  0
VERTEX
  8
Unknown_Area_Type
  10
355907.000
  20
4733605.000
  0
VERTEX
  8
Unknown_Area_Type
  10
355910.000
  20
4733605.500
  0
VERTEX
  8
Unknown_Area_Type
  10
355911.024
  20
4733605.314
  0
VERTEX
  8
Unknown_Area_Type
  10
355913.708
  20
4733604.826
  0
VERTEX
  8
Unknown_Area_Type
  10
355915.500
  20
4733604.500
  0
VERTEX
  8
Unknown_Area_Type
  10
356962.000
  20
4733191.500
  0
VERTEX
  8
Unknown_Area_Type
  10
356962.000
  20
4733191.000
  0
VERTEX
  8
Unknown_Area_Type
  10
356962.000
  20
4733141.500
  0
VERTEX
  8
Unknown_Area_Type
  10
356930.853
  20
4730050.000
  0
VERTEX
  8
Unknown_Area_Type
  10
356927.327
  20
4729700.000
  0
VERTEX
  8
Unknown_Area_Type
  10
356925.000
  20
4729469.000
  0
VERTEX
  8
Unknown_Area_Type
  10
356924.628
  20
4729468.839
  0
SEQEND
  8
Unknown_Area_Type
  0
POLYLINE
  8
Unknown_Area_Type
  70
1
  66
1
  0
VERTEX
  8
Unknown_Area_Type
  10
361338.000
  20
4728973.000
  0
VERTEX
  8
Unknown_Area_Type
  10
361336.500
  20
4728973.000
  0
VERTEX
  8
Unknown_Area_Type
  10
361316.000
  20
4728979.500
  0
VERTEX
  8
Unknown_Area_Type
  10
359772.500
  20
4729472.500
  0
VERTEX
  8
Unknown_Area_Type
  10
359765.098
  20
4729475.192
  0
VERTEX
  8
Unknown_Area_Type
  10
359761.500
  20
4729476.500
  0
VERTEX
  8
Unknown_Area_Type
  10
359761.500
  20
4729518.000
  0
VERTEX
  8
Unknown_Area_Type
  10
359763.624
  20
4729700.000
  0
VERTEX
  8
Unknown_Area_Type
  10
359767.709
  20
4730050.000
  0
VERTEX
  8
Unknown_Area_Type
  10
359803.500
  20
4733116.500
  0
VERTEX
  8
Unknown_Area_Type
  10
359803.982
  20
4733116.652
  0
VERTEX
  8
Unknown_Area_Type
  10
361197.000
  20
4733555.000
  0
VERTEX
  8
Unknown_Area_Type
  10
361199.000
  20
4733555.000
  0
VERTEX
  8
Unknown_Area_Type
  10
361200.500
  20
4733555.000
  0
VERTEX
  8
Unknown_Area_Type
  10
361661.541
  20
4733407.876
  0
VERTEX
  8
Unknown_Area_Type
  10
361700.000
  20
4733395.603
  0
VERTEX
  8
Unknown_Area_Type
  10
361786.500
  20
4733368.000
  0
VERTEX
  8
Unknown_Area_Type
  10
361788.000
  20
4733367.500
  0
VERTEX
  8
Unknown_Area_Type
  10
362000.000
  20
4733300.209
  0
VERTEX
  8
Unknown_Area_Type
  10
362015.823
  20
4733295.187
  0
VERTEX
  8
Unknown_Area_Type
  10
362729.267
  20
4733068.733
  0
VERTEX
  8
Unknown_Area_Type
  10
362730.000
  20
4733068.500
  0
VERTEX
  8
Unknown_Area_Type
  10
362680.531
  20
4729910.000
  0
VERTEX
  8
Unknown_Area_Type
  10
362675.206
  20
4729570.000
  0
VERTEX
  8
Unknown_Area_Type
  10
362674.000
  20
4729493.000
  0
VERTEX
  8
Unknown_Area_Type
  10
362399.170
  20
4729385.910
  0
VERTEX
  8
Unknown_Area_Type
  10
361910.000
  20
4729195.301
  0
VERTEX
  8
Unknown_Area_Type
  10
361610.000
  20
4729078.403
  0
VERTEX
  8
Unknown_Area_Type
  10
361339.500
  20
4728973.000
  0
VERTEX
  8
Unknown_Area_Type
  10
361338.000
  20
4728973.000
  0
SEQEND
  8
Unknown_Area_Type
  0
POLYLINE
  8
Unknown_Area_Type
  70
1
  66
1
  0
VERTEX
  8
Unknown_Area_Type
  10
364123.000
  20
4728941.500
  0
VERTEX
  8
Unknown_Area_Type
  10
364121.500
  20
4728941.500
  0
VERTEX
  8
Unknown_Area_Type
  10
362674.253
  20
4729492.904
  0
VERTEX
  8
Unknown_Area_Type
  10
362674.000
  20
4729493.000
  0
VERTEX
  8
Unknown_Area_Type
  10
362675.206
  20
4729570.000
  0
VERTEX
  8
Unknown_Area_Type
  10
362680.531
  20
4729910.000
  0
VERTEX
  8
Unknown_Area_Type
  10
362730.000
  20
4733068.500
  0
VERTEX
  8
Unknown_Area_Type
  10
362737.219
  20
4733071.142
  0
VERTEX
  8
Unknown_Area_Type
  10
363868.000
  20
4733485.000
  0
VERTEX
  8
Unknown_Area_Type
  10
363869.000
  20
4733485.500
  0
VERTEX
  8
Unknown_Area_Type
  10
363869.963
  20
4733485.303
  0
VERTEX
  8
Unknown_Area_Type
  10
363886.727
  20
4733481.878
  0
VERTEX
  8
Unknown_Area_Type
  10
363915.500
  20
4733476.000
  0
VERTEX
  8
Unknown_Area_Type
  10
365638.500
  20
4733091.500
  0
VERTEX
  8
Unknown_Area_Type
  10
365618.883
  20
4729910.000
  0
VERTEX
  8
Unknown_Area_Type
  10
365616.786
  20
4729570.000
  0
VERTEX
  8
Unknown_Area_Type
  10
365616.000
  20
4729442.500
  0
VERTEX
  8
Unknown_Area_Type
  10
365615.452
  20
4729442.316
  0
VERTEX
  8
Unknown_Area_Type
  10
364145.500
  20
4728948.500
  0
VERTEX
  8
Unknown_Area_Type
  10
364124.500
  20
4728941.500
  0
VERTEX
  8
Unknown_Area_Type
  10
364123.000
  20
4728941.500
  0
SEQEND
  8
Unknown_Area_Type
  0
POLYLINE
  8
Unknown_Area_Type
  70
1
  66
1
  0
VERTEX
  8
Unknown_Area_Type
  10
350728.500
  20
4733640.500
  0
VERTEX
  8
Unknown_Area_Type
  10
348228.094
  20
4733425.732
  0
VERTEX
  8
Unknown_Area_Type
  10
348228.098
  20
4733425.946
  0
VERTEX
  8
Unknown_Area_Type
  10
348256.536
  20
4734720.300
  0
VERTEX
  8
Unknown_Area_Type
  10
348307.384
  20
4737033.805
  0
VERTEX
  8
Unknown_Area_Type
  10
348343.965
  20
4738697.509
  0
VERTEX
  8
Unknown_Area_Type
  10
349289.328
  20
4738491.904
  0
VERTEX
  8
Unknown_Area_Type
  10
350830.919
  20
4738156.626
  0
VERTEX
  8
Unknown_Area_Type
  10
350831.500
  20
4738156.500
  0
VERTEX
  8
Unknown_Area_Type
  10
350755.630
  20
4734830.000
  0
VERTEX
  8
Unknown_Area_Type
  10
350747.419
  20
4734470.000
  0
VERTEX
  8
Unknown_Area_Type
  10
350728.500
  20
4733640.500
  0
SEQEND
  8
Unknown_Area_Type
  0
POLYLINE
  8
Unknown_Area_Type
  70
1
  66
1
  0
VERTEX
  8
Unknown_Area_Type
  10
369067.368
  20
4733302.930
  0
VERTEX
  8
Unknown_Area_Type
  10
369976.000
  20
4733230.000
  0
VERTEX
  8
Unknown_Area_Type
  10
369980.000
  20
4733230.000
  0
VERTEX
  8
Unknown_Area_Type
  10
370262.500
  20
4733207.499
  0
VERTEX
  8
Unknown_Area_Type
  10
370262.804
  20
4733207.475
  0
VERTEX
  8
Unknown_Area_Type
  10
370274.500
  20
4733206.500
  0
VERTEX
  8
Unknown_Area_Type
  10
370275.500
  20
4733205.500
  0
VERTEX
  8
Unknown_Area_Type
  10
371552.000
  20
4731558.500
  0
VERTEX
  8
Unknown_Area_Type
  10
371551.999
  20
4731558.334
  0
VERTEX
  8
Unknown_Area_Type
  10
371551.895
  20
4731542.789
  0
VERTEX
  8
Unknown_Area_Type
  10
371540.122
  20
4729780.000
  0
VERTEX
  8
Unknown_Area_Type
  10
371537.851
  20
4729440.000
  0
VERTEX
  8
Unknown_Area_Type
  10
371537.000
  20
4729312.500
  0
VERTEX
  8
Unknown_Area_Type
  10
371536.502
  20
4729311.254
  0
VERTEX
  8
Unknown_Area_Type
  10
371536.360
  20
4729310.900
  0
VERTEX
  8
Unknown_Area_Type
  10
371536.000
  20
4729310.000
  0
VERTEX
  8
Unknown_Area_Type
  10
371469.750
  20
4729263.368
  0
VERTEX
  8
Unknown_Area_Type
  10
371433.000
  20
4729237.500
  0
VERTEX
  8
Unknown_Area_Type
  10
369743.000
  20
4728865.500
  0
VERTEX
  8
Unknown_Area_Type
  10
369742.434
  20
4728865.706
  0
VERTEX
  8
Unknown_Area_Type
  10
369736.007
  20
4728868.043
  0
VERTEX
  8
Unknown_Area_Type
  10
369732.000
  20
4728869.500
  0
VERTEX
  8
Unknown_Area_Type
  10
368992.032
  20
4729212.458
  0
VERTEX
  8
Unknown_Area_Type
  10
368730.000
  20
4729333.904
  0
VERTEX
  8
Unknown_Area_Type
  10
368561.500
  20
4729412.000
  0
VERTEX
  8
Unknown_Area_Type
  10
368561.613
  20
4729420.083
  0
VERTEX
  8
Unknown_Area_Type
  10
368561.892
  20
4729440.000
  0
VERTEX
  8
Unknown_Area_Type
  10
368563.711
  20
4729570.000
  0
VERTEX
  8
Unknown_Area_Type
  10
368566.649
  20
4729780.000
  0
VERTEX
  8
Unknown_Area_Type
  10
368568.468
  20
4729910.000
  0
VERTEX
  8
Unknown_Area_Type
  10
368612.500
  20
4733057.000
  0
VERTEX
  8
Unknown_Area_Type
  10
368612.950
  20
4733058.951
  0
VERTEX
  8
Unknown_Area_Type
  10
368613.807
  20
4733062.662
  0
VERTEX
  8
Unknown_Area_Type
  10
368614.000
  20
4733063.500
  0
VERTEX
  8
Unknown_Area_Type
  10
368820.000
  20
4733172.532
  0
VERTEX
  8
Unknown_Area_Type
  10
369066.500
  20
4733303.000
  0
VERTEX
  8
Unknown_Area_Type
  10
369067.368
  20
4733302.930
  0
SEQEND
  8
Unknown_Area_Type
  0
POLYLINE
  8
Unknown_Area_Type
  70
1
  66
1
  0
VERTEX
  8
Unknown_Area_Type
  10
354060.000
  20
4729482.000
  0
VERTEX
  8
Unknown_Area_Type
  10
353179.000
  20
4729078.500
  0
VERTEX
  8
Unknown_Area_Type
  10
353178.331
  20
4729078.652
  0
VERTEX
  8
Unknown_Area_Type
  10
352275.310
  20
4729283.405
  0
VERTEX
  8
Unknown_Area_Type
  10
351547.194
  20
4729448.500
  0
VERTEX
  8
Unknown_Area_Type
  10
351249.500
  20
4729516.000
  0
VERTEX
  8
Unknown_Area_Type
  10
351249.920
  20
4729840.000
  0
VERTEX
  8
Unknown_Area_Type
  10
351250.386
  20
4730200.000
  0
VERTEX
  8
Unknown_Area_Type
  10
351254.500
  20
4733374.000
  0
VERTEX
  8
Unknown_Area_Type
  10
351541.500
  20
4733410.500
  0
VERTEX
  8
Unknown_Area_Type
  10
351545.500
  20
4733411.000
  0
VERTEX
  8
Unknown_Area_Type
  10
352933.448
  20
4733584.978
  0
VERTEX
  8
Unknown_Area_Type
  10
353335.714
  20
4733635.401
  0
VERTEX
  8
Unknown_Area_Type
  10
353336.500
  20
4733635.500
  0
VERTEX
  8
Unknown_Area_Type
  10
354136.354
  20
4733267.067
  0
VERTEX
  8
Unknown_Area_Type
  10
354136.500
  20
4733267.000
  0
VERTEX
  8
Unknown_Area_Type
  10
354074.512
  20
4730200.000
  0
VERTEX
  8
Unknown_Area_Type
  10
354067.236
  20
4729840.000
  0
VERTEX
  8
Unknown_Area_Type
  10
354060.000
  20
4729482.000
  0
SEQEND
  8
Unknown_Area_Type
  0
POLYLINE
  8
Unknown_Area_Type
  70
1
  66
1
  0
VERTEX
  8
Unknown_Area_Type
  10
375536.829
  20
4734174.742
  0
VERTEX
  8
Unknown_Area_Type
  10
375533.312
  20
4733979.524
  0
VERTEX
  8
Unknown_Area_Type
  10
375430.000
  20
4734002.273
  0
VERTEX
  8
Unknown_Area_Type
  10
375350.000
  20
4734019.888
  0
VERTEX
  8
Unknown_Area_Type
  10
375122.413
  20
4734070.000
  0
VERTEX
  8
Unknown_Area_Type
  10
374284.500
  20
4734254.500
  0
VERTEX
  8
Unknown_Area_Type
  10
374288.558
  20
4734410.000
  0
VERTEX
  8
Unknown_Area_Type
  10
374373.500
  20
4737665.000
  0
VERTEX
  8
Unknown_Area_Type
  10
374373.860
  20
4737665.118
  0
VERTEX
  8
Unknown_Area_Type
  10
375135.500
  20
4737916.000
  0
VERTEX
  8
Unknown_Area_Type
  10
375135.825
  20
4737915.942
  0
VERTEX
  8
Unknown_Area_Type
  10
375430.000
  20
4737863.704
  0
VERTEX
  8
Unknown_Area_Type
  10
375602.782
  20
4737833.023
  0
VERTEX
  8
Unknown_Area_Type
  10
375578.531
  20
4736488.217
  0
VERTEX
  8
Unknown_Area_Type
  10
375536.829
  20
4734174.742
  0
SEQEND
  8
Unknown_Area_Type
  0
POLYLINE
  8
Unknown_Area_Type
  70
1
  66
1
  0
VERTEX
  8
Unknown_Area_Type
  10
359761.281
  20
4729476.410
  0
VERTEX
  8
Unknown_Area_Type
  10
358601.500
  20
4729002.500
  0
VERTEX
  8
Unknown_Area_Type
  10
358600.905
  20
4729002.666
  0
VERTEX
  8
Unknown_Area_Type
  10
357394.330
  20
4729338.405
  0
VERTEX
  8
Unknown_Area_Type
  10
356936.941
  20
4729465.677
  0
VERTEX
  8
Unknown_Area_Type
  10
356925.000
  20
4729469.000
  0
VERTEX
  8
Unknown_Area_Type
  10
356927.296
  20
4729700.000
  0
VERTEX
  8
Unknown_Area_Type
  10
356930.776
  20
4730050.000
  0
VERTEX
  8
Unknown_Area_Type
  10
356962.000
  20
4733191.000
  0
VERTEX
  8
Unknown_Area_Type
  10
357688.500
  20
4733372.000
  0
VERTEX
  8
Unknown_Area_Type
  10
357690.500
  20
4733372.500
  0
VERTEX
  8
Unknown_Area_Type
  10
358105.761
  20
4733475.531
  0
VERTEX
  8
Unknown_Area_Type
  10
358483.919
  20
4733569.356
  0
VERTEX
  8
Unknown_Area_Type
  10
358484.500
  20
4733569.500
  0
VERTEX
  8
Unknown_Area_Type
  10
359802.678
  20
4733116.782
  0
VERTEX
  8
Unknown_Area_Type
  10
359803.500
  20
4733116.500
  0
VERTEX
  8
Unknown_Area_Type
  10
359768.117
  20
4730050.000
  0
VERTEX
  8
Unknown_Area_Type
  10
359764.079
  20
4729700.000
  0
VERTEX
  8
Unknown_Area_Type
  10
359761.500
  20
4729476.500
  0
VERTEX
  8
Unknown_Area_Type
  10
359761.281
  20
4729476.410
  0
SEQEND
  8
Unknown_Area_Type
  0
POLYLINE
  8
Unknown_Area_Type
  70
1
  66
1
  0
VERTEX
  8
Unknown_Area_Type
  10
351249.180
  20
4729515.846
  0
VERTEX
  8
Unknown_Area_Type
  10
350438.000
  20
4729125.000
  0
VERTEX
  8
Unknown_Area_Type
  10
350437.652
  20
4729125.073
  0
VERTEX
  8
Unknown_Area_Type
  10
348144.264
  20
4729608.828
  0
VERTEX
  8
Unknown_Area_Type
  10
348154.899
  20
4730093.311
  0
VERTEX
  8
Unknown_Area_Type
  10
348205.707
  20
4732406.801
  0
VERTEX
  8
Unknown_Area_Type
  10
348228.094
  20
4733425.732
  0
VERTEX
  8
Unknown_Area_Type
  10
348228.098
  20
4733425.946
  0
VERTEX
  8
Unknown_Area_Type
  10
350725.000
  20
4733640.500
  0
VERTEX
  8
Unknown_Area_Type
  10
350728.500
  20
4733640.500
  0
VERTEX
  8
Unknown_Area_Type
  10
350729.000
  20
4733640.500
  0
VERTEX
  8
Unknown_Area_Type
  10
350739.000
  20
4733635.500
  0
VERTEX
  8
Unknown_Area_Type
  10
351254.500
  20
4733374.500
  0
VERTEX
  8
Unknown_Area_Type
  10
351254.500
  20
4733374.000
  0
VERTEX
  8
Unknown_Area_Type
  10
351250.386
  20
4730200.000
  0
VERTEX
  8
Unknown_Area_Type
  10
351249.920
  20
4729840.000
  0
VERTEX
  8
Unknown_Area_Type
  10
351249.500
  20
4729516.000
  0
VERTEX
  8
Unknown_Area_Type
  10
351249.180
  20
4729515.846
  0
SEQEND
  8
Unknown_Area_Type
  0
POLYLINE
  8
Unknown_Area_Type
  70
1
  66
1
  0
VERTEX
  8
Unknown_Area_Type
  10
366946.281
  20
4728900.589
  0
VERTEX
  8
Unknown_Area_Type
  10
366946.000
  20
4728900.500
  0
VERTEX
  8
Unknown_Area_Type
  10
366503.519
  20
4729080.819
  0
VERTEX
  8
Unknown_Area_Type
  10
365616.000
  20
4729442.500
  0
VERTEX
  8
Unknown_Area_Type
  10
365616.786
  20
4729570.000
  0
VERTEX
  8
Unknown_Area_Type
  10
365618.883
  20
4729910.000
  0
VERTEX
  8
Unknown_Area_Type
  10
365638.500
  20
4733091.500
  0
VERTEX
  8
Unknown_Area_Type
  10
365882.000
  20
4733196.500
  0
VERTEX
  8
Unknown_Area_Type
  10
365883.000
  20
4733197.000
  0
VERTEX
  8
Unknown_Area_Type
  10
366199.821
  20
4733333.193
  0
VERTEX
  8
Unknown_Area_Type
  10
366431.717
  20
4733432.878
  0
VERTEX
  8
Unknown_Area_Type
  10
366432.000
  20
4733433.000
  0
VERTEX
  8
Unknown_Area_Type
  10
367886.078
  20
4733185.987
  0
VERTEX
  8
Unknown_Area_Type
  10
368520.000
  20
4733078.298
  0
VERTEX
  8
Unknown_Area_Type
  10
368613.000
  20
4733062.500
  0
VERTEX
  8
Unknown_Area_Type
  10
368612.950
  20
4733058.951
  0
VERTEX
  8
Unknown_Area_Type
  10
368568.794
  20
4729910.000
  0
VERTEX
  8
Unknown_Area_Type
  10
368566.971
  20
4729780.000
  0
VERTEX
  8
Unknown_Area_Type
  10
368564.026
  20
4729570.000
  0
VERTEX
  8
Unknown_Area_Type
  10
368562.203
  20
4729440.000
  0
VERTEX
  8
Unknown_Area_Type
  10
368562.000
  20
4729425.500
  0
VERTEX
  8
Unknown_Area_Type
  10
368561.613
  20
4729420.083
  0
VERTEX
  8
Unknown_Area_Type
  10
368561.035
  20
4729411.984
  0
VERTEX
  8
Unknown_Area_Type
  10
368561.000
  20
4729411.500
  0
VERTEX
  8
Unknown_Area_Type
  10
368440.000
  20
4729373.215
  0
VERTEX
  8
Unknown_Area_Type
  10
367349.773
  20
4729028.257
  0
VERTEX
  8
Unknown_Area_Type
  10
366946.281
  20
4728900.589
  0
SEQEND
  8
Unknown_Area_Type
  0
POLYLINE
  8
Unknown_Area_Type
  70
1
  66
1
  0
VERTEX
  8
Unknown_Area_Type
  10
375411.824
  20
4727234.367
  0
VERTEX
  8
Unknown_Area_Type
  10
375370.188
  20
4724920.924
  0
VERTEX
  8
Unknown_Area_Type
  10
375135.380
  20
4724925.207
  0
VERTEX
  8
Unknown_Area_Type
  10
375134.858
  20
4724925.217
  0
VERTEX
  8
Unknown_Area_Type
  10
374400.567
  20
4725150.000
  0
VERTEX
  8
Unknown_Area_Type
  10
374075.533
  20
4725249.500
  0
VERTEX
  8
Unknown_Area_Type
  10
374072.213
  20
4725250.516
  0
VERTEX
  8
Unknown_Area_Type
  10
374069.352
  20
4725251.392
  0
VERTEX
  8
Unknown_Area_Type
  10
374069.000
  20
4725251.500
  0
VERTEX
  8
Unknown_Area_Type
  10
374048.500
  20
4729120.000
  0
VERTEX
  8
Unknown_Area_Type
  10
374048.551
  20
4729120.034
  0
VERTEX
  8
Unknown_Area_Type
  10
374074.500
  20
4729137.500
  0
VERTEX
  8
Unknown_Area_Type
  10
374075.500
  20
4729138.000
  0
VERTEX
  8
Unknown_Area_Type
  10
374375.000
  20
4729337.000
  0
VERTEX
  8
Unknown_Area_Type
  10
374375.866
  20
4729337.079
  0
VERTEX
  8
Unknown_Area_Type
  10
374378.280
  20
4729337.298
  0
VERTEX
  8
Unknown_Area_Type
  10
374380.500
  20
4729337.500
  0
VERTEX
  8
Unknown_Area_Type
  10
375270.000
  20
4729236.531
  0
VERTEX
  8
Unknown_Area_Type
  10
375447.508
  20
4729216.381
  0
VERTEX
  8
Unknown_Area_Type
  10
375447.502
  20
4729216.055
  0
VERTEX
  8
Unknown_Area_Type
  10
375411.824
  20
4727234.367
  0
SEQEND
  8
Unknown_Area_Type
  0
POLYLINE
  8
Unknown_Area_Type
  70
1
  66
1
  0
VERTEX
  8
Unknown_Area_Type
  10
375447.508
  20
4729216.381
  0
VERTEX
  8
Unknown_Area_Type
  10
375447.502
  20
4729216.055
  0
VERTEX
  8
Unknown_Area_Type
  10
375270.000
  20
4729236.183
  0
VERTEX
  8
Unknown_Area_Type
  10
374378.280
  20
4729337.298
  0
VERTEX
  8
Unknown_Area_Type
  10
374376.500
  20
4729337.500
  0
VERTEX
  8
Unknown_Area_Type
  10
374377.964
  20
4729440.000
  0
VERTEX
  8
Unknown_Area_Type
  10
374382.821
  20
4729780.000
  0
VERTEX
  8
Unknown_Area_Type
  10
374407.000
  20
4731472.500
  0
VERTEX
  8
Unknown_Area_Type
  10
375350.000
  20
4731857.785
  0
VERTEX
  8
Unknown_Area_Type
  10
375496.157
  20
4731917.501
  0
VERTEX
  8
Unknown_Area_Type
  10
375496.152
  20
4731917.226
  0
VERTEX
  8
Unknown_Area_Type
  10
375495.144
  20
4731861.276
  0
VERTEX
  8
Unknown_Area_Type
  10
375453.476
  20
4729547.818
  0
VERTEX
  8
Unknown_Area_Type
  10
375447.508
  20
4729216.381
  0
SEQEND
  8
Unknown_Area_Type
  0
POLYLINE
  8
Unknown_Area_Type
  70
1
  66
1
  0
VERTEX
  8
Unknown_Area_Type
  10
372746.177
  20
4742144.504
  0
VERTEX
  8
Unknown_Area_Type
  10
372746.000
  20
4742144.500
  0
VERTEX
  8
Unknown_Area_Type
  10
372751.209
  20
4743320.000
  0
VERTEX
  8
Unknown_Area_Type
  10
372751.929
  20
4743482.698
  0
VERTEX
  8
Unknown_Area_Type
  10
375034.902
  20
4743440.924
  0
VERTEX
  8
Unknown_Area_Type
  10
375034.475
  20
4743320.000
  0
VERTEX
  8
Unknown_Area_Type
  10
375030.501
  20
4742194.000
  0
VERTEX
  8
Unknown_Area_Type
  10
372746.177
  20
4742144.504
  0
SEQEND
  8
Unknown_Area_Type
  0
POLYLINE
  8
Unknown_Area_Type
  70
1
  66
1
  0
VERTEX
  8
Unknown_Area_Type
  10
372745.754
  20
4742144.345
  0
VERTEX
  8
Unknown_Area_Type
  10
372658.500
  20
4742089.500
  0
VERTEX
  8
Unknown_Area_Type
  10
372657.646
  20
4742089.591
  0
VERTEX
  8
Unknown_Area_Type
  10
371579.172
  20
4742205.124
  0
VERTEX
  8
Unknown_Area_Type
  10
370511.500
  20
4742319.500
  0
VERTEX
  8
Unknown_Area_Type
  10
370505.533
  20
4742320.246
  0
VERTEX
  8
Unknown_Area_Type
  10
370499.500
  20
4742321.000
  0
VERTEX
  8
Unknown_Area_Type
  10
370499.000
  20
4742323.500
  0
VERTEX
  8
Unknown_Area_Type
  10
370477.733
  20
4743320.000
  0
VERTEX
  8
Unknown_Area_Type
  10
370473.352
  20
4743525.294
  0
VERTEX
  8
Unknown_Area_Type
  10
370473.693
  20
4743525.287
  0
VERTEX
  8
Unknown_Area_Type
  10
372298.294
  20
4743490.998
  0
VERTEX
  8
Unknown_Area_Type
  10
372751.929
  20
4743482.698
  0
VERTEX
  8
Unknown_Area_Type
  10
372751.209
  20
4743320.000
  0
VERTEX
  8
Unknown_Area_Type
  10
372746.000
  20
4742144.500
  0
VERTEX
  8
Unknown_Area_Type
  10
372745.754
  20
4742144.345
  0
SEQEND
  8
Unknown_Area_Type
  0
POLYLINE
  8
Unknown_Area_Type
  70
1
  66
1
  0
VERTEX
  8
Unknown_Area_Type
  10
365673.622
  20
4742444.830
  0
VERTEX
  8
Unknown_Area_Type
  10
364686.500
  20
4741999.500
  0
VERTEX
  8
Unknown_Area_Type
  10
364685.941
  20
4741999.699
  0
VERTEX
  8
Unknown_Area_Type
  10
363524.434
  20
4742412.417
  0
VERTEX
  8
Unknown_Area_Type
  10
363210.572
  20
4742523.942
  0
VERTEX
  8
Unknown_Area_Type
  10
363209.000
  20
4742524.500
  0
VERTEX
  8
Unknown_Area_Type
  10
363256.149
  20
4743450.000
  0
VERTEX
  8
Unknown_Area_Type
  10
363267.081
  20
4743664.600
  0
VERTEX
  8
Unknown_Area_Type
  10
365487.395
  20
4743620.677
  0
VERTEX
  8
Unknown_Area_Type
  10
365673.839
  20
4743617.081
  0
VERTEX
  8
Unknown_Area_Type
  10
365673.862
  20
4743450.000
  0
VERTEX
  8
Unknown_Area_Type
  10
365674.000
  20
4742445.000
  0
VERTEX
  8
Unknown_Area_Type
  10
365673.622
  20
4742444.830
  0
SEQEND
  8
Unknown_Area_Type
  0
POLYLINE
  8
Unknown_Area_Type
  70
1
  66
1
  0
VERTEX
  8
Unknown_Area_Type
  10
362051.217
  20
4742083.619
  0
VERTEX
  8
Unknown_Area_Type
  10
362050.500
  20
4742083.500
  0
VERTEX
  8
Unknown_Area_Type
  10
362048.000
  20
4742084.500
  0
VERTEX
  8
Unknown_Area_Type
  10
361880.000
  20
4742155.464
  0
VERTEX
  8
Unknown_Area_Type
  10
360820.891
  20
4742602.835
  0
VERTEX
  8
Unknown_Area_Type
  10
360820.500
  20
4742603.000
  0
VERTEX
  8
Unknown_Area_Type
  10
360885.209
  20
4743580.000
  0
VERTEX
  8
Unknown_Area_Type
  10
360893.961
  20
4743712.133
  0
VERTEX
  8
Unknown_Area_Type
  10
360894.302
  20
4743712.126
  0
VERTEX
  8
Unknown_Area_Type
  10
362081.938
  20
4743688.045
  0
VERTEX
  8
Unknown_Area_Type
  10
363267.081
  20
4743664.600
  0
VERTEX
  8
Unknown_Area_Type
  10
363256.149
  20
4743450.000
  0
VERTEX
  8
Unknown_Area_Type
  10
363209.000
  20
4742524.500
  0
VERTEX
  8
Unknown_Area_Type
  10
363208.516
  20
4742524.315
  0
VERTEX
  8
Unknown_Area_Type
  10
362190.000
  20
4742136.037
  0
VERTEX
  8
Unknown_Area_Type
  10
362053.500
  20
4742084.000
  0
VERTEX
  8
Unknown_Area_Type
  10
362052.276
  20
4742083.796
  0
VERTEX
  8
Unknown_Area_Type
  10
362051.217
  20
4742083.619
  0
SEQEND
  8
Unknown_Area_Type
  0
POLYLINE
  8
Unknown_Area_Type
  70
1
  66
1
  0
VERTEX
  8
Unknown_Area_Type
  10
370491.000
  20
4742316.000
  0
VERTEX
  8
Unknown_Area_Type
  10
369989.000
  20
4742032.000
  0
VERTEX
  8
Unknown_Area_Type
  10
369988.630
  20
4742032.074
  0
VERTEX
  8
Unknown_Area_Type
  10
369000.000
  20
4742229.905
  0
VERTEX
  8
Unknown_Area_Type
  10
368700.000
  20
4742289.937
  0
VERTEX
  8
Unknown_Area_Type
  10
368112.500
  20
4742407.500
  0
VERTEX
  8
Unknown_Area_Type
  10
368082.770
  20
4743450.000
  0
VERTEX
  8
Unknown_Area_Type
  10
368079.329
  20
4743570.686
  0
VERTEX
  8
Unknown_Area_Type
  10
368079.364
  20
4743570.685
  0
VERTEX
  8
Unknown_Area_Type
  10
368892.847
  20
4743554.995
  0
VERTEX
  8
Unknown_Area_Type
  10
370473.352
  20
4743525.294
  0
VERTEX
  8
Unknown_Area_Type
  10
370473.693
  20
4743525.287
  0
VERTEX
  8
Unknown_Area_Type
  10
370478.101
  20
4743320.000
  0
VERTEX
  8
Unknown_Area_Type
  10
370499.500
  20
4742323.500
  0
VERTEX
  8
Unknown_Area_Type
  10
370499.500
  20
4742321.000
  0
VERTEX
  8
Unknown_Area_Type
  10
370499.346
  20
4742320.909
  0
VERTEX
  8
Unknown_Area_Type
  10
370491.000
  20
4742316.000
  0
SEQEND
  8
Unknown_Area_Type
  0
POLYLINE
  8
Unknown_Area_Type
  70
1
  66
1
  0
VERTEX
  8
Unknown_Area_Type
  10
359448.500
  20
4742230.500
  0
VERTEX
  8
Unknown_Area_Type
  10
359447.500
  20
4742230.500
  0
VERTEX
  8
Unknown_Area_Type
  10
358586.000
  20
4742651.500
  0
VERTEX
  8
Unknown_Area_Type
  10
358586.013
  20
4742651.750
  0
VERTEX
  8
Unknown_Area_Type
  10
358596.962
  20
4742867.678
  0
VERTEX
  8
Unknown_Area_Type
  10
358633.083
  20
4743580.000
  0
VERTEX
  8
Unknown_Area_Type
  10
358642.099
  20
4743757.811
  0
VERTEX
  8
Unknown_Area_Type
  10
358642.204
  20
4743757.809
  0
VERTEX
  8
Unknown_Area_Type
  10
358676.475
  20
4743757.097
  0
VERTEX
  8
Unknown_Area_Type
  10
360893.961
  20
4743712.133
  0
VERTEX
  8
Unknown_Area_Type
  10
360894.302
  20
4743712.126
  0
VERTEX
  8
Unknown_Area_Type
  10
360885.546
  20
4743580.000
  0
VERTEX
  8
Unknown_Area_Type
  10
360821.000
  20
4742606.000
  0
VERTEX
  8
Unknown_Area_Type
  10
360820.500
  20
4742603.000
  0
VERTEX
  8
Unknown_Area_Type
  10
360817.500
  20
4742602.000
  0
VERTEX
  8
Unknown_Area_Type
  10
360658.610
  20
4742558.835
  0
VERTEX
  8
Unknown_Area_Type
  10
359450.000
  20
4742230.500
  0
VERTEX
  8
Unknown_Area_Type
  10
359448.500
  20
4742230.500
  0
SEQEND
  8
Unknown_Area_Type
  0
POLYLINE
  8
Unknown_Area_Type
  70
1
  66
1
  0
VERTEX
  8
Unknown_Area_Type
  10
356887.500
  20
4742380.000
  0
VERTEX
  8
Unknown_Area_Type
  10
356886.500
  20
4742380.000
  0
VERTEX
  8
Unknown_Area_Type
  10
356883.500
  20
4742381.500
  0
VERTEX
  8
Unknown_Area_Type
  10
356391.060
  20
4742657.625
  0
VERTEX
  8
Unknown_Area_Type
  10
356389.500
  20
4742658.500
  0
VERTEX
  8
Unknown_Area_Type
  10
356448.834
  20
4743580.000
  0
VERTEX
  8
Unknown_Area_Type
  10
356463.197
  20
4743803.071
  0
VERTEX
  8
Unknown_Area_Type
  10
358642.099
  20
4743757.811
  0
VERTEX
  8
Unknown_Area_Type
  10
358642.204
  20
4743757.809
  0
VERTEX
  8
Unknown_Area_Type
  10
358633.167
  20
4743580.000
  0
VERTEX
  8
Unknown_Area_Type
  10
358596.962
  20
4742867.678
  0
VERTEX
  8
Unknown_Area_Type
  10
358586.000
  20
4742652.000
  0
VERTEX
  8
Unknown_Area_Type
  10
358585.624
  20
4742651.940
  0
VERTEX
  8
Unknown_Area_Type
  10
356890.500
  20
4742380.000
  0
VERTEX
  8
Unknown_Area_Type
  10
356887.500
  20
4742380.000
  0
SEQEND
  8
Unknown_Area_Type
  0
POLYLINE
  8
Unknown_Area_Type
  70
1
  66
1
  0
VERTEX
  8
Unknown_Area_Type
  10
368112.361
  20
4742407.428
  0
VERTEX
  8
Unknown_Area_Type
  10
367318.000
  20
4741994.500
  0
VERTEX
  8
Unknown_Area_Type
  10
367317.673
  20
4741994.590
  0
VERTEX
  8
Unknown_Area_Type
  10
366242.077
  20
4742289.332
  0
VERTEX
  8
Unknown_Area_Type
  10
365883.833
  20
4742387.500
  0
VERTEX
  8
Unknown_Area_Type
  10
365674.000
  20
4742445.000
  0
VERTEX
  8
Unknown_Area_Type
  10
365673.862
  20
4743450.000
  0
VERTEX
  8
Unknown_Area_Type
  10
365673.839
  20
4743617.081
  0
VERTEX
  8
Unknown_Area_Type
  10
368079.329
  20
4743570.686
  0
VERTEX
  8
Unknown_Area_Type
  10
368079.364
  20
4743570.685
  0
VERTEX
  8
Unknown_Area_Type
  10
368082.802
  20
4743450.000
  0
VERTEX
  8
Unknown_Area_Type
  10
368112.500
  20
4742407.500
  0
VERTEX
  8
Unknown_Area_Type
  10
368112.361
  20
4742407.428
  0
SEQEND
  8
Unknown_Area_Type
  0
POLYLINE
  8
Unknown_Area_Type
  70
1
  66
1
  0
VERTEX
  8
Unknown_Area_Type
  10
352195.938
  20
4742693.967
  0
VERTEX
  8
Unknown_Area_Type
  10
351878.000
  20
4742524.000
  0
VERTEX
  8
Unknown_Area_Type
  10
351877.240
  20
4742524.128
  0
VERTEX
  8
Unknown_Area_Type
  10
349890.000
  20
4742859.500
  0
VERTEX
  8
Unknown_Area_Type
  10
349913.044
  20
4743720.000
  0
VERTEX
  8
Unknown_Area_Type
  10
349919.005
  20
4743942.619
  0
VERTEX
  8
Unknown_Area_Type
  10
351865.531
  20
4743900.259
  0
VERTEX
  8
Unknown_Area_Type
  10
352215.883
  20
4743892.808
  0
VERTEX
  8
Unknown_Area_Type
  10
352213.017
  20
4743720.000
  0
VERTEX
  8
Unknown_Area_Type
  10
352196.000
  20
4742694.000
  0
VERTEX
  8
Unknown_Area_Type
  10
352195.938
  20
4742693.967
  0
SEQEND
  8
Unknown_Area_Type
  0
POLYLINE
  8
Unknown_Area_Type
  70
1
  66
1
  0
VERTEX
  8
Unknown_Area_Type
  10
375520.000
  20
4742052.672
  0
VERTEX
  8
Unknown_Area_Type
  10
375289.000
  20
4742034.500
  0
VERTEX
  8
Unknown_Area_Type
  10
375283.701
  20
4742035.315
  0
VERTEX
  8
Unknown_Area_Type
  10
375282.500
  20
4742035.500
  0
VERTEX
  8
Unknown_Area_Type
  10
375030.500
  20
4742193.500
  0
VERTEX
  8
Unknown_Area_Type
  10
375030.501
  20
4742194.000
  0
VERTEX
  8
Unknown_Area_Type
  10
375034.475
  20
4743320.000
  0
VERTEX
  8
Unknown_Area_Type
  10
375034.902
  20
4743440.924
  0
VERTEX
  8
Unknown_Area_Type
  10
375703.736
  20
4743428.686
  0
VERTEX
  8
Unknown_Area_Type
  10
375679.129
  20
4742065.190
  0
VERTEX
  8
Unknown_Area_Type
  10
375520.000
  20
4742052.672
  0
SEQEND
  8
Unknown_Area_Type
  0
POLYLINE
  8
Unknown_Area_Type
  70
1
  66
1
  0
VERTEX
  8
Unknown_Area_Type
  10
349889.747
  20
4742859.374
  0
VERTEX
  8
Unknown_Area_Type
  10
348419.378
  20
4742126.068
  0
VERTEX
  8
Unknown_Area_Type
  10
348419.383
  20
4742126.280
  0
VERTEX
  8
Unknown_Area_Type
  10
348460.050
  20
4743974.368
  0
VERTEX
  8
Unknown_Area_Type
  10
349919.005
  20
4743942.619
  0
VERTEX
  8
Unknown_Area_Type
  10
349913.044
  20
4743720.000
  0
VERTEX
  8
Unknown_Area_Type
  10
349890.000
  20
4742859.500
  0
VERTEX
  8
Unknown_Area_Type
  10
349889.747
  20
4742859.374
  0
SEQEND
  8
Unknown_Area_Type
  0
POLYLINE
  8
Unknown_Area_Type
  70
1
  66
1
  0
VERTEX
  8
Unknown_Area_Type
  10
354280.500
  20
4742620.518
  0
VERTEX
  8
Unknown_Area_Type
  10
354280.500
  20
4742620.500
  0
VERTEX
  8
Unknown_Area_Type
  10
353585.667
  20
4742645.000
  0
VERTEX
  8
Unknown_Area_Type
  10
352196.000
  20
4742694.000
  0
VERTEX
  8
Unknown_Area_Type
  10
352213.017
  20
4743720.000
  0
VERTEX
  8
Unknown_Area_Type
  10
352215.883
  20
4743892.808
  0
VERTEX
  8
Unknown_Area_Type
  10
354328.930
  20
4743847.870
  0
VERTEX
  8
Unknown_Area_Type
  10
354329.171
  20
4743847.865
  0
VERTEX
  8
Unknown_Area_Type
  10
354324.101
  20
4743720.000
  0
VERTEX
  8
Unknown_Area_Type
  10
354280.500
  20
4742620.518
  0
SEQEND
  8
Unknown_Area_Type
  0
POLYLINE
  8
Unknown_Area_Type
  70
1
  66
1
  0
VERTEX
  8
Unknown_Area_Type
  10
354401.459
  20
4742543.526
  0
VERTEX
  8
Unknown_Area_Type
  10
354401.000
  20
4742543.500
  0
VERTEX
  8
Unknown_Area_Type
  10
354281.500
  20
4742619.500
  0
VERTEX
  8
Unknown_Area_Type
  10
354280.500
  20
4742620.500
  0
VERTEX
  8
Unknown_Area_Type
  10
354280.500
  20
4742620.518
  0
VERTEX
  8
Unknown_Area_Type
  10
354280.500
  20
4742629.500
  0
VERTEX
  8
Unknown_Area_Type
  10
354323.847
  20
4743720.000
  0
VERTEX
  8
Unknown_Area_Type
  10
354328.930
  20
4743847.870
  0
VERTEX
  8
Unknown_Area_Type
  10
354329.171
  20
4743847.865
  0
VERTEX
  8
Unknown_Area_Type
  10
355271.006
  20
4743827.835
  0
VERTEX
  8
Unknown_Area_Type
  10
356463.197
  20
4743803.071
  0
VERTEX
  8
Unknown_Area_Type
  10
356448.834
  20
4743580.000
  0
VERTEX
  8
Unknown_Area_Type
  10
356389.500
  20
4742658.500
  0
VERTEX
  8
Unknown_Area_Type
  10
356386.013
  20
4742658.298
  0
VERTEX
  8
Unknown_Area_Type
  10
355380.000
  20
4742600.118
  0
VERTEX
  8
Unknown_Area_Type
  10
355070.000
  20
4742582.190
  0
VERTEX
  8
Unknown_Area_Type
  10
354585.866
  20
4742554.191
  0
VERTEX
  8
Unknown_Area_Type
  10
354401.459
  20
4742543.526
  0
SEQEND
  8
Unknown_Area_Type
  0
POLYLINE
  8
Unknown_Area_Type
  70
1
  66
1
  0
VERTEX
  8
Unknown_Area_Type
  10
366845.450
  20
4725290.000
  0
VERTEX
  8
Unknown_Area_Type
  10
366841.000
  20
4725131.000
  0
VERTEX
  8
Unknown_Area_Type
  10
365883.818
  20
4725162.500
  0
VERTEX
  8
Unknown_Area_Type
  10
365128.969
  20
4725187.341
  0
VERTEX
  8
Unknown_Area_Type
  10
364091.000
  20
4725221.500
  0
VERTEX
  8
Unknown_Area_Type
  10
364091.589
  20
4725290.000
  0
VERTEX
  8
Unknown_Area_Type
  10
364123.000
  20
4728941.500
  0
VERTEX
  8
Unknown_Area_Type
  10
365615.000
  20
4729442.500
  0
VERTEX
  8
Unknown_Area_Type
  10
365615.452
  20
4729442.316
  0
VERTEX
  8
Unknown_Area_Type
  10
365883.000
  20
4729333.500
  0
VERTEX
  8
Unknown_Area_Type
  10
365884.000
  20
4729333.000
  0
VERTEX
  8
Unknown_Area_Type
  10
366503.519
  20
4729080.819
  0
VERTEX
  8
Unknown_Area_Type
  10
366946.281
  20
4728900.589
  0
VERTEX
  8
Unknown_Area_Type
  10
366946.500
  20
4728900.500
  0
VERTEX
  8
Unknown_Area_Type
  10
366845.450
  20
4725290.000
  0
SEQEND
  8
Unknown_Area_Type
  0
POLYLINE
  8
Unknown_Area_Type
  70
1
  66
1
  0
VERTEX
  8
Unknown_Area_Type
  10
369551.212
  20
4725150.000
  0
VERTEX
  8
Unknown_Area_Type
  10
369546.500
  20
4725058.000
  0
VERTEX
  8
Unknown_Area_Type
  10
368730.000
  20
4725074.156
  0
VERTEX
  8
Unknown_Area_Type
  10
368650.000
  20
4725075.739
  0
VERTEX
  8
Unknown_Area_Type
  10
368440.000
  20
4725079.895
  0
VERTEX
  8
Unknown_Area_Type
  10
368350.000
  20
4725081.675
  0
VERTEX
  8
Unknown_Area_Type
  10
367929.293
  20
4725090.000
  0
VERTEX
  8
Unknown_Area_Type
  10
366868.000
  20
4725111.000
  0
VERTEX
  8
Unknown_Area_Type
  10
366867.981
  20
4725111.013
  0
VERTEX
  8
Unknown_Area_Type
  10
366841.000
  20
4725130.500
  0
VERTEX
  8
Unknown_Area_Type
  10
366841.014
  20
4725130.990
  0
VERTEX
  8
Unknown_Area_Type
  10
366845.463
  20
4725290.000
  0
VERTEX
  8
Unknown_Area_Type
  10
366946.500
  20
4728900.500
  0
VERTEX
  8
Unknown_Area_Type
  10
367349.773
  20
4729028.257
  0
VERTEX
  8
Unknown_Area_Type
  10
368440.000
  20
4729373.642
  0
VERTEX
  8
Unknown_Area_Type
  10
368559.500
  20
4729411.500
  0
VERTEX
  8
Unknown_Area_Type
  10
368561.000
  20
4729412.000
  0
VERTEX
  8
Unknown_Area_Type
  10
368561.035
  20
4729411.984
  0
VERTEX
  8
Unknown_Area_Type
  10
368730.000
  20
4729333.763
  0
VERTEX
  8
Unknown_Area_Type
  10
368992.032
  20
4729212.458
  0
VERTEX
  8
Unknown_Area_Type
  10
369736.007
  20
4728868.043
  0
VERTEX
  8
Unknown_Area_Type
  10
369741.500
  20
4728865.500
  0
VERTEX
  8
Unknown_Area_Type
  10
369551.212
  20
4725150.000
  0
SEQEND
  8
Unknown_Area_Type
  0
POLYLINE
  8
Unknown_Area_Type
  70
1
  66
1
  0
VERTEX
  8
Unknown_Area_Type
  10
372277.506
  20
4725150.000
  0
VERTEX
  8
Unknown_Area_Type
  10
372313.304
  20
4724976.683
  0
VERTEX
  8
Unknown_Area_Type
  10
372313.117
  20
4724976.686
  0
VERTEX
  8
Unknown_Area_Type
  10
371955.603
  20
4724983.207
  0
VERTEX
  8
Unknown_Area_Type
  10
369590.710
  20
4725027.510
  0
VERTEX
  8
Unknown_Area_Type
  10
369590.029
  20
4725027.523
  0
VERTEX
  8
Unknown_Area_Type
  10
369546.500
  20
4725057.500
  0
VERTEX
  8
Unknown_Area_Type
  10
369546.525
  20
4725057.983
  0
VERTEX
  8
Unknown_Area_Type
  10
369551.237
  20
4725150.000
  0
VERTEX
  8
Unknown_Area_Type
  10
369741.500
  20
4728865.500
  0
VERTEX
  8
Unknown_Area_Type
  10
369742.434
  20
4728865.706
  0
VERTEX
  8
Unknown_Area_Type
  10
371430.500
  20
4729237.500
  0
VERTEX
  8
Unknown_Area_Type
  10
371433.000
  20
4729237.500
  0
VERTEX
  8
Unknown_Area_Type
  10
371433.500
  20
4729237.500
  0
VERTEX
  8
Unknown_Area_Type
  10
371434.000
  20
4729237.500
  0
VERTEX
  8
Unknown_Area_Type
  10
372028.000
  20
4726360.000
  0
VERTEX
  8
Unknown_Area_Type
  10
372028.000
  20
4726358.000
  0
VERTEX
  8
Unknown_Area_Type
  10
372277.506
  20
4725150.000
  0
SEQEND
  8
Unknown_Area_Type
  0
POLYLINE
  8
Unknown_Area_Type
  70
1
  66
1
  0
VERTEX
  8
Unknown_Area_Type
  10
375350.000
  20
4731857.549
  0
VERTEX
  8
Unknown_Area_Type
  10
374407.000
  20
4731472.500
  0
VERTEX
  8
Unknown_Area_Type
  10
374406.993
  20
4731472.508
  0
VERTEX
  8
Unknown_Area_Type
  10
374122.618
  20
4731810.650
  0
VERTEX
  8
Unknown_Area_Type
  10
374075.899
  20
4731866.202
  0
VERTEX
  8
Unknown_Area_Type
  10
373730.363
  20
4732277.069
  0
VERTEX
  8
Unknown_Area_Type
  10
373730.000
  20
4732277.500
  0
VERTEX
  8
Unknown_Area_Type
  10
373751.000
  20
4733815.500
  0
VERTEX
  8
Unknown_Area_Type
  10
373751.115
  20
4733815.594
  0
VERTEX
  8
Unknown_Area_Type
  10
374059.994
  20
4734070.000
  0
VERTEX
  8
Unknown_Area_Type
  10
374284.000
  20
4734254.500
  0
VERTEX
  8
Unknown_Area_Type
  10
374284.394
  20
4734254.413
  0
VERTEX
  8
Unknown_Area_Type
  10
375122.118
  20
4734070.000
  0
VERTEX
  8
Unknown_Area_Type
  10
375350.000
  20
4734019.835
  0
VERTEX
  8
Unknown_Area_Type
  10
375430.000
  20
4734002.224
  0
VERTEX
  8
Unknown_Area_Type
  10
375533.311
  20
4733979.482
  0
VERTEX
  8
Unknown_Area_Type
  10
375496.157
  20
4731917.501
  0
VERTEX
  8
Unknown_Area_Type
  10
375496.152
  20
4731917.226
  0
VERTEX
  8
Unknown_Area_Type
  10
375350.000
  20
4731857.549
  0
SEQEND
  8
Unknown_Area_Type
  0
POLYLINE
  8
Unknown_Area_Type
  70
1
  66
1
  0
VERTEX
  8
Unknown_Area_Type
  10
371586.000
  20
4731569.000
  0
VERTEX
  8
Unknown_Area_Type
  10
371552.500
  20
4731558.000
  0
VERTEX
  8
Unknown_Area_Type
  10
371552.334
  20
4731558.111
  0
VERTEX
  8
Unknown_Area_Type
  10
371551.999
  20
4731558.334
  0
VERTEX
  8
Unknown_Area_Type
  10
371551.000
  20
4731559.000
  0
VERTEX
  8
Unknown_Area_Type
  10
370274.500
  20
4733206.500
  0
VERTEX
  8
Unknown_Area_Type
  10
370274.547
  20
4733206.536
  0
VERTEX
  8
Unknown_Area_Type
  10
371396.192
  20
4734070.000
  0
VERTEX
  8
Unknown_Area_Type
  10
371708.156
  20
4734310.156
  0
VERTEX
  8
Unknown_Area_Type
  10
371712.500
  20
4734313.500
  0
VERTEX
  8
Unknown_Area_Type
  10
371713.000
  20
4734314.500
  0
VERTEX
  8
Unknown_Area_Type
  10
372711.579
  20
4734070.000
  0
VERTEX
  8
Unknown_Area_Type
  10
373751.000
  20
4733815.500
  0
VERTEX
  8
Unknown_Area_Type
  10
373730.000
  20
4732277.500
  0
VERTEX
  8
Unknown_Area_Type
  10
373729.699
  20
4732277.400
  0
VERTEX
  8
Unknown_Area_Type
  10
371586.000
  20
4731569.000
  0
SEQEND
  8
Unknown_Area_Type
  0
POLYLINE
  8
Unknown_Area_Type
  70
1
  66
1
  0
VERTEX
  8
Unknown_Area_Type
  10
351249.180
  20
4729515.846
  0
VERTEX
  8
Unknown_Area_Type
  10
351546.500
  20
4729448.500
  0
VERTEX
  8
Unknown_Area_Type
  10
351547.194
  20
4729448.500
  0
VERTEX
  8
Unknown_Area_Type
  10
351548.000
  20
4729448.500
  0
VERTEX
  8
Unknown_Area_Type
  10
352275.310
  20
4729283.405
  0
VERTEX
  8
Unknown_Area_Type
  10
353178.000
  20
4729078.500
  0
VERTEX
  8
Unknown_Area_Type
  10
353093.848
  20
4725570.000
  0
VERTEX
  8
Unknown_Area_Type
  10
353093.500
  20
4725555.500
  0
VERTEX
  8
Unknown_Area_Type
  10
353093.345
  20
4725555.403
  0
VERTEX
  8
Unknown_Area_Type
  10
352787.969
  20
4725364.294
  0
VERTEX
  8
Unknown_Area_Type
  10
352787.492
  20
4725364.304
  0
VERTEX
  8
Unknown_Area_Type
  10
352784.316
  20
4725364.371
  0
VERTEX
  8
Unknown_Area_Type
  10
351020.598
  20
4725570.000
  0
VERTEX
  8
Unknown_Area_Type
  10
350343.000
  20
4725649.000
  0
VERTEX
  8
Unknown_Area_Type
  10
350437.500
  20
4729125.000
  0
VERTEX
  8
Unknown_Area_Type
  10
350437.652
  20
4729125.073
  0
VERTEX
  8
Unknown_Area_Type
  10
351248.500
  20
4729516.000
  0
VERTEX
  8
Unknown_Area_Type
  10
351249.180
  20
4729515.846
  0
SEQEND
  8
Unknown_Area_Type
  0
POLYLINE
  8
Unknown_Area_Type
  70
1
  66
1
  0
VERTEX
  8
Unknown_Area_Type
  10
357394.330
  20
4729338.405
  0
VERTEX
  8
Unknown_Area_Type
  10
357691.000
  20
4729255.500
  0
VERTEX
  8
Unknown_Area_Type
  10
357692.000
  20
4729255.500
  0
VERTEX
  8
Unknown_Area_Type
  10
358600.500
  20
4729002.500
  0
VERTEX
  8
Unknown_Area_Type
  10
358615.464
  20
4725420.000
  0
VERTEX
  8
Unknown_Area_Type
  10
358615.500
  20
4725411.500
  0
VERTEX
  8
Unknown_Area_Type
  10
358615.447
  20
4725411.467
  0
VERTEX
  8
Unknown_Area_Type
  10
358361.000
  20
4725252.000
  0
VERTEX
  8
Unknown_Area_Type
  10
358360.135
  20
4725252.085
  0
VERTEX
  8
Unknown_Area_Type
  10
357123.250
  20
4725373.250
  0
VERTEX
  8
Unknown_Area_Type
  10
356646.014
  20
4725420.000
  0
VERTEX
  8
Unknown_Area_Type
  10
355886.273
  20
4725494.424
  0
VERTEX
  8
Unknown_Area_Type
  10
355885.499
  20
4725494.500
  0
VERTEX
  8
Unknown_Area_Type
  10
355879.000
  20
4729016.000
  0
VERTEX
  8
Unknown_Area_Type
  10
355879.186
  20
4729016.080
  0
VERTEX
  8
Unknown_Area_Type
  10
356924.000
  20
4729469.000
  0
VERTEX
  8
Unknown_Area_Type
  10
356924.628
  20
4729468.839
  0
VERTEX
  8
Unknown_Area_Type
  10
356936.941
  20
4729465.677
  0
VERTEX
  8
Unknown_Area_Type
  10
356961.000
  20
4729459.500
  0
VERTEX
  8
Unknown_Area_Type
  10
357394.330
  20
4729338.405
  0
SEQEND
  8
Unknown_Area_Type
  0
POLYLINE
  8
Unknown_Area_Type
  70
1
  66
1
  0
VERTEX
  8
Unknown_Area_Type
  10
355769.022
  20
4725420.000
  0
VERTEX
  8
Unknown_Area_Type
  10
355588.436
  20
4725305.272
  0
VERTEX
  8
Unknown_Area_Type
  10
355587.679
  20
4725305.288
  0
VERTEX
  8
Unknown_Area_Type
  10
355202.510
  20
4725313.263
  0
VERTEX
  8
Unknown_Area_Type
  10
355131.432
  20
4725321.427
  0
VERTEX
  8
Unknown_Area_Type
  10
355080.000
  20
4725327.335
  0
VERTEX
  8
Unknown_Area_Type
  10
354990.000
  20
4725337.672
  0
VERTEX
  8
Unknown_Area_Type
  10
354780.000
  20
4725361.792
  0
VERTEX
  8
Unknown_Area_Type
  10
354680.000
  20
4725373.278
  0
VERTEX
  8
Unknown_Area_Type
  10
353594.118
  20
4725498.000
  0
VERTEX
  8
Unknown_Area_Type
  10
353093.500
  20
4725555.500
  0
VERTEX
  8
Unknown_Area_Type
  10
353093.848
  20
4725570.000
  0
VERTEX
  8
Unknown_Area_Type
  10
353178.000
  20
4729078.500
  0
VERTEX
  8
Unknown_Area_Type
  10
353178.331
  20
4729078.652
  0
VERTEX
  8
Unknown_Area_Type
  10
353593.500
  20
4729269.000
  0
VERTEX
  8
Unknown_Area_Type
  10
353595.000
  20
4729269.500
  0
VERTEX
  8
Unknown_Area_Type
  10
354058.500
  20
4729482.000
  0
VERTEX
  8
Unknown_Area_Type
  10
354060.000
  20
4729482.000
  0
VERTEX
  8
Unknown_Area_Type
  10
354062.000
  20
4729482.000
  0
VERTEX
  8
Unknown_Area_Type
  10
354780.000
  20
4729297.857
  0
VERTEX
  8
Unknown_Area_Type
  10
355080.000
  20
4729220.917
  0
VERTEX
  8
Unknown_Area_Type
  10
355515.605
  20
4729109.199
  0
VERTEX
  8
Unknown_Area_Type
  10
355879.000
  20
4729016.000
  0
VERTEX
  8
Unknown_Area_Type
  10
355885.499
  20
4725494.500
  0
VERTEX
  8
Unknown_Area_Type
  10
355885.500
  20
4725494.167
  0
VERTEX
  8
Unknown_Area_Type
  10
355885.500
  20
4725494.000
  0
VERTEX
  8
Unknown_Area_Type
  10
355769.022
  20
4725420.000
  0
SEQEND
  8
Unknown_Area_Type
  0
POLYLINE
  8
Unknown_Area_Type
  70
1
  66
1
  0
VERTEX
  8
Unknown_Area_Type
  10
361349.455
  20
4725330.472
  0
VERTEX
  8
Unknown_Area_Type
  10
361174.500
  20
4725221.000
  0
VERTEX
  8
Unknown_Area_Type
  10
361174.418
  20
4725221.006
  0
VERTEX
  8
Unknown_Area_Type
  10
359737.161
  20
4725328.000
  0
VERTEX
  8
Unknown_Area_Type
  10
358615.500
  20
4725411.500
  0
VERTEX
  8
Unknown_Area_Type
  10
358615.464
  20
4725420.000
  0
VERTEX
  8
Unknown_Area_Type
  10
358600.500
  20
4729002.500
  0
VERTEX
  8
Unknown_Area_Type
  10
358600.905
  20
4729002.666
  0
VERTEX
  8
Unknown_Area_Type
  10
359759.500
  20
4729476.000
  0
VERTEX
  8
Unknown_Area_Type
  10
359761.000
  20
4729476.500
  0
VERTEX
  8
Unknown_Area_Type
  10
359761.281
  20
4729476.410
  0
VERTEX
  8
Unknown_Area_Type
  10
359765.098
  20
4729475.192
  0
VERTEX
  8
Unknown_Area_Type
  10
361338.000
  20
4728973.000
  0
VERTEX
  8
Unknown_Area_Type
  10
361349.217
  20
4725420.000
  0
VERTEX
  8
Unknown_Area_Type
  10
361349.500
  20
4725330.500
  0
VERTEX
  8
Unknown_Area_Type
  10
361349.455
  20
4725330.472
  0
SEQEND
  8
Unknown_Area_Type
  0
POLYLINE
  8
Unknown_Area_Type
  70
1
  66
1
  0
VERTEX
  8
Unknown_Area_Type
  10
364091.000
  20
4725221.500
  0
VERTEX
  8
Unknown_Area_Type
  10
364005.500
  20
4725167.500
  0
VERTEX
  8
Unknown_Area_Type
  10
364005.478
  20
4725167.501
  0
VERTEX
  8
Unknown_Area_Type
  10
362009.427
  20
4725290.000
  0
VERTEX
  8
Unknown_Area_Type
  10
361910.000
  20
4725296.102
  0
VERTEX
  8
Unknown_Area_Type
  10
361820.000
  20
4725301.625
  0
VERTEX
  8
Unknown_Area_Type
  10
361610.000
  20
4725314.513
  0
VERTEX
  8
Unknown_Area_Type
  10
361349.500
  20
4725330.500
  0
VERTEX
  8
Unknown_Area_Type
  10
361349.217
  20
4725420.000
  0
VERTEX
  8
Unknown_Area_Type
  10
361338.000
  20
4728973.000
  0
VERTEX
  8
Unknown_Area_Type
  10
361610.000
  20
4729078.946
  0
VERTEX
  8
Unknown_Area_Type
  10
361786.000
  20
4729147.500
  0
VERTEX
  8
Unknown_Area_Type
  10
361787.500
  20
4729148.000
  0
VERTEX
  8
Unknown_Area_Type
  10
361910.000
  20
4729195.647
  0
VERTEX
  8
Unknown_Area_Type
  10
362399.170
  20
4729385.910
  0
VERTEX
  8
Unknown_Area_Type
  10
362674.253
  20
4729492.904
  0
VERTEX
  8
Unknown_Area_Type
  10
362674.500
  20
4729493.000
  0
VERTEX
  8
Unknown_Area_Type
  10
364123.000
  20
4728941.500
  0
VERTEX
  8
Unknown_Area_Type
  10
364091.589
  20
4725290.000
  0
VERTEX
  8
Unknown_Area_Type
  10
364091.000
  20
4725221.500
  0
SEQEND
  8
Unknown_Area_Type
  0
POLYLINE
  8
Unknown_Area_Type
  70
1
  66
1
  0
VERTEX
  8
Unknown_Area_Type
  10
349988.587
  20
4725426.055
  0
VERTEX
  8
Unknown_Area_Type
  10
349988.500
  20
4725426.000
  0
VERTEX
  8
Unknown_Area_Type
  10
349496.635
  20
4725491.000
  0
VERTEX
  8
Unknown_Area_Type
  10
348898.830
  20
4725570.000
  0
VERTEX
  8
Unknown_Area_Type
  10
348058.057
  20
4725681.108
  0
VERTEX
  8
Unknown_Area_Type
  10
348104.112
  20
4727779.828
  0
VERTEX
  8
Unknown_Area_Type
  10
348144.260
  20
4729608.682
  0
VERTEX
  8
Unknown_Area_Type
  10
349498.000
  20
4729323.000
  0
VERTEX
  8
Unknown_Area_Type
  10
349500.000
  20
4729322.500
  0
VERTEX
  8
Unknown_Area_Type
  10
350437.500
  20
4729125.000
  0
VERTEX
  8
Unknown_Area_Type
  10
350342.514
  20
4725648.998
  0
VERTEX
  8
Unknown_Area_Type
  10
350342.500
  20
4725648.500
  0
VERTEX
  8
Unknown_Area_Type
  10
350217.606
  20
4725570.000
  0
VERTEX
  8
Unknown_Area_Type
  10
349988.995
  20
4725426.311
  0
VERTEX
  8
Unknown_Area_Type
  10
349988.587
  20
4725426.055
  0
SEQEND
  8
Unknown_Area_Type
  0
ENDSEC
  0
EOF
