  0
SECTION
  2
HEADER
  9
$ACADVER
  1
AC1009
  9
$LUNITS
  70
2
  9
$LIMMIN
  10
375703.736
  20
4742990.844
  9
$LIMMAX
  10
402950.045
  20
4761936.951
  9
$EXTMIN
  10
375703.736
  20
4742990.844
  9
$EXTMAX
  10
402950.045
  20
4761936.951
  999
Created by Global Mapper
  999
Projection: UTM
  999
Datum: ETRS89
  999
Ground Units: meters
  999
ZONE: 30
  0
ENDSEC
  0
SECTION
  2
TABLES
  0
ENDSEC
  0
SECTION
  2
BLOCKS
  0
BLOCK
  8
FeatureAttribs
  70
0
  2
FEATURE
  3
FEATURE
  10
0.00000000
  20
0.00000000
  0
ATTDEF
  8
FeatureAttribs
  70
0
  1
 
  2
NAME
  3
NAME
  10
0.00000000
  20
0.00000000
  40
1.00000000
  0
ENDBLK
  0
ENDSEC
  0
SECTION
  2
ENTITIES
  0
POLYLINE
  8
Unknown_Area_Type
  70
1
  66
1
  0
VERTEX
  8
Unknown_Area_Type
  10
393876.821
  20
4754908.936
  0
VERTEX
  8
Unknown_Area_Type
  10
394555.000
  20
4754773.000
  0
VERTEX
  8
Unknown_Area_Type
  10
394556.000
  20
4754773.000
  0
VERTEX
  8
Unknown_Area_Type
  10
394566.173
  20
4754770.968
  0
VERTEX
  8
Unknown_Area_Type
  10
395274.500
  20
4754629.500
  0
VERTEX
  8
Unknown_Area_Type
  10
395274.583
  20
4754629.083
  0
VERTEX
  8
Unknown_Area_Type
  10
395274.594
  20
4754629.032
  0
VERTEX
  8
Unknown_Area_Type
  10
395275.000
  20
4754627.000
  0
VERTEX
  8
Unknown_Area_Type
  10
395375.994
  20
4752560.000
  0
VERTEX
  8
Unknown_Area_Type
  10
395391.629
  20
4752240.000
  0
VERTEX
  8
Unknown_Area_Type
  10
395500.000
  20
4750022.000
  0
VERTEX
  8
Unknown_Area_Type
  10
395499.887
  20
4750021.959
  0
VERTEX
  8
Unknown_Area_Type
  10
394810.000
  20
4749770.000
  0
VERTEX
  8
Unknown_Area_Type
  10
394809.012
  20
4749770.187
  0
VERTEX
  8
Unknown_Area_Type
  10
393818.500
  20
4749957.500
  0
VERTEX
  8
Unknown_Area_Type
  10
392827.735
  20
4750144.861
  0
VERTEX
  8
Unknown_Area_Type
  10
392827.000
  20
4750145.000
  0
VERTEX
  8
Unknown_Area_Type
  10
392806.386
  20
4752240.000
  0
VERTEX
  8
Unknown_Area_Type
  10
392803.237
  20
4752560.000
  0
VERTEX
  8
Unknown_Area_Type
  10
392784.000
  20
4754515.000
  0
VERTEX
  8
Unknown_Area_Type
  10
392784.198
  20
4754515.072
  0
VERTEX
  8
Unknown_Area_Type
  10
393876.500
  20
4754909.000
  0
VERTEX
  8
Unknown_Area_Type
  10
393876.821
  20
4754908.936
  0
SEQEND
  8
Unknown_Area_Type
  0
POLYLINE
  8
Unknown_Area_Type
  70
1
  66
1
  0
VERTEX
  8
Unknown_Area_Type
  10
389290.000
  20
4750019.377
  0
VERTEX
  8
Unknown_Area_Type
  10
389087.500
  20
4749960.000
  0
VERTEX
  8
Unknown_Area_Type
  10
389087.241
  20
4749960.071
  0
VERTEX
  8
Unknown_Area_Type
  10
389086.981
  20
4749960.142
  0
VERTEX
  8
Unknown_Area_Type
  10
387515.522
  20
4750389.357
  0
VERTEX
  8
Unknown_Area_Type
  10
387515.000
  20
4750389.500
  0
VERTEX
  8
Unknown_Area_Type
  10
387554.205
  20
4752350.000
  0
VERTEX
  8
Unknown_Area_Type
  10
387560.604
  20
4752670.000
  0
VERTEX
  8
Unknown_Area_Type
  10
387597.000
  20
4754490.000
  0
VERTEX
  8
Unknown_Area_Type
  10
387597.561
  20
4754490.144
  0
VERTEX
  8
Unknown_Area_Type
  10
388995.000
  20
4754848.500
  0
VERTEX
  8
Unknown_Area_Type
  10
388997.000
  20
4754849.000
  0
VERTEX
  8
Unknown_Area_Type
  10
388997.830
  20
4754848.828
  0
VERTEX
  8
Unknown_Area_Type
  10
389003.584
  20
4754847.638
  0
VERTEX
  8
Unknown_Area_Type
  10
389011.500
  20
4754846.000
  0
VERTEX
  8
Unknown_Area_Type
  10
389370.000
  20
4754749.945
  0
VERTEX
  8
Unknown_Area_Type
  10
389650.000
  20
4754674.922
  0
VERTEX
  8
Unknown_Area_Type
  10
390239.916
  20
4754516.862
  0
VERTEX
  8
Unknown_Area_Type
  10
390245.000
  20
4754515.500
  0
VERTEX
  8
Unknown_Area_Type
  10
390184.322
  20
4752560.000
  0
VERTEX
  8
Unknown_Area_Type
  10
390174.392
  20
4752240.000
  0
VERTEX
  8
Unknown_Area_Type
  10
390113.000
  20
4750261.500
  0
VERTEX
  8
Unknown_Area_Type
  10
390112.510
  20
4750261.304
  0
VERTEX
  8
Unknown_Area_Type
  10
390111.060
  20
4750260.724
  0
VERTEX
  8
Unknown_Area_Type
  10
390105.500
  20
4750258.500
  0
VERTEX
  8
Unknown_Area_Type
  10
389580.000
  20
4750104.412
  0
VERTEX
  8
Unknown_Area_Type
  10
389290.000
  20
4750019.377
  0
SEQEND
  8
Unknown_Area_Type
  0
POLYLINE
  8
Unknown_Area_Type
  70
1
  66
1
  0
VERTEX
  8
Unknown_Area_Type
  10
386294.000
  20
4750024.500
  0
VERTEX
  8
Unknown_Area_Type
  10
386292.500
  20
4750024.500
  0
VERTEX
  8
Unknown_Area_Type
  10
384817.101
  20
4750494.036
  0
VERTEX
  8
Unknown_Area_Type
  10
384812.500
  20
4750495.500
  0
VERTEX
  8
Unknown_Area_Type
  10
384908.109
  20
4752350.000
  0
VERTEX
  8
Unknown_Area_Type
  10
384924.607
  20
4752670.000
  0
VERTEX
  8
Unknown_Area_Type
  10
385020.500
  20
4754530.000
  0
VERTEX
  8
Unknown_Area_Type
  10
385262.124
  20
4754570.950
  0
VERTEX
  8
Unknown_Area_Type
  10
386711.000
  20
4754816.500
  0
VERTEX
  8
Unknown_Area_Type
  10
386714.000
  20
4754817.000
  0
VERTEX
  8
Unknown_Area_Type
  10
386714.818
  20
4754816.773
  0
VERTEX
  8
Unknown_Area_Type
  10
386719.938
  20
4754815.351
  0
VERTEX
  8
Unknown_Area_Type
  10
386723.000
  20
4754814.500
  0
VERTEX
  8
Unknown_Area_Type
  10
387596.263
  20
4754490.274
  0
VERTEX
  8
Unknown_Area_Type
  10
387597.000
  20
4754490.000
  0
VERTEX
  8
Unknown_Area_Type
  10
387560.604
  20
4752670.000
  0
VERTEX
  8
Unknown_Area_Type
  10
387554.205
  20
4752350.000
  0
VERTEX
  8
Unknown_Area_Type
  10
387515.000
  20
4750389.500
  0
VERTEX
  8
Unknown_Area_Type
  10
387053.205
  20
4750251.284
  0
VERTEX
  8
Unknown_Area_Type
  10
386295.500
  20
4750024.500
  0
VERTEX
  8
Unknown_Area_Type
  10
386294.000
  20
4750024.500
  0
SEQEND
  8
Unknown_Area_Type
  0
POLYLINE
  8
Unknown_Area_Type
  70
1
  66
1
  0
VERTEX
  8
Unknown_Area_Type
  10
392825.412
  20
4750144.439
  0
VERTEX
  8
Unknown_Area_Type
  10
391922.000
  20
4749825.000
  0
VERTEX
  8
Unknown_Area_Type
  10
391921.405
  20
4749825.143
  0
VERTEX
  8
Unknown_Area_Type
  10
391202.500
  20
4749998.500
  0
VERTEX
  8
Unknown_Area_Type
  10
391190.000
  20
4750000.500
  0
VERTEX
  8
Unknown_Area_Type
  10
391188.000
  20
4750002.000
  0
VERTEX
  8
Unknown_Area_Type
  10
391185.000
  20
4750000.500
  0
VERTEX
  8
Unknown_Area_Type
  10
391170.000
  20
4750000.500
  0
VERTEX
  8
Unknown_Area_Type
  10
391164.500
  20
4750006.500
  0
VERTEX
  8
Unknown_Area_Type
  10
391161.000
  20
4750008.500
  0
VERTEX
  8
Unknown_Area_Type
  10
390112.500
  20
4750261.000
  0
VERTEX
  8
Unknown_Area_Type
  10
390112.510
  20
4750261.304
  0
VERTEX
  8
Unknown_Area_Type
  10
390174.133
  20
4752240.000
  0
VERTEX
  8
Unknown_Area_Type
  10
390184.099
  20
4752560.000
  0
VERTEX
  8
Unknown_Area_Type
  10
390245.000
  20
4754515.500
  0
VERTEX
  8
Unknown_Area_Type
  10
390245.602
  20
4754515.686
  0
VERTEX
  8
Unknown_Area_Type
  10
390457.000
  20
4754581.000
  0
VERTEX
  8
Unknown_Area_Type
  10
390459.000
  20
4754581.500
  0
VERTEX
  8
Unknown_Area_Type
  10
391324.500
  20
4754849.000
  0
VERTEX
  8
Unknown_Area_Type
  10
391344.000
  20
4754855.000
  0
VERTEX
  8
Unknown_Area_Type
  10
391346.782
  20
4754855.278
  0
VERTEX
  8
Unknown_Area_Type
  10
391348.412
  20
4754855.441
  0
VERTEX
  8
Unknown_Area_Type
  10
391349.000
  20
4754855.500
  0
VERTEX
  8
Unknown_Area_Type
  10
392514.937
  20
4754578.844
  0
VERTEX
  8
Unknown_Area_Type
  10
392784.000
  20
4754515.000
  0
VERTEX
  8
Unknown_Area_Type
  10
392803.237
  20
4752560.000
  0
VERTEX
  8
Unknown_Area_Type
  10
392806.386
  20
4752240.000
  0
VERTEX
  8
Unknown_Area_Type
  10
392827.000
  20
4750145.000
  0
VERTEX
  8
Unknown_Area_Type
  10
392825.412
  20
4750144.439
  0
SEQEND
  8
Unknown_Area_Type
  0
POLYLINE
  8
Unknown_Area_Type
  70
1
  66
1
  0
VERTEX
  8
Unknown_Area_Type
  10
382112.194
  20
4750656.431
  0
VERTEX
  8
Unknown_Area_Type
  10
380648.500
  20
4750326.000
  0
VERTEX
  8
Unknown_Area_Type
  10
380648.125
  20
4750326.141
  0
VERTEX
  8
Unknown_Area_Type
  10
380079.500
  20
4750540.000
  0
VERTEX
  8
Unknown_Area_Type
  10
379510.847
  20
4750753.869
  0
VERTEX
  8
Unknown_Area_Type
  10
379510.500
  20
4750754.000
  0
VERTEX
  8
Unknown_Area_Type
  10
379541.606
  20
4752460.000
  0
VERTEX
  8
Unknown_Area_Type
  10
379547.623
  20
4752790.000
  0
VERTEX
  8
Unknown_Area_Type
  10
379581.500
  20
4754648.000
  0
VERTEX
  8
Unknown_Area_Type
  10
379721.969
  20
4754674.608
  0
VERTEX
  8
Unknown_Area_Type
  10
380215.000
  20
4754768.000
  0
VERTEX
  8
Unknown_Area_Type
  10
380218.000
  20
4754768.500
  0
VERTEX
  8
Unknown_Area_Type
  10
381528.848
  20
4755015.783
  0
VERTEX
  8
Unknown_Area_Type
  10
381529.637
  20
4755015.931
  0
VERTEX
  8
Unknown_Area_Type
  10
381530.000
  20
4755016.000
  0
VERTEX
  8
Unknown_Area_Type
  10
382406.859
  20
4754578.070
  0
VERTEX
  8
Unknown_Area_Type
  10
382407.000
  20
4754578.000
  0
VERTEX
  8
Unknown_Area_Type
  10
382272.723
  20
4752790.000
  0
VERTEX
  8
Unknown_Area_Type
  10
382267.500
  20
4752720.448
  0
VERTEX
  8
Unknown_Area_Type
  10
382247.941
  20
4752460.000
  0
VERTEX
  8
Unknown_Area_Type
  10
382112.500
  20
4750656.500
  0
VERTEX
  8
Unknown_Area_Type
  10
382112.194
  20
4750656.431
  0
SEQEND
  8
Unknown_Area_Type
  0
POLYLINE
  8
Unknown_Area_Type
  70
1
  66
1
  0
VERTEX
  8
Unknown_Area_Type
  10
383464.194
  20
4750176.609
  0
VERTEX
  8
Unknown_Area_Type
  10
383463.000
  20
4750176.500
  0
VERTEX
  8
Unknown_Area_Type
  10
382780.000
  20
4750419.002
  0
VERTEX
  8
Unknown_Area_Type
  10
382490.000
  20
4750521.967
  0
VERTEX
  8
Unknown_Area_Type
  10
382266.000
  20
4750601.500
  0
VERTEX
  8
Unknown_Area_Type
  10
382112.500
  20
4750656.000
  0
VERTEX
  8
Unknown_Area_Type
  10
382112.523
  20
4750656.313
  0
VERTEX
  8
Unknown_Area_Type
  10
382248.172
  20
4752460.000
  0
VERTEX
  8
Unknown_Area_Type
  10
382267.500
  20
4752717.000
  0
VERTEX
  8
Unknown_Area_Type
  10
382267.500
  20
4752720.448
  0
VERTEX
  8
Unknown_Area_Type
  10
382267.500
  20
4752724.000
  0
VERTEX
  8
Unknown_Area_Type
  10
382272.466
  20
4752790.000
  0
VERTEX
  8
Unknown_Area_Type
  10
382407.000
  20
4754578.000
  0
VERTEX
  8
Unknown_Area_Type
  10
382570.000
  20
4754609.878
  0
VERTEX
  8
Unknown_Area_Type
  10
382751.179
  20
4754645.312
  0
VERTEX
  8
Unknown_Area_Type
  10
382860.000
  20
4754666.594
  0
VERTEX
  8
Unknown_Area_Type
  10
384168.001
  20
4754922.402
  0
VERTEX
  8
Unknown_Area_Type
  10
384168.501
  20
4754922.500
  0
VERTEX
  8
Unknown_Area_Type
  10
385020.366
  20
4754530.062
  0
VERTEX
  8
Unknown_Area_Type
  10
385020.500
  20
4754530.000
  0
VERTEX
  8
Unknown_Area_Type
  10
384924.607
  20
4752670.000
  0
VERTEX
  8
Unknown_Area_Type
  10
384908.109
  20
4752350.000
  0
VERTEX
  8
Unknown_Area_Type
  10
384812.500
  20
4750495.500
  0
VERTEX
  8
Unknown_Area_Type
  10
384811.745
  20
4750495.321
  0
VERTEX
  8
Unknown_Area_Type
  10
383468.500
  20
4750177.000
  0
VERTEX
  8
Unknown_Area_Type
  10
383465.434
  20
4750176.721
  0
VERTEX
  8
Unknown_Area_Type
  10
383464.194
  20
4750176.609
  0
SEQEND
  8
Unknown_Area_Type
  0
POLYLINE
  8
Unknown_Area_Type
  70
1
  66
1
  0
VERTEX
  8
Unknown_Area_Type
  10
379092.833
  20
4750670.173
  0
VERTEX
  8
Unknown_Area_Type
  10
377946.000
  20
4750440.000
  0
VERTEX
  8
Unknown_Area_Type
  10
377944.000
  20
4750440.000
  0
VERTEX
  8
Unknown_Area_Type
  10
377935.000
  20
4750449.500
  0
VERTEX
  8
Unknown_Area_Type
  10
377930.000
  20
4750449.500
  0
VERTEX
  8
Unknown_Area_Type
  10
377920.500
  20
4750440.000
  0
VERTEX
  8
Unknown_Area_Type
  10
377920.500
  20
4750435.000
  0
VERTEX
  8
Unknown_Area_Type
  10
377844.000
  20
4750419.500
  0
VERTEX
  8
Unknown_Area_Type
  10
377788.500
  20
4750408.500
  0
VERTEX
  8
Unknown_Area_Type
  10
377788.488
  20
4750408.505
  0
VERTEX
  8
Unknown_Area_Type
  10
376691.000
  20
4750843.000
  0
VERTEX
  8
Unknown_Area_Type
  10
376777.655
  20
4752460.000
  0
VERTEX
  8
Unknown_Area_Type
  10
376795.340
  20
4752790.000
  0
VERTEX
  8
Unknown_Area_Type
  10
376897.000
  20
4754687.000
  0
VERTEX
  8
Unknown_Area_Type
  10
378825.000
  20
4755045.000
  0
VERTEX
  8
Unknown_Area_Type
  10
378827.500
  20
4755045.500
  0
VERTEX
  8
Unknown_Area_Type
  10
378830.000
  20
4755045.500
  0
VERTEX
  8
Unknown_Area_Type
  10
378831.000
  20
4755045.500
  0
VERTEX
  8
Unknown_Area_Type
  10
378836.000
  20
4755043.000
  0
VERTEX
  8
Unknown_Area_Type
  10
379581.369
  20
4754648.070
  0
VERTEX
  8
Unknown_Area_Type
  10
379581.500
  20
4754648.000
  0
VERTEX
  8
Unknown_Area_Type
  10
379547.623
  20
4752790.000
  0
VERTEX
  8
Unknown_Area_Type
  10
379541.606
  20
4752460.000
  0
VERTEX
  8
Unknown_Area_Type
  10
379510.500
  20
4750754.000
  0
VERTEX
  8
Unknown_Area_Type
  10
379092.833
  20
4750670.173
  0
SEQEND
  8
Unknown_Area_Type
  0
POLYLINE
  8
Unknown_Area_Type
  70
1
  66
1
  0
VERTEX
  8
Unknown_Area_Type
  10
379581.369
  20
4754648.070
  0
VERTEX
  8
Unknown_Area_Type
  10
379581.000
  20
4754648.000
  0
VERTEX
  8
Unknown_Area_Type
  10
378830.000
  20
4755045.500
  0
VERTEX
  8
Unknown_Area_Type
  10
378837.472
  20
4757090.000
  0
VERTEX
  8
Unknown_Area_Type
  10
378838.641
  20
4757410.000
  0
VERTEX
  8
Unknown_Area_Type
  10
378842.500
  20
4758466.000
  0
VERTEX
  8
Unknown_Area_Type
  10
378842.839
  20
4758466.077
  0
VERTEX
  8
Unknown_Area_Type
  10
380662.000
  20
4758878.000
  0
VERTEX
  8
Unknown_Area_Type
  10
380664.000
  20
4758878.500
  0
VERTEX
  8
Unknown_Area_Type
  10
380665.500
  20
4758878.500
  0
VERTEX
  8
Unknown_Area_Type
  10
380666.500
  20
4758878.500
  0
VERTEX
  8
Unknown_Area_Type
  10
380682.000
  20
4758871.000
  0
VERTEX
  8
Unknown_Area_Type
  10
381027.552
  20
4758702.021
  0
VERTEX
  8
Unknown_Area_Type
  10
381500.502
  20
4758470.743
  0
VERTEX
  8
Unknown_Area_Type
  10
381501.000
  20
4758470.500
  0
VERTEX
  8
Unknown_Area_Type
  10
381509.869
  20
4757410.000
  0
VERTEX
  8
Unknown_Area_Type
  10
381512.545
  20
4757090.000
  0
VERTEX
  8
Unknown_Area_Type
  10
381529.500
  20
4755062.500
  0
VERTEX
  8
Unknown_Area_Type
  10
381529.500
  20
4755016.000
  0
VERTEX
  8
Unknown_Area_Type
  10
381528.848
  20
4755015.783
  0
VERTEX
  8
Unknown_Area_Type
  10
381528.000
  20
4755015.500
  0
VERTEX
  8
Unknown_Area_Type
  10
379721.969
  20
4754674.608
  0
VERTEX
  8
Unknown_Area_Type
  10
379581.369
  20
4754648.070
  0
SEQEND
  8
Unknown_Area_Type
  0
POLYLINE
  8
Unknown_Area_Type
  70
1
  66
1
  0
VERTEX
  8
Unknown_Area_Type
  10
382940.000
  20
4758770.330
  0
VERTEX
  8
Unknown_Area_Type
  10
382940.000
  20
4757300.000
  0
VERTEX
  8
Unknown_Area_Type
  10
384172.043
  20
4757300.000
  0
VERTEX
  8
Unknown_Area_Type
  10
384168.001
  20
4754922.402
  0
VERTEX
  8
Unknown_Area_Type
  10
384168.000
  20
4754922.000
  0
VERTEX
  8
Unknown_Area_Type
  10
382860.000
  20
4754666.563
  0
VERTEX
  8
Unknown_Area_Type
  10
382751.179
  20
4754645.312
  0
VERTEX
  8
Unknown_Area_Type
  10
382570.000
  20
4754609.930
  0
VERTEX
  8
Unknown_Area_Type
  10
382406.859
  20
4754578.070
  0
VERTEX
  8
Unknown_Area_Type
  10
382406.500
  20
4754578.000
  0
VERTEX
  8
Unknown_Area_Type
  10
381529.637
  20
4755015.931
  0
VERTEX
  8
Unknown_Area_Type
  10
381529.500
  20
4755016.000
  0
VERTEX
  8
Unknown_Area_Type
  10
381512.092
  20
4757090.000
  0
VERTEX
  8
Unknown_Area_Type
  10
381509.406
  20
4757410.000
  0
VERTEX
  8
Unknown_Area_Type
  10
381500.502
  20
4758470.743
  0
VERTEX
  8
Unknown_Area_Type
  10
381500.500
  20
4758471.000
  0
VERTEX
  8
Unknown_Area_Type
  10
381501.201
  20
4758471.146
  0
VERTEX
  8
Unknown_Area_Type
  10
382940.000
  20
4758770.391
  0
VERTEX
  8
Unknown_Area_Type
  10
382940.000
  20
4758770.330
  0
SEQEND
  8
Unknown_Area_Type
  0
POLYLINE
  8
Unknown_Area_Type
  70
1
  66
1
  0
VERTEX
  8
Unknown_Area_Type
  10
396356.888
  20
4755001.944
  0
VERTEX
  8
Unknown_Area_Type
  10
395275.000
  20
4754629.000
  0
VERTEX
  8
Unknown_Area_Type
  10
395274.684
  20
4754629.063
  0
VERTEX
  8
Unknown_Area_Type
  10
395274.583
  20
4754629.083
  0
VERTEX
  8
Unknown_Area_Type
  10
394566.173
  20
4754770.968
  0
VERTEX
  8
Unknown_Area_Type
  10
393877.000
  20
4754909.000
  0
VERTEX
  8
Unknown_Area_Type
  10
393792.251
  20
4757180.000
  0
VERTEX
  8
Unknown_Area_Type
  10
396285.875
  20
4757180.000
  0
VERTEX
  8
Unknown_Area_Type
  10
396286.167
  20
4757180.000
  0
VERTEX
  8
Unknown_Area_Type
  10
396358.500
  20
4755002.500
  0
VERTEX
  8
Unknown_Area_Type
  10
396356.888
  20
4755001.944
  0
SEQEND
  8
Unknown_Area_Type
  0
POLYLINE
  8
Unknown_Area_Type
  70
1
  66
1
  0
VERTEX
  8
Unknown_Area_Type
  10
393876.821
  20
4754908.936
  0
VERTEX
  8
Unknown_Area_Type
  10
392784.500
  20
4754515.000
  0
VERTEX
  8
Unknown_Area_Type
  10
392784.198
  20
4754515.072
  0
VERTEX
  8
Unknown_Area_Type
  10
392514.937
  20
4754578.844
  0
VERTEX
  8
Unknown_Area_Type
  10
391359.500
  20
4754852.500
  0
VERTEX
  8
Unknown_Area_Type
  10
391349.000
  20
4754855.000
  0
VERTEX
  8
Unknown_Area_Type
  10
391348.412
  20
4754855.441
  0
VERTEX
  8
Unknown_Area_Type
  10
391347.487
  20
4754856.135
  0
VERTEX
  8
Unknown_Area_Type
  10
391347.000
  20
4754856.500
  0
VERTEX
  8
Unknown_Area_Type
  10
391299.994
  20
4757180.000
  0
VERTEX
  8
Unknown_Area_Type
  10
391300.248
  20
4757180.000
  0
VERTEX
  8
Unknown_Area_Type
  10
393792.251
  20
4757180.000
  0
VERTEX
  8
Unknown_Area_Type
  10
393877.000
  20
4754909.000
  0
VERTEX
  8
Unknown_Area_Type
  10
393876.821
  20
4754908.936
  0
SEQEND
  8
Unknown_Area_Type
  0
POLYLINE
  8
Unknown_Area_Type
  70
1
  66
1
  0
VERTEX
  8
Unknown_Area_Type
  10
385020.366
  20
4754530.062
  0
VERTEX
  8
Unknown_Area_Type
  10
385020.000
  20
4754530.000
  0
VERTEX
  8
Unknown_Area_Type
  10
384168.500
  20
4754922.000
  0
VERTEX
  8
Unknown_Area_Type
  10
384168.501
  20
4754922.500
  0
VERTEX
  8
Unknown_Area_Type
  10
384172.206
  20
4757300.000
  0
VERTEX
  8
Unknown_Area_Type
  10
386632.912
  20
4757300.000
  0
VERTEX
  8
Unknown_Area_Type
  10
386632.993
  20
4757300.000
  0
VERTEX
  8
Unknown_Area_Type
  10
386715.500
  20
4754823.000
  0
VERTEX
  8
Unknown_Area_Type
  10
386715.500
  20
4754817.000
  0
VERTEX
  8
Unknown_Area_Type
  10
386714.818
  20
4754816.773
  0
VERTEX
  8
Unknown_Area_Type
  10
386714.000
  20
4754816.500
  0
VERTEX
  8
Unknown_Area_Type
  10
385262.124
  20
4754570.950
  0
VERTEX
  8
Unknown_Area_Type
  10
385020.366
  20
4754530.062
  0
SEQEND
  8
Unknown_Area_Type
  0
POLYLINE
  8
Unknown_Area_Type
  70
1
  66
1
  0
VERTEX
  8
Unknown_Area_Type
  10
395199.589
  20
4743300.000
  0
VERTEX
  8
Unknown_Area_Type
  10
395204.922
  20
4743104.474
  0
VERTEX
  8
Unknown_Area_Type
  10
395204.912
  20
4743104.474
  0
VERTEX
  8
Unknown_Area_Type
  10
392730.870
  20
4743142.400
  0
VERTEX
  8
Unknown_Area_Type
  10
392584.750
  20
4743144.712
  0
VERTEX
  8
Unknown_Area_Type
  10
392586.086
  20
4743300.000
  0
VERTEX
  8
Unknown_Area_Type
  10
392605.500
  20
4745556.000
  0
VERTEX
  8
Unknown_Area_Type
  10
393149.307
  20
4745662.705
  0
VERTEX
  8
Unknown_Area_Type
  10
394509.000
  20
4745929.500
  0
VERTEX
  8
Unknown_Area_Type
  10
394511.500
  20
4745929.500
  0
VERTEX
  8
Unknown_Area_Type
  10
394512.500
  20
4745929.500
  0
VERTEX
  8
Unknown_Area_Type
  10
394555.500
  20
4745901.500
  0
VERTEX
  8
Unknown_Area_Type
  10
394555.988
  20
4745900.523
  0
VERTEX
  8
Unknown_Area_Type
  10
394556.000
  20
4745900.500
  0
VERTEX
  8
Unknown_Area_Type
  10
394568.632
  20
4745892.288
  0
VERTEX
  8
Unknown_Area_Type
  10
395139.000
  20
4745521.500
  0
VERTEX
  8
Unknown_Area_Type
  10
395199.589
  20
4743300.000
  0
SEQEND
  8
Unknown_Area_Type
  0
POLYLINE
  8
Unknown_Area_Type
  70
1
  66
1
  0
VERTEX
  8
Unknown_Area_Type
  10
388997.830
  20
4754848.828
  0
VERTEX
  8
Unknown_Area_Type
  10
387599.000
  20
4754490.000
  0
VERTEX
  8
Unknown_Area_Type
  10
387597.561
  20
4754490.144
  0
VERTEX
  8
Unknown_Area_Type
  10
387596.263
  20
4754490.274
  0
VERTEX
  8
Unknown_Area_Type
  10
387594.000
  20
4754490.500
  0
VERTEX
  8
Unknown_Area_Type
  10
386719.938
  20
4754815.351
  0
VERTEX
  8
Unknown_Area_Type
  10
386715.500
  20
4754817.000
  0
VERTEX
  8
Unknown_Area_Type
  10
386632.912
  20
4757300.000
  0
VERTEX
  8
Unknown_Area_Type
  10
386632.993
  20
4757300.000
  0
VERTEX
  8
Unknown_Area_Type
  10
388924.988
  20
4757300.000
  0
VERTEX
  8
Unknown_Area_Type
  10
388998.500
  20
4754849.000
  0
VERTEX
  8
Unknown_Area_Type
  10
388997.830
  20
4754848.828
  0
SEQEND
  8
Unknown_Area_Type
  0
POLYLINE
  8
Unknown_Area_Type
  70
1
  66
1
  0
VERTEX
  8
Unknown_Area_Type
  10
387397.932
  20
4743410.000
  0
VERTEX
  8
Unknown_Area_Type
  10
387403.344
  20
4743227.654
  0
VERTEX
  8
Unknown_Area_Type
  10
387403.334
  20
4743227.654
  0
VERTEX
  8
Unknown_Area_Type
  10
385920.030
  20
4743251.860
  0
VERTEX
  8
Unknown_Area_Type
  10
384863.368
  20
4743269.626
  0
VERTEX
  8
Unknown_Area_Type
  10
384863.366
  20
4743269.626
  0
VERTEX
  8
Unknown_Area_Type
  10
384859.888
  20
4743410.000
  0
VERTEX
  8
Unknown_Area_Type
  10
384802.000
  20
4745745.500
  0
VERTEX
  8
Unknown_Area_Type
  10
384802.458
  20
4745745.651
  0
VERTEX
  8
Unknown_Area_Type
  10
386103.000
  20
4746175.500
  0
VERTEX
  8
Unknown_Area_Type
  10
386103.230
  20
4746175.411
  0
VERTEX
  8
Unknown_Area_Type
  10
386363.000
  20
4746074.500
  0
VERTEX
  8
Unknown_Area_Type
  10
386364.000
  20
4746074.000
  0
VERTEX
  8
Unknown_Area_Type
  10
386705.018
  20
4745941.617
  0
VERTEX
  8
Unknown_Area_Type
  10
387329.591
  20
4745699.159
  0
VERTEX
  8
Unknown_Area_Type
  10
387330.000
  20
4745699.000
  0
VERTEX
  8
Unknown_Area_Type
  10
387397.932
  20
4743410.000
  0
SEQEND
  8
Unknown_Area_Type
  0
POLYLINE
  8
Unknown_Area_Type
  70
1
  66
1
  0
VERTEX
  8
Unknown_Area_Type
  10
389980.823
  20
4743300.000
  0
VERTEX
  8
Unknown_Area_Type
  10
389981.547
  20
4743185.905
  0
VERTEX
  8
Unknown_Area_Type
  10
389981.263
  20
4743185.910
  0
VERTEX
  8
Unknown_Area_Type
  10
389325.452
  20
4743196.288
  0
VERTEX
  8
Unknown_Area_Type
  10
387403.344
  20
4743227.654
  0
VERTEX
  8
Unknown_Area_Type
  10
387403.334
  20
4743227.654
  0
VERTEX
  8
Unknown_Area_Type
  10
387397.923
  20
4743410.000
  0
VERTEX
  8
Unknown_Area_Type
  10
387330.000
  20
4745699.000
  0
VERTEX
  8
Unknown_Area_Type
  10
387824.189
  20
4745832.026
  0
VERTEX
  8
Unknown_Area_Type
  10
388881.000
  20
4746116.500
  0
VERTEX
  8
Unknown_Area_Type
  10
388883.000
  20
4746117.000
  0
VERTEX
  8
Unknown_Area_Type
  10
388884.193
  20
4746116.783
  0
VERTEX
  8
Unknown_Area_Type
  10
388886.382
  20
4746116.385
  0
VERTEX
  8
Unknown_Area_Type
  10
388888.500
  20
4746116.000
  0
VERTEX
  8
Unknown_Area_Type
  10
389220.000
  20
4745968.479
  0
VERTEX
  8
Unknown_Area_Type
  10
389500.000
  20
4745843.875
  0
VERTEX
  8
Unknown_Area_Type
  10
389965.629
  20
4745636.665
  0
VERTEX
  8
Unknown_Area_Type
  10
389966.000
  20
4745636.500
  0
VERTEX
  8
Unknown_Area_Type
  10
389980.823
  20
4743300.000
  0
SEQEND
  8
Unknown_Area_Type
  0
POLYLINE
  8
Unknown_Area_Type
  70
1
  66
1
  0
VERTEX
  8
Unknown_Area_Type
  10
392586.086
  20
4743300.000
  0
VERTEX
  8
Unknown_Area_Type
  10
392584.750
  20
4743144.712
  0
VERTEX
  8
Unknown_Area_Type
  10
389981.547
  20
4743185.905
  0
VERTEX
  8
Unknown_Area_Type
  10
389981.263
  20
4743185.910
  0
VERTEX
  8
Unknown_Area_Type
  10
389980.552
  20
4743300.000
  0
VERTEX
  8
Unknown_Area_Type
  10
389966.000
  20
4745636.500
  0
VERTEX
  8
Unknown_Area_Type
  10
390457.500
  20
4745765.500
  0
VERTEX
  8
Unknown_Area_Type
  10
390458.015
  20
4745765.672
  0
VERTEX
  8
Unknown_Area_Type
  10
390459.000
  20
4745766.000
  0
VERTEX
  8
Unknown_Area_Type
  10
390831.938
  20
4745863.641
  0
VERTEX
  8
Unknown_Area_Type
  10
391653.823
  20
4746078.823
  0
VERTEX
  8
Unknown_Area_Type
  10
391654.500
  20
4746079.000
  0
VERTEX
  8
Unknown_Area_Type
  10
392605.237
  20
4745556.144
  0
VERTEX
  8
Unknown_Area_Type
  10
392605.500
  20
4745556.000
  0
VERTEX
  8
Unknown_Area_Type
  10
392586.086
  20
4743300.000
  0
SEQEND
  8
Unknown_Area_Type
  0
POLYLINE
  8
Unknown_Area_Type
  70
1
  66
1
  0
VERTEX
  8
Unknown_Area_Type
  10
384859.888
  20
4743410.000
  0
VERTEX
  8
Unknown_Area_Type
  10
384863.368
  20
4743269.626
  0
VERTEX
  8
Unknown_Area_Type
  10
384863.366
  20
4743269.626
  0
VERTEX
  8
Unknown_Area_Type
  10
382514.603
  20
4743309.117
  0
VERTEX
  8
Unknown_Area_Type
  10
382384.044
  20
4743311.377
  0
VERTEX
  8
Unknown_Area_Type
  10
382386.282
  20
4743410.000
  0
VERTEX
  8
Unknown_Area_Type
  10
382389.005
  20
4743530.000
  0
VERTEX
  8
Unknown_Area_Type
  10
382410.000
  20
4744455.263
  0
VERTEX
  8
Unknown_Area_Type
  10
382441.500
  20
4745843.500
  0
VERTEX
  8
Unknown_Area_Type
  10
382700.000
  20
4745940.796
  0
VERTEX
  8
Unknown_Area_Type
  10
383297.000
  20
4746165.500
  0
VERTEX
  8
Unknown_Area_Type
  10
383297.287
  20
4746165.420
  0
VERTEX
  8
Unknown_Area_Type
  10
383298.657
  20
4746165.037
  0
VERTEX
  8
Unknown_Area_Type
  10
383640.165
  20
4746069.670
  0
VERTEX
  8
Unknown_Area_Type
  10
384314.000
  20
4745881.500
  0
VERTEX
  8
Unknown_Area_Type
  10
384316.000
  20
4745881.000
  0
VERTEX
  8
Unknown_Area_Type
  10
384802.000
  20
4745745.500
  0
VERTEX
  8
Unknown_Area_Type
  10
384859.888
  20
4743410.000
  0
SEQEND
  8
Unknown_Area_Type
  0
POLYLINE
  8
Unknown_Area_Type
  70
1
  66
1
  0
VERTEX
  8
Unknown_Area_Type
  10
377686.512
  20
4746222.999
  0
VERTEX
  8
Unknown_Area_Type
  10
378168.500
  20
4746171.000
  0
VERTEX
  8
Unknown_Area_Type
  10
378172.000
  20
4746171.000
  0
VERTEX
  8
Unknown_Area_Type
  10
380000.000
  20
4745975.500
  0
VERTEX
  8
Unknown_Area_Type
  10
379930.936
  20
4743530.000
  0
VERTEX
  8
Unknown_Area_Type
  10
379925.964
  20
4743353.922
  0
VERTEX
  8
Unknown_Area_Type
  10
379109.172
  20
4743368.059
  0
VERTEX
  8
Unknown_Area_Type
  10
377451.073
  20
4743397.578
  0
VERTEX
  8
Unknown_Area_Type
  10
377451.192
  20
4743530.000
  0
VERTEX
  8
Unknown_Area_Type
  10
377453.500
  20
4746095.000
  0
VERTEX
  8
Unknown_Area_Type
  10
377453.547
  20
4746095.026
  0
VERTEX
  8
Unknown_Area_Type
  10
377686.500
  20
4746223.000
  0
VERTEX
  8
Unknown_Area_Type
  10
377686.512
  20
4746222.999
  0
SEQEND
  8
Unknown_Area_Type
  0
POLYLINE
  8
Unknown_Area_Type
  70
1
  66
1
  0
VERTEX
  8
Unknown_Area_Type
  10
396310.000
  20
4745674.165
  0
VERTEX
  8
Unknown_Area_Type
  10
396310.000
  20
4743200.000
  0
VERTEX
  8
Unknown_Area_Type
  10
399560.576
  20
4743200.000
  0
VERTEX
  8
Unknown_Area_Type
  10
399560.667
  20
4743200.000
  0
VERTEX
  8
Unknown_Area_Type
  10
399312.799
  20
4743043.074
  0
VERTEX
  8
Unknown_Area_Type
  10
399312.528
  20
4743043.078
  0
VERTEX
  8
Unknown_Area_Type
  10
396136.283
  20
4743090.197
  0
VERTEX
  8
Unknown_Area_Type
  10
395204.922
  20
4743104.474
  0
VERTEX
  8
Unknown_Area_Type
  10
395204.912
  20
4743104.474
  0
VERTEX
  8
Unknown_Area_Type
  10
395199.580
  20
4743300.000
  0
VERTEX
  8
Unknown_Area_Type
  10
395139.000
  20
4745521.500
  0
VERTEX
  8
Unknown_Area_Type
  10
396310.000
  20
4745674.606
  0
VERTEX
  8
Unknown_Area_Type
  10
396310.000
  20
4745674.165
  0
SEQEND
  8
Unknown_Area_Type
  0
POLYLINE
  8
Unknown_Area_Type
  70
1
  66
1
  0
VERTEX
  8
Unknown_Area_Type
  10
375890.000
  20
4746136.988
  0
VERTEX
  8
Unknown_Area_Type
  10
376110.000
  20
4746131.000
  0
VERTEX
  8
Unknown_Area_Type
  10
376119.729
  20
4746131.000
  0
VERTEX
  8
Unknown_Area_Type
  10
376124.000
  20
4746131.000
  0
VERTEX
  8
Unknown_Area_Type
  10
377201.274
  20
4746101.830
  0
VERTEX
  8
Unknown_Area_Type
  10
377453.500
  20
4746095.000
  0
VERTEX
  8
Unknown_Area_Type
  10
377451.192
  20
4743530.000
  0
VERTEX
  8
Unknown_Area_Type
  10
377451.073
  20
4743397.578
  0
VERTEX
  8
Unknown_Area_Type
  10
375703.736
  20
4743428.686
  0
VERTEX
  8
Unknown_Area_Type
  10
375745.503
  20
4745742.192
  0
VERTEX
  8
Unknown_Area_Type
  10
375752.701
  20
4746140.725
  0
VERTEX
  8
Unknown_Area_Type
  10
375890.000
  20
4746136.988
  0
SEQEND
  8
Unknown_Area_Type
  0
POLYLINE
  8
Unknown_Area_Type
  70
1
  66
1
  0
VERTEX
  8
Unknown_Area_Type
  10
382386.282
  20
4743410.000
  0
VERTEX
  8
Unknown_Area_Type
  10
382384.044
  20
4743311.377
  0
VERTEX
  8
Unknown_Area_Type
  10
379925.964
  20
4743353.922
  0
VERTEX
  8
Unknown_Area_Type
  10
379930.936
  20
4743530.000
  0
VERTEX
  8
Unknown_Area_Type
  10
380000.000
  20
4745975.500
  0
VERTEX
  8
Unknown_Area_Type
  10
380000.183
  20
4745975.587
  0
VERTEX
  8
Unknown_Area_Type
  10
380218.500
  20
4746080.000
  0
VERTEX
  8
Unknown_Area_Type
  10
380219.500
  20
4746080.500
  0
VERTEX
  8
Unknown_Area_Type
  10
380501.000
  20
4746215.000
  0
VERTEX
  8
Unknown_Area_Type
  10
380501.018
  20
4746214.997
  0
VERTEX
  8
Unknown_Area_Type
  10
382410.000
  20
4745849.530
  0
VERTEX
  8
Unknown_Area_Type
  10
382441.500
  20
4745843.500
  0
VERTEX
  8
Unknown_Area_Type
  10
382410.000
  20
4744455.263
  0
VERTEX
  8
Unknown_Area_Type
  10
382389.005
  20
4743530.000
  0
VERTEX
  8
Unknown_Area_Type
  10
382386.282
  20
4743410.000
  0
SEQEND
  8
Unknown_Area_Type
  0
POLYLINE
  8
Unknown_Area_Type
  70
1
  66
1
  0
VERTEX
  8
Unknown_Area_Type
  10
389650.000
  20
4757300.000
  0
VERTEX
  8
Unknown_Area_Type
  10
389650.000
  20
4757180.000
  0
VERTEX
  8
Unknown_Area_Type
  10
391299.994
  20
4757180.000
  0
VERTEX
  8
Unknown_Area_Type
  10
391300.248
  20
4757180.000
  0
VERTEX
  8
Unknown_Area_Type
  10
391347.487
  20
4754856.135
  0
VERTEX
  8
Unknown_Area_Type
  10
391347.500
  20
4754855.500
  0
VERTEX
  8
Unknown_Area_Type
  10
391346.782
  20
4754855.278
  0
VERTEX
  8
Unknown_Area_Type
  10
390246.500
  20
4754515.500
  0
VERTEX
  8
Unknown_Area_Type
  10
390245.602
  20
4754515.686
  0
VERTEX
  8
Unknown_Area_Type
  10
390239.916
  20
4754516.862
  0
VERTEX
  8
Unknown_Area_Type
  10
390232.000
  20
4754518.500
  0
VERTEX
  8
Unknown_Area_Type
  10
389650.000
  20
4754674.439
  0
VERTEX
  8
Unknown_Area_Type
  10
389370.000
  20
4754749.462
  0
VERTEX
  8
Unknown_Area_Type
  10
389003.584
  20
4754847.638
  0
VERTEX
  8
Unknown_Area_Type
  10
388998.500
  20
4754849.000
  0
VERTEX
  8
Unknown_Area_Type
  10
388924.988
  20
4757300.000
  0
VERTEX
  8
Unknown_Area_Type
  10
389650.000
  20
4757300.000
  0
SEQEND
  8
Unknown_Area_Type
  0
POLYLINE
  8
Unknown_Area_Type
  70
1
  66
1
  0
VERTEX
  8
Unknown_Area_Type
  10
377889.689
  20
4758921.303
  0
VERTEX
  8
Unknown_Area_Type
  10
376226.000
  20
4758517.000
  0
VERTEX
  8
Unknown_Area_Type
  10
376225.814
  20
4758517.076
  0
VERTEX
  8
Unknown_Area_Type
  10
376225.498
  20
4758517.205
  0
VERTEX
  8
Unknown_Area_Type
  10
376140.000
  20
4758552.196
  0
VERTEX
  8
Unknown_Area_Type
  10
375978.270
  20
4758618.385
  0
VERTEX
  8
Unknown_Area_Type
  10
375978.277
  20
4758618.750
  0
VERTEX
  8
Unknown_Area_Type
  10
375996.457
  20
4759623.390
  0
VERTEX
  8
Unknown_Area_Type
  10
376038.340
  20
4761936.951
  0
VERTEX
  8
Unknown_Area_Type
  10
377955.217
  20
4761902.718
  0
VERTEX
  8
Unknown_Area_Type
  10
377890.500
  20
4758921.500
  0
VERTEX
  8
Unknown_Area_Type
  10
377889.689
  20
4758921.303
  0
SEQEND
  8
Unknown_Area_Type
  0
POLYLINE
  8
Unknown_Area_Type
  70
1
  66
1
  0
VERTEX
  8
Unknown_Area_Type
  10
380665.500
  20
4758878.500
  0
VERTEX
  8
Unknown_Area_Type
  10
378843.000
  20
4758466.000
  0
VERTEX
  8
Unknown_Area_Type
  10
378842.839
  20
4758466.077
  0
VERTEX
  8
Unknown_Area_Type
  10
378393.033
  20
4758681.181
  0
VERTEX
  8
Unknown_Area_Type
  10
378171.188
  20
4758787.271
  0
VERTEX
  8
Unknown_Area_Type
  10
378132.986
  20
4758805.540
  0
VERTEX
  8
Unknown_Area_Type
  10
377892.726
  20
4758920.435
  0
VERTEX
  8
Unknown_Area_Type
  10
377890.500
  20
4758921.500
  0
VERTEX
  8
Unknown_Area_Type
  10
377955.225
  20
4761902.718
  0
VERTEX
  8
Unknown_Area_Type
  10
379434.605
  20
4761876.298
  0
VERTEX
  8
Unknown_Area_Type
  10
380700.642
  20
4761854.316
  0
VERTEX
  8
Unknown_Area_Type
  10
380700.646
  20
4761854.316
  0
VERTEX
  8
Unknown_Area_Type
  10
380665.500
  20
4758878.500
  0
SEQEND
  8
Unknown_Area_Type
  0
POLYLINE
  8
Unknown_Area_Type
  70
1
  66
1
  0
VERTEX
  8
Unknown_Area_Type
  10
382940.000
  20
4758770.330
  0
VERTEX
  8
Unknown_Area_Type
  10
381501.500
  20
4758471.000
  0
VERTEX
  8
Unknown_Area_Type
  10
381501.201
  20
4758471.146
  0
VERTEX
  8
Unknown_Area_Type
  10
381027.552
  20
4758702.021
  0
VERTEX
  8
Unknown_Area_Type
  10
380665.500
  20
4758878.500
  0
VERTEX
  8
Unknown_Area_Type
  10
380700.642
  20
4761854.316
  0
VERTEX
  8
Unknown_Area_Type
  10
380700.646
  20
4761854.316
  0
VERTEX
  8
Unknown_Area_Type
  10
382830.865
  20
4761817.330
  0
VERTEX
  8
Unknown_Area_Type
  10
382940.000
  20
4761815.490
  0
VERTEX
  8
Unknown_Area_Type
  10
382940.000
  20
4758770.391
  0
VERTEX
  8
Unknown_Area_Type
  10
382940.000
  20
4758770.330
  0
SEQEND
  8
Unknown_Area_Type
  0
POLYLINE
  8
Unknown_Area_Type
  70
1
  66
1
  0
VERTEX
  8
Unknown_Area_Type
  10
375980.000
  20
4750710.818
  0
VERTEX
  8
Unknown_Area_Type
  10
375834.775
  20
4750683.819
  0
VERTEX
  8
Unknown_Area_Type
  10
375834.779
  20
4750684.035
  0
VERTEX
  8
Unknown_Area_Type
  10
375870.906
  20
4752682.756
  0
VERTEX
  8
Unknown_Area_Type
  10
375912.740
  20
4754996.293
  0
VERTEX
  8
Unknown_Area_Type
  10
375913.510
  20
4755038.848
  0
VERTEX
  8
Unknown_Area_Type
  10
375913.514
  20
4755039.098
  0
VERTEX
  8
Unknown_Area_Type
  10
376060.000
  20
4755058.463
  0
VERTEX
  8
Unknown_Area_Type
  10
376203.320
  20
4755077.410
  0
VERTEX
  8
Unknown_Area_Type
  10
376203.595
  20
4755077.447
  0
VERTEX
  8
Unknown_Area_Type
  10
376204.000
  20
4755077.500
  0
VERTEX
  8
Unknown_Area_Type
  10
376897.000
  20
4754687.500
  0
VERTEX
  8
Unknown_Area_Type
  10
376896.974
  20
4754687.015
  0
VERTEX
  8
Unknown_Area_Type
  10
376795.326
  20
4752790.000
  0
VERTEX
  8
Unknown_Area_Type
  10
376777.644
  20
4752460.000
  0
VERTEX
  8
Unknown_Area_Type
  10
376691.000
  20
4750843.000
  0
VERTEX
  8
Unknown_Area_Type
  10
375980.000
  20
4750710.818
  0
SEQEND
  8
Unknown_Area_Type
  0
POLYLINE
  8
Unknown_Area_Type
  70
1
  66
1
  0
VERTEX
  8
Unknown_Area_Type
  10
376060.000
  20
4755058.187
  0
VERTEX
  8
Unknown_Area_Type
  10
375913.510
  20
4755038.848
  0
VERTEX
  8
Unknown_Area_Type
  10
375913.514
  20
4755039.098
  0
VERTEX
  8
Unknown_Area_Type
  10
375954.590
  20
4757309.838
  0
VERTEX
  8
Unknown_Area_Type
  10
375978.270
  20
4758618.385
  0
VERTEX
  8
Unknown_Area_Type
  10
375978.277
  20
4758618.750
  0
VERTEX
  8
Unknown_Area_Type
  10
376140.000
  20
4758552.516
  0
VERTEX
  8
Unknown_Area_Type
  10
376225.500
  20
4758517.500
  0
VERTEX
  8
Unknown_Area_Type
  10
376225.498
  20
4758517.205
  0
VERTEX
  8
Unknown_Area_Type
  10
376225.232
  20
4758475.162
  0
VERTEX
  8
Unknown_Area_Type
  10
376218.500
  20
4757410.000
  0
VERTEX
  8
Unknown_Area_Type
  10
376216.477
  20
4757090.000
  0
VERTEX
  8
Unknown_Area_Type
  10
376204.000
  20
4755116.000
  0
VERTEX
  8
Unknown_Area_Type
  10
376203.500
  20
4755077.500
  0
VERTEX
  8
Unknown_Area_Type
  10
376203.320
  20
4755077.410
  0
VERTEX
  8
Unknown_Area_Type
  10
376202.500
  20
4755077.000
  0
VERTEX
  8
Unknown_Area_Type
  10
376060.000
  20
4755058.187
  0
SEQEND
  8
Unknown_Area_Type
  0
POLYLINE
  8
Unknown_Area_Type
  70
1
  66
1
  0
VERTEX
  8
Unknown_Area_Type
  10
378830.000
  20
4755045.500
  0
VERTEX
  8
Unknown_Area_Type
  10
376897.000
  20
4754687.000
  0
VERTEX
  8
Unknown_Area_Type
  10
376896.974
  20
4754687.015
  0
VERTEX
  8
Unknown_Area_Type
  10
376203.595
  20
4755077.447
  0
VERTEX
  8
Unknown_Area_Type
  10
376203.500
  20
4755077.500
  0
VERTEX
  8
Unknown_Area_Type
  10
376216.373
  20
4757090.000
  0
VERTEX
  8
Unknown_Area_Type
  10
376218.419
  20
4757410.000
  0
VERTEX
  8
Unknown_Area_Type
  10
376225.232
  20
4758475.162
  0
VERTEX
  8
Unknown_Area_Type
  10
376225.500
  20
4758517.000
  0
VERTEX
  8
Unknown_Area_Type
  10
376225.814
  20
4758517.076
  0
VERTEX
  8
Unknown_Area_Type
  10
377889.000
  20
4758921.500
  0
VERTEX
  8
Unknown_Area_Type
  10
377889.689
  20
4758921.303
  0
VERTEX
  8
Unknown_Area_Type
  10
377892.726
  20
4758920.435
  0
VERTEX
  8
Unknown_Area_Type
  10
377896.000
  20
4758919.500
  0
VERTEX
  8
Unknown_Area_Type
  10
378132.986
  20
4758805.540
  0
VERTEX
  8
Unknown_Area_Type
  10
378170.500
  20
4758787.500
  0
VERTEX
  8
Unknown_Area_Type
  10
378171.188
  20
4758787.271
  0
VERTEX
  8
Unknown_Area_Type
  10
378172.000
  20
4758787.000
  0
VERTEX
  8
Unknown_Area_Type
  10
378393.033
  20
4758681.181
  0
VERTEX
  8
Unknown_Area_Type
  10
378842.500
  20
4758466.000
  0
VERTEX
  8
Unknown_Area_Type
  10
378838.641
  20
4757410.000
  0
VERTEX
  8
Unknown_Area_Type
  10
378837.472
  20
4757090.000
  0
VERTEX
  8
Unknown_Area_Type
  10
378830.000
  20
4755045.500
  0
SEQEND
  8
Unknown_Area_Type
  0
POLYLINE
  8
Unknown_Area_Type
  70
1
  66
1
  0
VERTEX
  8
Unknown_Area_Type
  10
377686.500
  20
4746222.500
  0
VERTEX
  8
Unknown_Area_Type
  10
377454.500
  20
4746095.000
  0
VERTEX
  8
Unknown_Area_Type
  10
377453.547
  20
4746095.026
  0
VERTEX
  8
Unknown_Area_Type
  10
377201.274
  20
4746101.830
  0
VERTEX
  8
Unknown_Area_Type
  10
376119.729
  20
4746131.000
  0
VERTEX
  8
Unknown_Area_Type
  10
375890.000
  20
4746137.196
  0
VERTEX
  8
Unknown_Area_Type
  10
375752.704
  20
4746140.899
  0
VERTEX
  8
Unknown_Area_Type
  10
375787.288
  20
4748055.705
  0
VERTEX
  8
Unknown_Area_Type
  10
375829.089
  20
4750369.227
  0
VERTEX
  8
Unknown_Area_Type
  10
375834.775
  20
4750683.819
  0
VERTEX
  8
Unknown_Area_Type
  10
375834.779
  20
4750684.035
  0
VERTEX
  8
Unknown_Area_Type
  10
375980.000
  20
4750711.069
  0
VERTEX
  8
Unknown_Area_Type
  10
376686.000
  20
4750842.500
  0
VERTEX
  8
Unknown_Area_Type
  10
376688.500
  20
4750843.000
  0
VERTEX
  8
Unknown_Area_Type
  10
376691.000
  20
4750843.000
  0
VERTEX
  8
Unknown_Area_Type
  10
376692.000
  20
4750843.000
  0
VERTEX
  8
Unknown_Area_Type
  10
376701.000
  20
4750839.500
  0
VERTEX
  8
Unknown_Area_Type
  10
377788.500
  20
4750409.000
  0
VERTEX
  8
Unknown_Area_Type
  10
377788.488
  20
4750408.505
  0
VERTEX
  8
Unknown_Area_Type
  10
377737.604
  20
4748320.007
  0
VERTEX
  8
Unknown_Area_Type
  10
377733.705
  20
4748160.000
  0
VERTEX
  8
Unknown_Area_Type
  10
377725.665
  20
4747830.000
  0
VERTEX
  8
Unknown_Area_Type
  10
377686.512
  20
4746222.999
  0
VERTEX
  8
Unknown_Area_Type
  10
377686.500
  20
4746222.500
  0
SEQEND
  8
Unknown_Area_Type
  0
POLYLINE
  8
Unknown_Area_Type
  70
1
  66
1
  0
VERTEX
  8
Unknown_Area_Type
  10
400228.885
  20
4743200.000
  0
VERTEX
  8
Unknown_Area_Type
  10
400239.991
  20
4743029.664
  0
VERTEX
  8
Unknown_Area_Type
  10
400239.904
  20
4743029.666
  0
VERTEX
  8
Unknown_Area_Type
  10
399541.692
  20
4743039.678
  0
VERTEX
  8
Unknown_Area_Type
  10
399312.799
  20
4743043.074
  0
VERTEX
  8
Unknown_Area_Type
  10
399312.528
  20
4743043.078
  0
VERTEX
  8
Unknown_Area_Type
  10
399560.576
  20
4743200.000
  0
VERTEX
  8
Unknown_Area_Type
  10
399560.667
  20
4743200.000
  0
VERTEX
  8
Unknown_Area_Type
  10
400228.827
  20
4743200.000
  0
VERTEX
  8
Unknown_Area_Type
  10
400228.885
  20
4743200.000
  0
SEQEND
  8
Unknown_Area_Type
  0
POLYLINE
  8
Unknown_Area_Type
  70
1
  66
1
  0
VERTEX
  8
Unknown_Area_Type
  10
380079.500
  20
4750540.000
  0
VERTEX
  8
Unknown_Area_Type
  10
380647.500
  20
4750326.000
  0
VERTEX
  8
Unknown_Area_Type
  10
380570.312
  20
4748160.000
  0
VERTEX
  8
Unknown_Area_Type
  10
380558.552
  20
4747830.000
  0
VERTEX
  8
Unknown_Area_Type
  10
380501.000
  20
4746215.000
  0
VERTEX
  8
Unknown_Area_Type
  10
380001.000
  20
4745975.500
  0
VERTEX
  8
Unknown_Area_Type
  10
380000.183
  20
4745975.587
  0
VERTEX
  8
Unknown_Area_Type
  10
377686.512
  20
4746222.999
  0
VERTEX
  8
Unknown_Area_Type
  10
377686.500
  20
4746223.000
  0
VERTEX
  8
Unknown_Area_Type
  10
377725.662
  20
4747830.000
  0
VERTEX
  8
Unknown_Area_Type
  10
377733.705
  20
4748160.000
  0
VERTEX
  8
Unknown_Area_Type
  10
377737.604
  20
4748320.007
  0
VERTEX
  8
Unknown_Area_Type
  10
377788.500
  20
4750408.500
  0
VERTEX
  8
Unknown_Area_Type
  10
377920.500
  20
4750435.000
  0
VERTEX
  8
Unknown_Area_Type
  10
377920.500
  20
4750440.000
  0
VERTEX
  8
Unknown_Area_Type
  10
377930.000
  20
4750449.500
  0
VERTEX
  8
Unknown_Area_Type
  10
377935.000
  20
4750449.500
  0
VERTEX
  8
Unknown_Area_Type
  10
377944.000
  20
4750440.000
  0
VERTEX
  8
Unknown_Area_Type
  10
377946.000
  20
4750440.000
  0
VERTEX
  8
Unknown_Area_Type
  10
378168.000
  20
4750485.000
  0
VERTEX
  8
Unknown_Area_Type
  10
378170.500
  20
4750485.500
  0
VERTEX
  8
Unknown_Area_Type
  10
379092.833
  20
4750670.173
  0
VERTEX
  8
Unknown_Area_Type
  10
379510.847
  20
4750753.869
  0
VERTEX
  8
Unknown_Area_Type
  10
379511.500
  20
4750754.000
  0
VERTEX
  8
Unknown_Area_Type
  10
380079.500
  20
4750540.000
  0
SEQEND
  8
Unknown_Area_Type
  0
POLYLINE
  8
Unknown_Area_Type
  70
1
  66
1
  0
VERTEX
  8
Unknown_Area_Type
  10
386103.230
  20
4746175.411
  0
VERTEX
  8
Unknown_Area_Type
  10
384803.000
  20
4745745.500
  0
VERTEX
  8
Unknown_Area_Type
  10
384802.458
  20
4745745.651
  0
VERTEX
  8
Unknown_Area_Type
  10
383640.165
  20
4746069.670
  0
VERTEX
  8
Unknown_Area_Type
  10
383300.000
  20
4746164.500
  0
VERTEX
  8
Unknown_Area_Type
  10
383298.657
  20
4746165.037
  0
VERTEX
  8
Unknown_Area_Type
  10
383297.500
  20
4746165.500
  0
VERTEX
  8
Unknown_Area_Type
  10
383297.500
  20
4746167.500
  0
VERTEX
  8
Unknown_Area_Type
  10
383362.171
  20
4747720.000
  0
VERTEX
  8
Unknown_Area_Type
  10
383375.501
  20
4748040.000
  0
VERTEX
  8
Unknown_Area_Type
  10
383464.500
  20
4750176.500
  0
VERTEX
  8
Unknown_Area_Type
  10
383465.434
  20
4750176.721
  0
VERTEX
  8
Unknown_Area_Type
  10
384809.000
  20
4750495.000
  0
VERTEX
  8
Unknown_Area_Type
  10
384811.000
  20
4750495.500
  0
VERTEX
  8
Unknown_Area_Type
  10
384811.745
  20
4750495.321
  0
VERTEX
  8
Unknown_Area_Type
  10
384817.101
  20
4750494.036
  0
VERTEX
  8
Unknown_Area_Type
  10
384823.500
  20
4750492.500
  0
VERTEX
  8
Unknown_Area_Type
  10
386283.500
  20
4750028.000
  0
VERTEX
  8
Unknown_Area_Type
  10
386294.000
  20
4750024.500
  0
VERTEX
  8
Unknown_Area_Type
  10
386294.000
  20
4750016.000
  0
VERTEX
  8
Unknown_Area_Type
  10
386195.985
  20
4748040.000
  0
VERTEX
  8
Unknown_Area_Type
  10
386180.112
  20
4747720.000
  0
VERTEX
  8
Unknown_Area_Type
  10
386103.500
  20
4746175.500
  0
VERTEX
  8
Unknown_Area_Type
  10
386103.230
  20
4746175.411
  0
SEQEND
  8
Unknown_Area_Type
  0
POLYLINE
  8
Unknown_Area_Type
  70
1
  66
1
  0
VERTEX
  8
Unknown_Area_Type
  10
382441.500
  20
4745843.500
  0
VERTEX
  8
Unknown_Area_Type
  10
382439.500
  20
4745843.500
  0
VERTEX
  8
Unknown_Area_Type
  10
382410.000
  20
4745849.146
  0
VERTEX
  8
Unknown_Area_Type
  10
380501.000
  20
4746214.500
  0
VERTEX
  8
Unknown_Area_Type
  10
380501.018
  20
4746214.997
  0
VERTEX
  8
Unknown_Area_Type
  10
380558.563
  20
4747830.000
  0
VERTEX
  8
Unknown_Area_Type
  10
380570.322
  20
4748160.000
  0
VERTEX
  8
Unknown_Area_Type
  10
380647.500
  20
4750326.000
  0
VERTEX
  8
Unknown_Area_Type
  10
380648.125
  20
4750326.141
  0
VERTEX
  8
Unknown_Area_Type
  10
382112.000
  20
4750656.500
  0
VERTEX
  8
Unknown_Area_Type
  10
382112.194
  20
4750656.431
  0
VERTEX
  8
Unknown_Area_Type
  10
382112.523
  20
4750656.313
  0
VERTEX
  8
Unknown_Area_Type
  10
382266.000
  20
4750601.500
  0
VERTEX
  8
Unknown_Area_Type
  10
382268.000
  20
4750601.000
  0
VERTEX
  8
Unknown_Area_Type
  10
382490.000
  20
4750522.238
  0
VERTEX
  8
Unknown_Area_Type
  10
382780.000
  20
4750419.350
  0
VERTEX
  8
Unknown_Area_Type
  10
383464.194
  20
4750176.609
  0
VERTEX
  8
Unknown_Area_Type
  10
383464.500
  20
4750176.500
  0
VERTEX
  8
Unknown_Area_Type
  10
383375.546
  20
4748040.000
  0
VERTEX
  8
Unknown_Area_Type
  10
383362.222
  20
4747720.000
  0
VERTEX
  8
Unknown_Area_Type
  10
383297.500
  20
4746165.500
  0
VERTEX
  8
Unknown_Area_Type
  10
383297.287
  20
4746165.420
  0
VERTEX
  8
Unknown_Area_Type
  10
382700.000
  20
4745940.458
  0
VERTEX
  8
Unknown_Area_Type
  10
382458.500
  20
4745849.500
  0
VERTEX
  8
Unknown_Area_Type
  10
382442.500
  20
4745843.500
  0
VERTEX
  8
Unknown_Area_Type
  10
382441.500
  20
4745843.500
  0
SEQEND
  8
Unknown_Area_Type
  0
POLYLINE
  8
Unknown_Area_Type
  70
1
  66
1
  0
VERTEX
  8
Unknown_Area_Type
  10
391164.500
  20
4750006.500
  0
VERTEX
  8
Unknown_Area_Type
  10
391170.000
  20
4750000.500
  0
VERTEX
  8
Unknown_Area_Type
  10
391185.000
  20
4750000.500
  0
VERTEX
  8
Unknown_Area_Type
  10
391188.000
  20
4750002.000
  0
VERTEX
  8
Unknown_Area_Type
  10
391190.000
  20
4750000.500
  0
VERTEX
  8
Unknown_Area_Type
  10
391202.500
  20
4749998.500
  0
VERTEX
  8
Unknown_Area_Type
  10
391921.000
  20
4749825.000
  0
VERTEX
  8
Unknown_Area_Type
  10
391785.806
  20
4747930.000
  0
VERTEX
  8
Unknown_Area_Type
  10
391762.976
  20
4747610.000
  0
VERTEX
  8
Unknown_Area_Type
  10
391654.000
  20
4746082.500
  0
VERTEX
  8
Unknown_Area_Type
  10
391653.500
  20
4746079.000
  0
VERTEX
  8
Unknown_Area_Type
  10
391652.000
  20
4746078.500
  0
VERTEX
  8
Unknown_Area_Type
  10
390831.938
  20
4745863.641
  0
VERTEX
  8
Unknown_Area_Type
  10
390458.015
  20
4745765.672
  0
VERTEX
  8
Unknown_Area_Type
  10
389965.629
  20
4745636.665
  0
VERTEX
  8
Unknown_Area_Type
  10
389965.000
  20
4745636.500
  0
VERTEX
  8
Unknown_Area_Type
  10
389500.000
  20
4745843.382
  0
VERTEX
  8
Unknown_Area_Type
  10
389220.000
  20
4745967.956
  0
VERTEX
  8
Unknown_Area_Type
  10
388886.382
  20
4746116.385
  0
VERTEX
  8
Unknown_Area_Type
  10
388885.000
  20
4746117.000
  0
VERTEX
  8
Unknown_Area_Type
  10
388969.259
  20
4747720.000
  0
VERTEX
  8
Unknown_Area_Type
  10
388986.079
  20
4748040.000
  0
VERTEX
  8
Unknown_Area_Type
  10
389087.000
  20
4749960.000
  0
VERTEX
  8
Unknown_Area_Type
  10
389087.241
  20
4749960.071
  0
VERTEX
  8
Unknown_Area_Type
  10
389290.000
  20
4750019.613
  0
VERTEX
  8
Unknown_Area_Type
  10
389580.000
  20
4750104.774
  0
VERTEX
  8
Unknown_Area_Type
  10
390111.060
  20
4750260.724
  0
VERTEX
  8
Unknown_Area_Type
  10
390112.000
  20
4750261.000
  0
VERTEX
  8
Unknown_Area_Type
  10
390458.000
  20
4750177.500
  0
VERTEX
  8
Unknown_Area_Type
  10
390460.000
  20
4750177.000
  0
VERTEX
  8
Unknown_Area_Type
  10
391161.000
  20
4750008.500
  0
VERTEX
  8
Unknown_Area_Type
  10
391164.500
  20
4750006.500
  0
SEQEND
  8
Unknown_Area_Type
  0
POLYLINE
  8
Unknown_Area_Type
  70
1
  66
1
  0
VERTEX
  8
Unknown_Area_Type
  10
387329.591
  20
4745699.159
  0
VERTEX
  8
Unknown_Area_Type
  10
387329.000
  20
4745699.000
  0
VERTEX
  8
Unknown_Area_Type
  10
386705.018
  20
4745941.617
  0
VERTEX
  8
Unknown_Area_Type
  10
386103.500
  20
4746175.500
  0
VERTEX
  8
Unknown_Area_Type
  10
386179.943
  20
4747720.000
  0
VERTEX
  8
Unknown_Area_Type
  10
386195.780
  20
4748040.000
  0
VERTEX
  8
Unknown_Area_Type
  10
386294.000
  20
4750024.500
  0
VERTEX
  8
Unknown_Area_Type
  10
386361.000
  20
4750044.500
  0
VERTEX
  8
Unknown_Area_Type
  10
386362.500
  20
4750045.000
  0
VERTEX
  8
Unknown_Area_Type
  10
387053.205
  20
4750251.284
  0
VERTEX
  8
Unknown_Area_Type
  10
387515.522
  20
4750389.357
  0
VERTEX
  8
Unknown_Area_Type
  10
387516.000
  20
4750389.500
  0
VERTEX
  8
Unknown_Area_Type
  10
389087.000
  20
4749960.500
  0
VERTEX
  8
Unknown_Area_Type
  10
389086.981
  20
4749960.142
  0
VERTEX
  8
Unknown_Area_Type
  10
388986.066
  20
4748040.000
  0
VERTEX
  8
Unknown_Area_Type
  10
388969.248
  20
4747720.000
  0
VERTEX
  8
Unknown_Area_Type
  10
388885.000
  20
4746117.000
  0
VERTEX
  8
Unknown_Area_Type
  10
388884.193
  20
4746116.783
  0
VERTEX
  8
Unknown_Area_Type
  10
387824.189
  20
4745832.026
  0
VERTEX
  8
Unknown_Area_Type
  10
387329.591
  20
4745699.159
  0
SEQEND
  8
Unknown_Area_Type
  0
POLYLINE
  8
Unknown_Area_Type
  70
1
  66
1
  0
VERTEX
  8
Unknown_Area_Type
  10
392605.237
  20
4745556.144
  0
VERTEX
  8
Unknown_Area_Type
  10
392604.500
  20
4745556.000
  0
VERTEX
  8
Unknown_Area_Type
  10
391653.823
  20
4746078.823
  0
VERTEX
  8
Unknown_Area_Type
  10
391653.500
  20
4746079.000
  0
VERTEX
  8
Unknown_Area_Type
  10
391762.828
  20
4747610.000
  0
VERTEX
  8
Unknown_Area_Type
  10
391785.679
  20
4747930.000
  0
VERTEX
  8
Unknown_Area_Type
  10
391921.000
  20
4749825.000
  0
VERTEX
  8
Unknown_Area_Type
  10
391921.405
  20
4749825.143
  0
VERTEX
  8
Unknown_Area_Type
  10
392506.500
  20
4750032.000
  0
VERTEX
  8
Unknown_Area_Type
  10
392507.500
  20
4750032.500
  0
VERTEX
  8
Unknown_Area_Type
  10
392823.000
  20
4750144.000
  0
VERTEX
  8
Unknown_Area_Type
  10
392825.412
  20
4750144.439
  0
VERTEX
  8
Unknown_Area_Type
  10
392827.735
  20
4750144.861
  0
VERTEX
  8
Unknown_Area_Type
  10
392828.500
  20
4750145.000
  0
VERTEX
  8
Unknown_Area_Type
  10
393818.500
  20
4749957.500
  0
VERTEX
  8
Unknown_Area_Type
  10
394808.500
  20
4749770.000
  0
VERTEX
  8
Unknown_Area_Type
  10
394666.206
  20
4747930.000
  0
VERTEX
  8
Unknown_Area_Type
  10
394641.459
  20
4747610.000
  0
VERTEX
  8
Unknown_Area_Type
  10
394511.500
  20
4745929.500
  0
VERTEX
  8
Unknown_Area_Type
  10
393149.307
  20
4745662.705
  0
VERTEX
  8
Unknown_Area_Type
  10
392605.237
  20
4745556.144
  0
SEQEND
  8
Unknown_Area_Type
  0
POLYLINE
  8
Unknown_Area_Type
  70
1
  66
1
  0
VERTEX
  8
Unknown_Area_Type
  10
402950.045
  20
4743200.000
  0
VERTEX
  8
Unknown_Area_Type
  10
402947.096
  20
4742990.844
  0
VERTEX
  8
Unknown_Area_Type
  10
400239.991
  20
4743029.664
  0
VERTEX
  8
Unknown_Area_Type
  10
400239.904
  20
4743029.666
  0
VERTEX
  8
Unknown_Area_Type
  10
400228.827
  20
4743200.000
  0
VERTEX
  8
Unknown_Area_Type
  10
400228.885
  20
4743200.000
  0
VERTEX
  8
Unknown_Area_Type
  10
402950.045
  20
4743200.000
  0
SEQEND
  8
Unknown_Area_Type
  0
POLYLINE
  8
Unknown_Area_Type
  70
1
  66
1
  0
VERTEX
  8
Unknown_Area_Type
  10
396380.000
  20
4752240.000
  0
VERTEX
  8
Unknown_Area_Type
  10
396380.000
  20
4749928.542
  0
VERTEX
  8
Unknown_Area_Type
  10
395500.000
  20
4750022.000
  0
VERTEX
  8
Unknown_Area_Type
  10
395391.435
  20
4752240.000
  0
VERTEX
  8
Unknown_Area_Type
  10
395375.772
  20
4752560.000
  0
VERTEX
  8
Unknown_Area_Type
  10
395274.500
  20
4754629.000
  0
VERTEX
  8
Unknown_Area_Type
  10
395274.594
  20
4754629.032
  0
VERTEX
  8
Unknown_Area_Type
  10
395274.684
  20
4754629.063
  0
VERTEX
  8
Unknown_Area_Type
  10
396354.000
  20
4755001.500
  0
VERTEX
  8
Unknown_Area_Type
  10
396356.888
  20
4755001.944
  0
VERTEX
  8
Unknown_Area_Type
  10
396359.372
  20
4755002.327
  0
VERTEX
  8
Unknown_Area_Type
  10
396360.500
  20
4755002.500
  0
VERTEX
  8
Unknown_Area_Type
  10
396450.000
  20
4754984.694
  0
VERTEX
  8
Unknown_Area_Type
  10
396450.000
  20
4754984.305
  0
VERTEX
  8
Unknown_Area_Type
  10
396450.000
  20
4752240.000
  0
VERTEX
  8
Unknown_Area_Type
  10
396380.000
  20
4752240.000
  0
SEQEND
  8
Unknown_Area_Type
  0
POLYLINE
  8
Unknown_Area_Type
  70
1
  66
1
  0
VERTEX
  8
Unknown_Area_Type
  10
395139.000
  20
4745521.500
  0
VERTEX
  8
Unknown_Area_Type
  10
395138.000
  20
4745521.500
  0
VERTEX
  8
Unknown_Area_Type
  10
395131.000
  20
4745526.000
  0
VERTEX
  8
Unknown_Area_Type
  10
394568.632
  20
4745892.288
  0
VERTEX
  8
Unknown_Area_Type
  10
394555.988
  20
4745900.523
  0
VERTEX
  8
Unknown_Area_Type
  10
394511.500
  20
4745929.500
  0
VERTEX
  8
Unknown_Area_Type
  10
394641.459
  20
4747610.000
  0
VERTEX
  8
Unknown_Area_Type
  10
394666.206
  20
4747930.000
  0
VERTEX
  8
Unknown_Area_Type
  10
394808.500
  20
4749770.000
  0
VERTEX
  8
Unknown_Area_Type
  10
394809.012
  20
4749770.187
  0
VERTEX
  8
Unknown_Area_Type
  10
395499.500
  20
4750022.000
  0
VERTEX
  8
Unknown_Area_Type
  10
395499.887
  20
4750021.959
  0
VERTEX
  8
Unknown_Area_Type
  10
396380.000
  20
4749928.202
  0
VERTEX
  8
Unknown_Area_Type
  10
396380.000
  20
4747610.000
  0
VERTEX
  8
Unknown_Area_Type
  10
396310.000
  20
4747610.000
  0
VERTEX
  8
Unknown_Area_Type
  10
396310.000
  20
4745674.606
  0
VERTEX
  8
Unknown_Area_Type
  10
396310.000
  20
4745674.165
  0
VERTEX
  8
Unknown_Area_Type
  10
395142.500
  20
4745521.500
  0
VERTEX
  8
Unknown_Area_Type
  10
395139.000
  20
4745521.500
  0
SEQEND
  8
Unknown_Area_Type
  0
POLYLINE
  8
Unknown_Area_Type
  70
1
  66
1
  0
VERTEX
  8
Unknown_Area_Type
  10
396450.000
  20
4754984.694
  0
VERTEX
  8
Unknown_Area_Type
  10
396450.000
  20
4754984.305
  0
VERTEX
  8
Unknown_Area_Type
  10
396359.372
  20
4755002.327
  0
VERTEX
  8
Unknown_Area_Type
  10
396358.500
  20
4755002.500
  0
VERTEX
  8
Unknown_Area_Type
  10
396285.875
  20
4757180.000
  0
VERTEX
  8
Unknown_Area_Type
  10
396286.167
  20
4757180.000
  0
VERTEX
  8
Unknown_Area_Type
  10
396450.000
  20
4757180.000
  0
VERTEX
  8
Unknown_Area_Type
  10
396450.000
  20
4754984.694
  0
SEQEND
  8
Unknown_Area_Type
  0
ENDSEC
  0
EOF
