  0
SECTION
  2
HEADER
  9
$ACADVER
  1
AC1009
  9
$LUNITS
  70
2
  9
$LIMMIN
  10
457489.483
  20
4751490.000
  9
$LIMMAX
  10
484717.182
  20
4760946.390
  9
$EXTMIN
  10
457489.483
  20
4751490.000
  9
$EXTMAX
  10
484717.182
  20
4760946.390
  999
Created by Global Mapper
  999
Projection: UTM
  999
Datum: ETRS89
  999
Ground Units: meters
  999
ZONE: 30
  0
ENDSEC
  0
SECTION
  2
TABLES
  0
ENDSEC
  0
SECTION
  2
BLOCKS
  0
BLOCK
  8
FeatureAttribs
  70
0
  2
FEATURE
  3
FEATURE
  10
0.00000000
  20
0.00000000
  0
ATTDEF
  8
FeatureAttribs
  70
0
  1
 
  2
NAME
  3
NAME
  10
0.00000000
  20
0.00000000
  40
1.00000000
  0
ENDBLK
  0
ENDSEC
  0
SECTION
  2
ENTITIES
  0
POLYLINE
  8
Unknown_Area_Type
  70
1
  66
1
  0
VERTEX
  8
Unknown_Area_Type
  10
462263.500
  20
4754348.000
  0
VERTEX
  8
Unknown_Area_Type
  10
461228.000
  20
4753848.500
  0
VERTEX
  8
Unknown_Area_Type
  10
461227.349
  20
4753848.669
  0
VERTEX
  8
Unknown_Area_Type
  10
460194.000
  20
4754116.500
  0
VERTEX
  8
Unknown_Area_Type
  10
459160.638
  20
4754384.335
  0
VERTEX
  8
Unknown_Area_Type
  10
459160.000
  20
4754384.500
  0
VERTEX
  8
Unknown_Area_Type
  10
459207.912
  20
4756180.000
  0
VERTEX
  8
Unknown_Area_Type
  10
459214.317
  20
4756420.000
  0
VERTEX
  8
Unknown_Area_Type
  10
459259.000
  20
4758094.500
  0
VERTEX
  8
Unknown_Area_Type
  10
459259.304
  20
4758095.108
  0
VERTEX
  8
Unknown_Area_Type
  10
459259.500
  20
4758095.500
  0
VERTEX
  8
Unknown_Area_Type
  10
459284.000
  20
4758100.500
  0
VERTEX
  8
Unknown_Area_Type
  10
462336.000
  20
4758722.000
  0
VERTEX
  8
Unknown_Area_Type
  10
462338.500
  20
4758722.500
  0
VERTEX
  8
Unknown_Area_Type
  10
462339.046
  20
4758722.500
  0
VERTEX
  8
Unknown_Area_Type
  10
462340.491
  20
4758722.500
  0
VERTEX
  8
Unknown_Area_Type
  10
462340.500
  20
4758722.500
  0
VERTEX
  8
Unknown_Area_Type
  10
462340.500
  20
4758697.000
  0
VERTEX
  8
Unknown_Area_Type
  10
462300.185
  20
4756420.000
  0
VERTEX
  8
Unknown_Area_Type
  10
462295.936
  20
4756180.000
  0
VERTEX
  8
Unknown_Area_Type
  10
462263.509
  20
4754348.498
  0
VERTEX
  8
Unknown_Area_Type
  10
462263.500
  20
4754348.000
  0
SEQEND
  8
Unknown_Area_Type
  0
POLYLINE
  8
Unknown_Area_Type
  70
1
  66
1
  0
VERTEX
  8
Unknown_Area_Type
  10
458945.908
  20
4754286.120
  0
VERTEX
  8
Unknown_Area_Type
  10
458091.500
  20
4753893.500
  0
VERTEX
  8
Unknown_Area_Type
  10
458091.493
  20
4753893.502
  0
VERTEX
  8
Unknown_Area_Type
  10
457620.000
  20
4754023.948
  0
VERTEX
  8
Unknown_Area_Type
  10
457504.997
  20
4754055.765
  0
VERTEX
  8
Unknown_Area_Type
  10
457504.997
  20
4754055.781
  0
VERTEX
  8
Unknown_Area_Type
  10
457519.017
  20
4756319.381
  0
VERTEX
  8
Unknown_Area_Type
  10
457531.961
  20
4758408.410
  0
VERTEX
  8
Unknown_Area_Type
  10
457531.962
  20
4758408.604
  0
VERTEX
  8
Unknown_Area_Type
  10
457650.000
  20
4758424.139
  0
VERTEX
  8
Unknown_Area_Type
  10
458231.336
  20
4758500.653
  0
VERTEX
  8
Unknown_Area_Type
  10
458469.096
  20
4758531.947
  0
VERTEX
  8
Unknown_Area_Type
  10
458469.500
  20
4758532.000
  0
VERTEX
  8
Unknown_Area_Type
  10
459259.304
  20
4758095.108
  0
VERTEX
  8
Unknown_Area_Type
  10
459259.500
  20
4758095.000
  0
VERTEX
  8
Unknown_Area_Type
  10
459214.584
  20
4756420.000
  0
VERTEX
  8
Unknown_Area_Type
  10
459208.148
  20
4756180.000
  0
VERTEX
  8
Unknown_Area_Type
  10
459160.000
  20
4754384.500
  0
VERTEX
  8
Unknown_Area_Type
  10
458945.908
  20
4754286.120
  0
SEQEND
  8
Unknown_Area_Type
  0
POLYLINE
  8
Unknown_Area_Type
  70
1
  66
1
  0
VERTEX
  8
Unknown_Area_Type
  10
482261.905
  20
4756100.000
  0
VERTEX
  8
Unknown_Area_Type
  10
479789.136
  20
4756100.000
  0
VERTEX
  8
Unknown_Area_Type
  10
479843.490
  20
4758929.502
  0
VERTEX
  8
Unknown_Area_Type
  10
479843.500
  20
4758930.000
  0
VERTEX
  8
Unknown_Area_Type
  10
480095.000
  20
4759009.000
  0
VERTEX
  8
Unknown_Area_Type
  10
480095.809
  20
4759009.202
  0
VERTEX
  8
Unknown_Area_Type
  10
480099.000
  20
4759010.000
  0
VERTEX
  8
Unknown_Area_Type
  10
480099.320
  20
4759009.680
  0
VERTEX
  8
Unknown_Area_Type
  10
480100.500
  20
4759008.500
  0
VERTEX
  8
Unknown_Area_Type
  10
482262.494
  20
4756100.000
  0
VERTEX
  8
Unknown_Area_Type
  10
482261.905
  20
4756100.000
  0
SEQEND
  8
Unknown_Area_Type
  0
POLYLINE
  8
Unknown_Area_Type
  70
1
  66
1
  0
VERTEX
  8
Unknown_Area_Type
  10
470990.000
  20
4754346.192
  0
VERTEX
  8
Unknown_Area_Type
  10
470269.500
  20
4753972.500
  0
VERTEX
  8
Unknown_Area_Type
  10
470269.124
  20
4753972.564
  0
VERTEX
  8
Unknown_Area_Type
  10
469941.611
  20
4754028.609
  0
VERTEX
  8
Unknown_Area_Type
  10
469048.138
  20
4754181.500
  0
VERTEX
  8
Unknown_Area_Type
  10
468230.000
  20
4754321.500
  0
VERTEX
  8
Unknown_Area_Type
  10
468160.973
  20
4756140.000
  0
VERTEX
  8
Unknown_Area_Type
  10
468151.483
  20
4756390.000
  0
VERTEX
  8
Unknown_Area_Type
  10
468053.037
  20
4758983.513
  0
VERTEX
  8
Unknown_Area_Type
  10
468053.013
  20
4758984.154
  0
VERTEX
  8
Unknown_Area_Type
  10
468053.000
  20
4758984.500
  0
VERTEX
  8
Unknown_Area_Type
  10
469135.000
  20
4759309.000
  0
VERTEX
  8
Unknown_Area_Type
  10
469137.000
  20
4759309.500
  0
VERTEX
  8
Unknown_Area_Type
  10
469137.930
  20
4759309.329
  0
VERTEX
  8
Unknown_Area_Type
  10
469145.831
  20
4759307.878
  0
VERTEX
  8
Unknown_Area_Type
  10
469161.500
  20
4759305.000
  0
VERTEX
  8
Unknown_Area_Type
  10
470925.077
  20
4758914.757
  0
VERTEX
  8
Unknown_Area_Type
  10
470928.500
  20
4758914.000
  0
VERTEX
  8
Unknown_Area_Type
  10
471009.389
  20
4756390.000
  0
VERTEX
  8
Unknown_Area_Type
  10
471010.000
  20
4756370.919
  0
VERTEX
  8
Unknown_Area_Type
  10
471010.670
  20
4756350.000
  0
VERTEX
  8
Unknown_Area_Type
  10
471017.400
  20
4756140.000
  0
VERTEX
  8
Unknown_Area_Type
  10
471018.041
  20
4756120.000
  0
VERTEX
  8
Unknown_Area_Type
  10
471073.500
  20
4754389.500
  0
VERTEX
  8
Unknown_Area_Type
  10
471073.264
  20
4754389.378
  0
VERTEX
  8
Unknown_Area_Type
  10
470990.000
  20
4754346.192
  0
SEQEND
  8
Unknown_Area_Type
  0
POLYLINE
  8
Unknown_Area_Type
  70
1
  66
1
  0
VERTEX
  8
Unknown_Area_Type
  10
466222.529
  20
4759317.995
  0
VERTEX
  8
Unknown_Area_Type
  10
466999.500
  20
4759176.000
  0
VERTEX
  8
Unknown_Area_Type
  10
467000.524
  20
4759176.000
  0
VERTEX
  8
Unknown_Area_Type
  10
467001.500
  20
4759176.000
  0
VERTEX
  8
Unknown_Area_Type
  10
468050.000
  20
4758985.000
  0
VERTEX
  8
Unknown_Area_Type
  10
468052.763
  20
4758984.079
  0
VERTEX
  8
Unknown_Area_Type
  10
468053.000
  20
4758984.000
  0
VERTEX
  8
Unknown_Area_Type
  10
468053.037
  20
4758983.513
  0
VERTEX
  8
Unknown_Area_Type
  10
468053.500
  20
4758977.500
  0
VERTEX
  8
Unknown_Area_Type
  10
468151.587
  20
4756390.000
  0
VERTEX
  8
Unknown_Area_Type
  10
468161.064
  20
4756140.000
  0
VERTEX
  8
Unknown_Area_Type
  10
468230.000
  20
4754321.500
  0
VERTEX
  8
Unknown_Area_Type
  10
468229.733
  20
4754321.375
  0
VERTEX
  8
Unknown_Area_Type
  10
467247.000
  20
4753859.000
  0
VERTEX
  8
Unknown_Area_Type
  10
467246.661
  20
4753859.076
  0
VERTEX
  8
Unknown_Area_Type
  10
467246.510
  20
4753859.109
  0
VERTEX
  8
Unknown_Area_Type
  10
465345.500
  20
4754284.000
  0
VERTEX
  8
Unknown_Area_Type
  10
465344.342
  20
4754284.290
  0
VERTEX
  8
Unknown_Area_Type
  10
465343.500
  20
4754284.500
  0
VERTEX
  8
Unknown_Area_Type
  10
465343.000
  20
4754293.000
  0
VERTEX
  8
Unknown_Area_Type
  10
465309.379
  20
4756140.000
  0
VERTEX
  8
Unknown_Area_Type
  10
465304.828
  20
4756390.000
  0
VERTEX
  8
Unknown_Area_Type
  10
465257.000
  20
4759017.500
  0
VERTEX
  8
Unknown_Area_Type
  10
465626.806
  20
4759132.598
  0
VERTEX
  8
Unknown_Area_Type
  10
466222.500
  20
4759318.000
  0
VERTEX
  8
Unknown_Area_Type
  10
466222.529
  20
4759317.995
  0
SEQEND
  8
Unknown_Area_Type
  0
POLYLINE
  8
Unknown_Area_Type
  70
1
  66
1
  0
VERTEX
  8
Unknown_Area_Type
  10
476456.500
  20
4754076.500
  0
VERTEX
  8
Unknown_Area_Type
  10
476452.500
  20
4754076.500
  0
VERTEX
  8
Unknown_Area_Type
  10
474003.500
  20
4754373.500
  0
VERTEX
  8
Unknown_Area_Type
  10
474002.660
  20
4754373.920
  0
VERTEX
  8
Unknown_Area_Type
  10
474002.500
  20
4754374.000
  0
VERTEX
  8
Unknown_Area_Type
  10
474002.000
  20
4754377.500
  0
VERTEX
  8
Unknown_Area_Type
  10
473952.576
  20
4756120.000
  0
VERTEX
  8
Unknown_Area_Type
  10
473946.052
  20
4756350.000
  0
VERTEX
  8
Unknown_Area_Type
  10
473873.000
  20
4758925.500
  0
VERTEX
  8
Unknown_Area_Type
  10
473873.397
  20
4758925.630
  0
VERTEX
  8
Unknown_Area_Type
  10
475170.500
  20
4759349.500
  0
VERTEX
  8
Unknown_Area_Type
  10
475174.001
  20
4759350.278
  0
VERTEX
  8
Unknown_Area_Type
  10
475174.738
  20
4759350.442
  0
VERTEX
  8
Unknown_Area_Type
  10
475175.000
  20
4759350.500
  0
VERTEX
  8
Unknown_Area_Type
  10
475179.374
  20
4759349.307
  0
VERTEX
  8
Unknown_Area_Type
  10
475191.500
  20
4759346.000
  0
VERTEX
  8
Unknown_Area_Type
  10
475193.500
  20
4759345.500
  0
VERTEX
  8
Unknown_Area_Type
  10
476840.500
  20
4758942.500
  0
VERTEX
  8
Unknown_Area_Type
  10
476871.924
  20
4756350.000
  0
VERTEX
  8
Unknown_Area_Type
  10
476874.712
  20
4756120.000
  0
VERTEX
  8
Unknown_Area_Type
  10
476896.500
  20
4754322.500
  0
VERTEX
  8
Unknown_Area_Type
  10
476896.440
  20
4754322.466
  0
VERTEX
  8
Unknown_Area_Type
  10
476460.000
  20
4754078.000
  0
VERTEX
  8
Unknown_Area_Type
  10
476457.000
  20
4754076.500
  0
VERTEX
  8
Unknown_Area_Type
  10
476456.500
  20
4754076.500
  0
SEQEND
  8
Unknown_Area_Type
  0
POLYLINE
  8
Unknown_Area_Type
  70
1
  66
1
  0
VERTEX
  8
Unknown_Area_Type
  10
464420.000
  20
4753858.124
  0
VERTEX
  8
Unknown_Area_Type
  10
464364.500
  20
4753832.500
  0
VERTEX
  8
Unknown_Area_Type
  10
464364.486
  20
4753832.504
  0
VERTEX
  8
Unknown_Area_Type
  10
464190.000
  20
4753875.357
  0
VERTEX
  8
Unknown_Area_Type
  10
462904.794
  20
4754191.000
  0
VERTEX
  8
Unknown_Area_Type
  10
462263.509
  20
4754348.498
  0
VERTEX
  8
Unknown_Area_Type
  10
462263.500
  20
4754348.500
  0
VERTEX
  8
Unknown_Area_Type
  10
462295.738
  20
4756180.000
  0
VERTEX
  8
Unknown_Area_Type
  10
462299.963
  20
4756420.000
  0
VERTEX
  8
Unknown_Area_Type
  10
462340.491
  20
4758722.500
  0
VERTEX
  8
Unknown_Area_Type
  10
462340.496
  20
4758722.795
  0
VERTEX
  8
Unknown_Area_Type
  10
462340.500
  20
4758723.000
  0
VERTEX
  8
Unknown_Area_Type
  10
462714.923
  20
4759071.864
  0
VERTEX
  8
Unknown_Area_Type
  10
462904.500
  20
4759248.500
  0
VERTEX
  8
Unknown_Area_Type
  10
462904.944
  20
4759249.388
  0
VERTEX
  8
Unknown_Area_Type
  10
462905.000
  20
4759249.500
  0
VERTEX
  8
Unknown_Area_Type
  10
462934.500
  20
4759277.000
  0
VERTEX
  8
Unknown_Area_Type
  10
463280.620
  20
4759380.886
  0
VERTEX
  8
Unknown_Area_Type
  10
463281.000
  20
4759381.000
  0
VERTEX
  8
Unknown_Area_Type
  10
464210.000
  20
4759210.103
  0
VERTEX
  8
Unknown_Area_Type
  10
464450.000
  20
4759165.954
  0
VERTEX
  8
Unknown_Area_Type
  10
465256.372
  20
4759017.615
  0
VERTEX
  8
Unknown_Area_Type
  10
465257.000
  20
4759017.500
  0
VERTEX
  8
Unknown_Area_Type
  10
465305.020
  20
4756390.000
  0
VERTEX
  8
Unknown_Area_Type
  10
465309.589
  20
4756140.000
  0
VERTEX
  8
Unknown_Area_Type
  10
465343.500
  20
4754284.500
  0
VERTEX
  8
Unknown_Area_Type
  10
465342.201
  20
4754283.900
  0
VERTEX
  8
Unknown_Area_Type
  10
464420.000
  20
4753858.124
  0
SEQEND
  8
Unknown_Area_Type
  0
POLYLINE
  8
Unknown_Area_Type
  70
1
  66
1
  0
VERTEX
  8
Unknown_Area_Type
  10
474002.406
  20
4754373.951
  0
VERTEX
  8
Unknown_Area_Type
  10
473342.000
  20
4754027.000
  0
VERTEX
  8
Unknown_Area_Type
  10
473341.617
  20
4754027.061
  0
VERTEX
  8
Unknown_Area_Type
  10
471220.000
  20
4754366.090
  0
VERTEX
  8
Unknown_Area_Type
  10
471073.500
  20
4754389.500
  0
VERTEX
  8
Unknown_Area_Type
  10
471018.041
  20
4756120.000
  0
VERTEX
  8
Unknown_Area_Type
  10
471017.400
  20
4756140.000
  0
VERTEX
  8
Unknown_Area_Type
  10
471010.670
  20
4756350.000
  0
VERTEX
  8
Unknown_Area_Type
  10
471010.000
  20
4756370.919
  0
VERTEX
  8
Unknown_Area_Type
  10
471009.389
  20
4756390.000
  0
VERTEX
  8
Unknown_Area_Type
  10
470928.500
  20
4758914.000
  0
VERTEX
  8
Unknown_Area_Type
  10
470928.984
  20
4758914.156
  0
VERTEX
  8
Unknown_Area_Type
  10
471010.000
  20
4758940.353
  0
VERTEX
  8
Unknown_Area_Type
  10
471095.500
  20
4758968.000
  0
VERTEX
  8
Unknown_Area_Type
  10
471097.000
  20
4758968.500
  0
VERTEX
  8
Unknown_Area_Type
  10
471240.000
  20
4759014.749
  0
VERTEX
  8
Unknown_Area_Type
  10
472139.000
  20
4759305.500
  0
VERTEX
  8
Unknown_Area_Type
  10
472145.947
  20
4759307.395
  0
VERTEX
  8
Unknown_Area_Type
  10
472154.824
  20
4759309.816
  0
VERTEX
  8
Unknown_Area_Type
  10
472155.500
  20
4759310.000
  0
VERTEX
  8
Unknown_Area_Type
  10
473871.338
  20
4758925.872
  0
VERTEX
  8
Unknown_Area_Type
  10
473873.000
  20
4758925.500
  0
VERTEX
  8
Unknown_Area_Type
  10
473946.279
  20
4756350.000
  0
VERTEX
  8
Unknown_Area_Type
  10
473952.822
  20
4756120.000
  0
VERTEX
  8
Unknown_Area_Type
  10
474002.500
  20
4754374.000
  0
VERTEX
  8
Unknown_Area_Type
  10
474002.406
  20
4754373.951
  0
SEQEND
  8
Unknown_Area_Type
  0
POLYLINE
  8
Unknown_Area_Type
  70
1
  66
1
  0
VERTEX
  8
Unknown_Area_Type
  10
478010.000
  20
4756100.000
  0
VERTEX
  8
Unknown_Area_Type
  10
478010.000
  20
4754236.627
  0
VERTEX
  8
Unknown_Area_Type
  10
476896.500
  20
4754322.500
  0
VERTEX
  8
Unknown_Area_Type
  10
476874.712
  20
4756120.000
  0
VERTEX
  8
Unknown_Area_Type
  10
476871.924
  20
4756350.000
  0
VERTEX
  8
Unknown_Area_Type
  10
476840.500
  20
4758942.500
  0
VERTEX
  8
Unknown_Area_Type
  10
476840.933
  20
4758942.639
  0
VERTEX
  8
Unknown_Area_Type
  10
477238.500
  20
4759070.000
  0
VERTEX
  8
Unknown_Area_Type
  10
477240.000
  20
4759070.500
  0
VERTEX
  8
Unknown_Area_Type
  10
477738.111
  20
4759229.556
  0
VERTEX
  8
Unknown_Area_Type
  10
477800.000
  20
4759249.318
  0
VERTEX
  8
Unknown_Area_Type
  10
478030.000
  20
4759322.761
  0
VERTEX
  8
Unknown_Area_Type
  10
478119.566
  20
4759351.362
  0
VERTEX
  8
Unknown_Area_Type
  10
478120.000
  20
4759351.500
  0
VERTEX
  8
Unknown_Area_Type
  10
479268.667
  20
4759070.167
  0
VERTEX
  8
Unknown_Area_Type
  10
479843.000
  20
4758929.500
  0
VERTEX
  8
Unknown_Area_Type
  10
479788.945
  20
4756100.000
  0
VERTEX
  8
Unknown_Area_Type
  10
478010.000
  20
4756100.000
  0
SEQEND
  8
Unknown_Area_Type
  0
POLYLINE
  8
Unknown_Area_Type
  70
1
  66
1
  0
VERTEX
  8
Unknown_Area_Type
  10
482262.494
  20
4756100.000
  0
VERTEX
  8
Unknown_Area_Type
  10
482261.905
  20
4756100.000
  0
VERTEX
  8
Unknown_Area_Type
  10
480099.000
  20
4759009.500
  0
VERTEX
  8
Unknown_Area_Type
  10
480099.320
  20
4759009.680
  0
VERTEX
  8
Unknown_Area_Type
  10
480285.657
  20
4759114.881
  0
VERTEX
  8
Unknown_Area_Type
  10
481005.000
  20
4759521.000
  0
VERTEX
  8
Unknown_Area_Type
  10
481006.000
  20
4759521.500
  0
VERTEX
  8
Unknown_Area_Type
  10
481006.445
  20
4759521.469
  0
VERTEX
  8
Unknown_Area_Type
  10
483737.500
  20
4759330.500
  0
VERTEX
  8
Unknown_Area_Type
  10
483670.050
  20
4756100.000
  0
VERTEX
  8
Unknown_Area_Type
  10
483669.675
  20
4756100.000
  0
VERTEX
  8
Unknown_Area_Type
  10
482262.494
  20
4756100.000
  0
SEQEND
  8
Unknown_Area_Type
  0
POLYLINE
  8
Unknown_Area_Type
  70
1
  66
1
  0
VERTEX
  8
Unknown_Area_Type
  10
480095.809
  20
4759009.202
  0
VERTEX
  8
Unknown_Area_Type
  10
479843.500
  20
4758929.500
  0
VERTEX
  8
Unknown_Area_Type
  10
479843.490
  20
4758929.502
  0
VERTEX
  8
Unknown_Area_Type
  10
479268.667
  20
4759070.167
  0
VERTEX
  8
Unknown_Area_Type
  10
478119.566
  20
4759351.362
  0
VERTEX
  8
Unknown_Area_Type
  10
478119.000
  20
4759351.500
  0
VERTEX
  8
Unknown_Area_Type
  10
478134.458
  20
4760849.755
  0
VERTEX
  8
Unknown_Area_Type
  10
481030.968
  20
4760841.135
  0
VERTEX
  8
Unknown_Area_Type
  10
481006.500
  20
4759521.500
  0
VERTEX
  8
Unknown_Area_Type
  10
481006.445
  20
4759521.469
  0
VERTEX
  8
Unknown_Area_Type
  10
480285.657
  20
4759114.881
  0
VERTEX
  8
Unknown_Area_Type
  10
480101.500
  20
4759011.000
  0
VERTEX
  8
Unknown_Area_Type
  10
480095.809
  20
4759009.202
  0
SEQEND
  8
Unknown_Area_Type
  0
POLYLINE
  8
Unknown_Area_Type
  70
1
  66
1
  0
VERTEX
  8
Unknown_Area_Type
  10
475174.000
  20
4759350.000
  0
VERTEX
  8
Unknown_Area_Type
  10
473874.500
  20
4758925.500
  0
VERTEX
  8
Unknown_Area_Type
  10
473873.397
  20
4758925.630
  0
VERTEX
  8
Unknown_Area_Type
  10
473871.338
  20
4758925.872
  0
VERTEX
  8
Unknown_Area_Type
  10
473866.000
  20
4758926.500
  0
VERTEX
  8
Unknown_Area_Type
  10
472154.824
  20
4759309.816
  0
VERTEX
  8
Unknown_Area_Type
  10
472154.000
  20
4759310.000
  0
VERTEX
  8
Unknown_Area_Type
  10
472191.072
  20
4760871.444
  0
VERTEX
  8
Unknown_Area_Type
  10
474528.631
  20
4760862.169
  0
VERTEX
  8
Unknown_Area_Type
  10
475177.884
  20
4760859.915
  0
VERTEX
  8
Unknown_Area_Type
  10
475174.001
  20
4759350.278
  0
VERTEX
  8
Unknown_Area_Type
  10
475174.000
  20
4759350.000
  0
SEQEND
  8
Unknown_Area_Type
  0
POLYLINE
  8
Unknown_Area_Type
  70
1
  66
1
  0
VERTEX
  8
Unknown_Area_Type
  10
471010.000
  20
4758939.882
  0
VERTEX
  8
Unknown_Area_Type
  10
470930.000
  20
4758914.000
  0
VERTEX
  8
Unknown_Area_Type
  10
470928.984
  20
4758914.156
  0
VERTEX
  8
Unknown_Area_Type
  10
470925.077
  20
4758914.757
  0
VERTEX
  8
Unknown_Area_Type
  10
470917.000
  20
4758916.000
  0
VERTEX
  8
Unknown_Area_Type
  10
469145.831
  20
4759307.878
  0
VERTEX
  8
Unknown_Area_Type
  10
469138.500
  20
4759309.500
  0
VERTEX
  8
Unknown_Area_Type
  10
469228.816
  20
4760884.142
  0
VERTEX
  8
Unknown_Area_Type
  10
471132.446
  20
4760875.645
  0
VERTEX
  8
Unknown_Area_Type
  10
472191.072
  20
4760871.444
  0
VERTEX
  8
Unknown_Area_Type
  10
472154.000
  20
4759310.000
  0
VERTEX
  8
Unknown_Area_Type
  10
472145.947
  20
4759307.395
  0
VERTEX
  8
Unknown_Area_Type
  10
471240.000
  20
4759014.294
  0
VERTEX
  8
Unknown_Area_Type
  10
471010.000
  20
4758939.882
  0
SEQEND
  8
Unknown_Area_Type
  0
POLYLINE
  8
Unknown_Area_Type
  70
1
  66
1
  0
VERTEX
  8
Unknown_Area_Type
  10
483857.458
  20
4759401.975
  0
VERTEX
  8
Unknown_Area_Type
  10
483738.000
  20
4759330.500
  0
VERTEX
  8
Unknown_Area_Type
  10
483737.552
  20
4759330.531
  0
VERTEX
  8
Unknown_Area_Type
  10
481006.500
  20
4759521.500
  0
VERTEX
  8
Unknown_Area_Type
  10
481030.968
  20
4760841.135
  0
VERTEX
  8
Unknown_Area_Type
  10
481320.999
  20
4760840.272
  0
VERTEX
  8
Unknown_Area_Type
  10
483889.904
  20
4760833.902
  0
VERTEX
  8
Unknown_Area_Type
  10
483857.500
  20
4759402.000
  0
VERTEX
  8
Unknown_Area_Type
  10
483857.458
  20
4759401.975
  0
SEQEND
  8
Unknown_Area_Type
  0
POLYLINE
  8
Unknown_Area_Type
  70
1
  66
1
  0
VERTEX
  8
Unknown_Area_Type
  10
465256.372
  20
4759017.615
  0
VERTEX
  8
Unknown_Area_Type
  10
465256.000
  20
4759017.500
  0
VERTEX
  8
Unknown_Area_Type
  10
464450.000
  20
4759165.770
  0
VERTEX
  8
Unknown_Area_Type
  10
464210.000
  20
4759209.920
  0
VERTEX
  8
Unknown_Area_Type
  10
463280.620
  20
4759380.886
  0
VERTEX
  8
Unknown_Area_Type
  10
463280.000
  20
4759381.000
  0
VERTEX
  8
Unknown_Area_Type
  10
463303.500
  20
4759767.823
  0
VERTEX
  8
Unknown_Area_Type
  10
463373.066
  20
4760912.924
  0
VERTEX
  8
Unknown_Area_Type
  10
464340.071
  20
4760907.648
  0
VERTEX
  8
Unknown_Area_Type
  10
466314.517
  20
4760897.856
  0
VERTEX
  8
Unknown_Area_Type
  10
466314.536
  20
4760897.856
  0
VERTEX
  8
Unknown_Area_Type
  10
466222.529
  20
4759317.995
  0
VERTEX
  8
Unknown_Area_Type
  10
466222.500
  20
4759317.500
  0
VERTEX
  8
Unknown_Area_Type
  10
465626.806
  20
4759132.598
  0
VERTEX
  8
Unknown_Area_Type
  10
465256.372
  20
4759017.615
  0
SEQEND
  8
Unknown_Area_Type
  0
POLYLINE
  8
Unknown_Area_Type
  70
1
  66
1
  0
VERTEX
  8
Unknown_Area_Type
  10
477738.111
  20
4759229.556
  0
VERTEX
  8
Unknown_Area_Type
  10
476841.500
  20
4758942.500
  0
VERTEX
  8
Unknown_Area_Type
  10
476840.933
  20
4758942.639
  0
VERTEX
  8
Unknown_Area_Type
  10
475179.374
  20
4759349.307
  0
VERTEX
  8
Unknown_Area_Type
  10
475174.738
  20
4759350.442
  0
VERTEX
  8
Unknown_Area_Type
  10
475174.500
  20
4759350.500
  0
VERTEX
  8
Unknown_Area_Type
  10
475178.214
  20
4760859.914
  0
VERTEX
  8
Unknown_Area_Type
  10
477924.816
  20
4760850.379
  0
VERTEX
  8
Unknown_Area_Type
  10
478134.458
  20
4760849.755
  0
VERTEX
  8
Unknown_Area_Type
  10
478119.000
  20
4759351.500
  0
VERTEX
  8
Unknown_Area_Type
  10
478030.000
  20
4759323.006
  0
VERTEX
  8
Unknown_Area_Type
  10
477800.000
  20
4759249.370
  0
VERTEX
  8
Unknown_Area_Type
  10
477738.111
  20
4759229.556
  0
SEQEND
  8
Unknown_Area_Type
  0
POLYLINE
  8
Unknown_Area_Type
  70
1
  66
1
  0
VERTEX
  8
Unknown_Area_Type
  10
462934.389
  20
4759277.117
  0
VERTEX
  8
Unknown_Area_Type
  10
462934.000
  20
4759277.000
  0
VERTEX
  8
Unknown_Area_Type
  10
461367.723
  20
4760923.865
  0
VERTEX
  8
Unknown_Area_Type
  10
461368.225
  20
4760923.862
  0
VERTEX
  8
Unknown_Area_Type
  10
463372.866
  20
4760912.925
  0
VERTEX
  8
Unknown_Area_Type
  10
463303.500
  20
4759772.000
  0
VERTEX
  8
Unknown_Area_Type
  10
463303.500
  20
4759767.823
  0
VERTEX
  8
Unknown_Area_Type
  10
463303.500
  20
4759764.500
  0
VERTEX
  8
Unknown_Area_Type
  10
463280.000
  20
4759381.000
  0
VERTEX
  8
Unknown_Area_Type
  10
462934.389
  20
4759277.117
  0
SEQEND
  8
Unknown_Area_Type
  0
POLYLINE
  8
Unknown_Area_Type
  70
1
  66
1
  0
VERTEX
  8
Unknown_Area_Type
  10
483670.050
  20
4756100.000
  0
VERTEX
  8
Unknown_Area_Type
  10
483669.675
  20
4756100.000
  0
VERTEX
  8
Unknown_Area_Type
  10
483737.500
  20
4759330.500
  0
VERTEX
  8
Unknown_Area_Type
  10
483737.552
  20
4759330.531
  0
VERTEX
  8
Unknown_Area_Type
  10
483856.500
  20
4759402.000
  0
VERTEX
  8
Unknown_Area_Type
  10
483857.458
  20
4759401.975
  0
VERTEX
  8
Unknown_Area_Type
  10
484713.941
  20
4759379.378
  0
VERTEX
  8
Unknown_Area_Type
  10
484712.020
  20
4758518.347
  0
VERTEX
  8
Unknown_Area_Type
  10
484706.860
  20
4756204.853
  0
VERTEX
  8
Unknown_Area_Type
  10
484706.626
  20
4756100.000
  0
VERTEX
  8
Unknown_Area_Type
  10
483670.050
  20
4756100.000
  0
SEQEND
  8
Unknown_Area_Type
  0
POLYLINE
  8
Unknown_Area_Type
  70
1
  66
1
  0
VERTEX
  8
Unknown_Area_Type
  10
468052.763
  20
4758984.079
  0
VERTEX
  8
Unknown_Area_Type
  10
468052.500
  20
4758984.000
  0
VERTEX
  8
Unknown_Area_Type
  10
467000.524
  20
4759176.000
  0
VERTEX
  8
Unknown_Area_Type
  10
466222.529
  20
4759317.995
  0
VERTEX
  8
Unknown_Area_Type
  10
466222.500
  20
4759318.000
  0
VERTEX
  8
Unknown_Area_Type
  10
466314.517
  20
4760897.856
  0
VERTEX
  8
Unknown_Area_Type
  10
466314.536
  20
4760897.856
  0
VERTEX
  8
Unknown_Area_Type
  10
467736.259
  20
4760890.804
  0
VERTEX
  8
Unknown_Area_Type
  10
469228.816
  20
4760884.142
  0
VERTEX
  8
Unknown_Area_Type
  10
469138.500
  20
4759309.500
  0
VERTEX
  8
Unknown_Area_Type
  10
469137.930
  20
4759309.329
  0
VERTEX
  8
Unknown_Area_Type
  10
468053.013
  20
4758984.154
  0
VERTEX
  8
Unknown_Area_Type
  10
468052.763
  20
4758984.079
  0
SEQEND
  8
Unknown_Area_Type
  0
POLYLINE
  8
Unknown_Area_Type
  70
1
  66
1
  0
VERTEX
  8
Unknown_Area_Type
  10
483857.500
  20
4759402.000
  0
VERTEX
  8
Unknown_Area_Type
  10
483889.904
  20
4760833.902
  0
VERTEX
  8
Unknown_Area_Type
  10
484717.182
  20
4760831.850
  0
VERTEX
  8
Unknown_Area_Type
  10
484713.941
  20
4759379.514
  0
VERTEX
  8
Unknown_Area_Type
  10
483857.500
  20
4759402.000
  0
SEQEND
  8
Unknown_Area_Type
  0
POLYLINE
  8
Unknown_Area_Type
  70
1
  66
1
  0
VERTEX
  8
Unknown_Area_Type
  10
458059.560
  20
4751550.000
  0
VERTEX
  8
Unknown_Area_Type
  10
457489.483
  20
4751550.000
  0
VERTEX
  8
Unknown_Area_Type
  10
457490.365
  20
4751692.405
  0
VERTEX
  8
Unknown_Area_Type
  10
457504.688
  20
4754005.889
  0
VERTEX
  8
Unknown_Area_Type
  10
457504.997
  20
4754055.765
  0
VERTEX
  8
Unknown_Area_Type
  10
457504.997
  20
4754055.781
  0
VERTEX
  8
Unknown_Area_Type
  10
457620.000
  20
4754023.960
  0
VERTEX
  8
Unknown_Area_Type
  10
458091.493
  20
4753893.502
  0
VERTEX
  8
Unknown_Area_Type
  10
458091.500
  20
4753893.500
  0
VERTEX
  8
Unknown_Area_Type
  10
458067.750
  20
4752151.000
  0
VERTEX
  8
Unknown_Area_Type
  10
458059.560
  20
4751550.000
  0
SEQEND
  8
Unknown_Area_Type
  0
POLYLINE
  8
Unknown_Area_Type
  70
1
  66
1
  0
VERTEX
  8
Unknown_Area_Type
  10
462263.509
  20
4754348.498
  0
VERTEX
  8
Unknown_Area_Type
  10
462904.000
  20
4754191.000
  0
VERTEX
  8
Unknown_Area_Type
  10
462904.794
  20
4754191.000
  0
VERTEX
  8
Unknown_Area_Type
  10
462905.500
  20
4754191.000
  0
VERTEX
  8
Unknown_Area_Type
  10
464190.000
  20
4753875.818
  0
VERTEX
  8
Unknown_Area_Type
  10
464364.500
  20
4753833.000
  0
VERTEX
  8
Unknown_Area_Type
  10
464364.486
  20
4753832.504
  0
VERTEX
  8
Unknown_Area_Type
  10
464297.645
  20
4751550.000
  0
VERTEX
  8
Unknown_Area_Type
  10
464296.766
  20
4751520.000
  0
VERTEX
  8
Unknown_Area_Type
  10
464190.000
  20
4751520.000
  0
VERTEX
  8
Unknown_Area_Type
  10
464190.000
  20
4751550.000
  0
VERTEX
  8
Unknown_Area_Type
  10
461231.281
  20
4751550.000
  0
VERTEX
  8
Unknown_Area_Type
  10
461227.000
  20
4753848.500
  0
VERTEX
  8
Unknown_Area_Type
  10
461227.349
  20
4753848.669
  0
VERTEX
  8
Unknown_Area_Type
  10
462263.500
  20
4754348.500
  0
VERTEX
  8
Unknown_Area_Type
  10
462263.509
  20
4754348.498
  0
SEQEND
  8
Unknown_Area_Type
  0
POLYLINE
  8
Unknown_Area_Type
  70
1
  66
1
  0
VERTEX
  8
Unknown_Area_Type
  10
461231.281
  20
4751550.000
  0
VERTEX
  8
Unknown_Area_Type
  10
458059.560
  20
4751550.000
  0
VERTEX
  8
Unknown_Area_Type
  10
458067.750
  20
4752151.000
  0
VERTEX
  8
Unknown_Area_Type
  10
458091.493
  20
4753893.502
  0
VERTEX
  8
Unknown_Area_Type
  10
458091.500
  20
4753894.000
  0
VERTEX
  8
Unknown_Area_Type
  10
458808.000
  20
4754223.000
  0
VERTEX
  8
Unknown_Area_Type
  10
458809.000
  20
4754223.500
  0
VERTEX
  8
Unknown_Area_Type
  10
458945.908
  20
4754286.120
  0
VERTEX
  8
Unknown_Area_Type
  10
459160.638
  20
4754384.335
  0
VERTEX
  8
Unknown_Area_Type
  10
459161.000
  20
4754384.500
  0
VERTEX
  8
Unknown_Area_Type
  10
460194.000
  20
4754116.500
  0
VERTEX
  8
Unknown_Area_Type
  10
461227.000
  20
4753848.500
  0
VERTEX
  8
Unknown_Area_Type
  10
461231.281
  20
4751550.000
  0
SEQEND
  8
Unknown_Area_Type
  0
POLYLINE
  8
Unknown_Area_Type
  70
1
  66
1
  0
VERTEX
  8
Unknown_Area_Type
  10
468229.733
  20
4754321.375
  0
VERTEX
  8
Unknown_Area_Type
  10
469047.000
  20
4754181.500
  0
VERTEX
  8
Unknown_Area_Type
  10
469048.138
  20
4754181.500
  0
VERTEX
  8
Unknown_Area_Type
  10
469049.500
  20
4754181.500
  0
VERTEX
  8
Unknown_Area_Type
  10
469941.611
  20
4754028.609
  0
VERTEX
  8
Unknown_Area_Type
  10
470269.000
  20
4753972.500
  0
VERTEX
  8
Unknown_Area_Type
  10
470284.184
  20
4751520.000
  0
VERTEX
  8
Unknown_Area_Type
  10
467308.474
  20
4751520.000
  0
VERTEX
  8
Unknown_Area_Type
  10
467308.469
  20
4751520.000
  0
VERTEX
  8
Unknown_Area_Type
  10
467246.500
  20
4753859.000
  0
VERTEX
  8
Unknown_Area_Type
  10
467246.513
  20
4753859.006
  0
VERTEX
  8
Unknown_Area_Type
  10
467246.661
  20
4753859.076
  0
VERTEX
  8
Unknown_Area_Type
  10
468229.000
  20
4754321.500
  0
VERTEX
  8
Unknown_Area_Type
  10
468229.733
  20
4754321.375
  0
SEQEND
  8
Unknown_Area_Type
  0
POLYLINE
  8
Unknown_Area_Type
  70
1
  66
1
  0
VERTEX
  8
Unknown_Area_Type
  10
467308.469
  20
4751520.000
  0
VERTEX
  8
Unknown_Area_Type
  10
464296.771
  20
4751520.000
  0
VERTEX
  8
Unknown_Area_Type
  10
464297.650
  20
4751550.000
  0
VERTEX
  8
Unknown_Area_Type
  10
464364.500
  20
4753832.500
  0
VERTEX
  8
Unknown_Area_Type
  10
464420.000
  20
4753858.170
  0
VERTEX
  8
Unknown_Area_Type
  10
464951.500
  20
4754104.000
  0
VERTEX
  8
Unknown_Area_Type
  10
464952.500
  20
4754104.500
  0
VERTEX
  8
Unknown_Area_Type
  10
465340.000
  20
4754283.500
  0
VERTEX
  8
Unknown_Area_Type
  10
465342.201
  20
4754283.900
  0
VERTEX
  8
Unknown_Area_Type
  10
465344.342
  20
4754284.290
  0
VERTEX
  8
Unknown_Area_Type
  10
465345.500
  20
4754284.500
  0
VERTEX
  8
Unknown_Area_Type
  10
467246.500
  20
4753859.500
  0
VERTEX
  8
Unknown_Area_Type
  10
467246.510
  20
4753859.109
  0
VERTEX
  8
Unknown_Area_Type
  10
467246.513
  20
4753859.006
  0
VERTEX
  8
Unknown_Area_Type
  10
467308.474
  20
4751520.000
  0
VERTEX
  8
Unknown_Area_Type
  10
467308.469
  20
4751520.000
  0
SEQEND
  8
Unknown_Area_Type
  0
POLYLINE
  8
Unknown_Area_Type
  70
1
  66
1
  0
VERTEX
  8
Unknown_Area_Type
  10
473341.500
  20
4754027.000
  0
VERTEX
  8
Unknown_Area_Type
  10
473303.660
  20
4751490.000
  0
VERTEX
  8
Unknown_Area_Type
  10
470990.000
  20
4751490.000
  0
VERTEX
  8
Unknown_Area_Type
  10
470990.000
  20
4751520.000
  0
VERTEX
  8
Unknown_Area_Type
  10
470284.184
  20
4751520.000
  0
VERTEX
  8
Unknown_Area_Type
  10
470269.000
  20
4753972.500
  0
VERTEX
  8
Unknown_Area_Type
  10
470269.124
  20
4753972.564
  0
VERTEX
  8
Unknown_Area_Type
  10
470990.000
  20
4754346.701
  0
VERTEX
  8
Unknown_Area_Type
  10
471071.500
  20
4754389.000
  0
VERTEX
  8
Unknown_Area_Type
  10
471072.500
  20
4754389.500
  0
VERTEX
  8
Unknown_Area_Type
  10
471073.264
  20
4754389.378
  0
VERTEX
  8
Unknown_Area_Type
  10
471220.000
  20
4754365.935
  0
VERTEX
  8
Unknown_Area_Type
  10
473341.500
  20
4754027.000
  0
SEQEND
  8
Unknown_Area_Type
  0
POLYLINE
  8
Unknown_Area_Type
  70
1
  66
1
  0
VERTEX
  8
Unknown_Area_Type
  10
474002.660
  20
4754373.920
  0
VERTEX
  8
Unknown_Area_Type
  10
475191.000
  20
4754229.500
  0
VERTEX
  8
Unknown_Area_Type
  10
475193.500
  20
4754229.500
  0
VERTEX
  8
Unknown_Area_Type
  10
476456.500
  20
4754076.500
  0
VERTEX
  8
Unknown_Area_Type
  10
476404.105
  20
4751490.000
  0
VERTEX
  8
Unknown_Area_Type
  10
476403.964
  20
4751490.000
  0
VERTEX
  8
Unknown_Area_Type
  10
473303.660
  20
4751490.000
  0
VERTEX
  8
Unknown_Area_Type
  10
473341.500
  20
4754027.000
  0
VERTEX
  8
Unknown_Area_Type
  10
473341.617
  20
4754027.061
  0
VERTEX
  8
Unknown_Area_Type
  10
474002.000
  20
4754374.000
  0
VERTEX
  8
Unknown_Area_Type
  10
474002.406
  20
4754373.951
  0
VERTEX
  8
Unknown_Area_Type
  10
474002.660
  20
4754373.920
  0
SEQEND
  8
Unknown_Area_Type
  0
POLYLINE
  8
Unknown_Area_Type
  70
1
  66
1
  0
VERTEX
  8
Unknown_Area_Type
  10
476404.105
  20
4751490.000
  0
VERTEX
  8
Unknown_Area_Type
  10
476403.964
  20
4751490.000
  0
VERTEX
  8
Unknown_Area_Type
  10
476456.000
  20
4754073.000
  0
VERTEX
  8
Unknown_Area_Type
  10
476456.500
  20
4754076.500
  0
VERTEX
  8
Unknown_Area_Type
  10
476460.500
  20
4754079.000
  0
VERTEX
  8
Unknown_Area_Type
  10
476895.000
  20
4754322.000
  0
VERTEX
  8
Unknown_Area_Type
  10
476896.000
  20
4754322.500
  0
VERTEX
  8
Unknown_Area_Type
  10
476896.440
  20
4754322.466
  0
VERTEX
  8
Unknown_Area_Type
  10
478010.000
  20
4754236.572
  0
VERTEX
  8
Unknown_Area_Type
  10
478010.000
  20
4751490.000
  0
VERTEX
  8
Unknown_Area_Type
  10
476404.105
  20
4751490.000
  0
SEQEND
  8
Unknown_Area_Type
  0
POLYLINE
  8
Unknown_Area_Type
  70
1
  66
1
  0
VERTEX
  8
Unknown_Area_Type
  10
457650.000
  20
4758423.978
  0
VERTEX
  8
Unknown_Area_Type
  10
457531.961
  20
4758408.410
  0
VERTEX
  8
Unknown_Area_Type
  10
457531.962
  20
4758408.604
  0
VERTEX
  8
Unknown_Area_Type
  10
457533.351
  20
4758632.881
  0
VERTEX
  8
Unknown_Area_Type
  10
457547.692
  20
4760946.390
  0
VERTEX
  8
Unknown_Area_Type
  10
458528.037
  20
4760940.555
  0
VERTEX
  8
Unknown_Area_Type
  10
458528.297
  20
4760940.554
  0
VERTEX
  8
Unknown_Area_Type
  10
458469.000
  20
4758532.000
  0
VERTEX
  8
Unknown_Area_Type
  10
458231.336
  20
4758500.653
  0
VERTEX
  8
Unknown_Area_Type
  10
457650.000
  20
4758423.978
  0
SEQEND
  8
Unknown_Area_Type
  0
POLYLINE
  8
Unknown_Area_Type
  70
1
  66
1
  0
VERTEX
  8
Unknown_Area_Type
  10
462339.046
  20
4758722.500
  0
VERTEX
  8
Unknown_Area_Type
  10
459259.500
  20
4758095.000
  0
VERTEX
  8
Unknown_Area_Type
  10
459259.304
  20
4758095.108
  0
VERTEX
  8
Unknown_Area_Type
  10
458469.096
  20
4758531.947
  0
VERTEX
  8
Unknown_Area_Type
  10
458469.000
  20
4758532.000
  0
VERTEX
  8
Unknown_Area_Type
  10
458528.037
  20
4760940.555
  0
VERTEX
  8
Unknown_Area_Type
  10
458528.297
  20
4760940.554
  0
VERTEX
  8
Unknown_Area_Type
  10
460943.882
  20
4760926.177
  0
VERTEX
  8
Unknown_Area_Type
  10
461367.723
  20
4760923.865
  0
VERTEX
  8
Unknown_Area_Type
  10
461368.225
  20
4760923.862
  0
VERTEX
  8
Unknown_Area_Type
  10
462934.389
  20
4759277.117
  0
VERTEX
  8
Unknown_Area_Type
  10
462934.500
  20
4759277.000
  0
VERTEX
  8
Unknown_Area_Type
  10
462904.944
  20
4759249.388
  0
VERTEX
  8
Unknown_Area_Type
  10
462714.923
  20
4759071.864
  0
VERTEX
  8
Unknown_Area_Type
  10
462341.500
  20
4758723.000
  0
VERTEX
  8
Unknown_Area_Type
  10
462340.496
  20
4758722.795
  0
VERTEX
  8
Unknown_Area_Type
  10
462339.046
  20
4758722.500
  0
SEQEND
  8
Unknown_Area_Type
  0
ENDSEC
  0
EOF
